Oops, an error
Loading. Please wait.

Blind Faith Tab

ver2
ver2

Whole song

Interactive

More versions @911Tabs.com
3,820 views 3 this week
no commentswrite comment
1 2 3 4 5
accurate
x 2
Autoscroll
+/-
esc
set tempo
stop
Contributor
Difficulty
advanced
Hey! There's an official Ultimate Guitar app which is ideal
for learning songs when you're away from computer. Get the app
WARNING: You are trying to view
                                    content from Ultimate-Guitar.com
                                    in an unauthorized application,
                                    which is prohibited.

                                    Please use an official Ultimate
                                    Guitar Tabs application for iPhone,
                                    iPad or Android to access legitimate
                                    chords, guitar, bass, and drum tabs
                                    from Ultimate-Guitar.com database.

                                    Type "ultimate guitar tabs" in Apple
                                    App Store's or Android Market's
                                    search to find the application.
#----------------------------------PLEASE NOTE---------------------------------#
#This file is the author's own work and represents their interpretation of the #
#song. You may only use this file for private study, scholarship, or research. #
#------------------------------------------------------------------------------#

BLIND FAITH
As recorded by Dream Theater
(From the 2002 Double Album SIX DEGREES OF INNER TURBULENCE)


Transcribed by Th3 Syst3m

 Words by James LaBrie Music by John Myung, John Petrucci, Mike Portnoy, Jordan Rudess
Arranged by Th3 Syst3m
 

Csus2
3 x 0 2 3 x Gsus2
x x 0 2 3 0 Dsus2
x 0 2 2 0 0 G/B
2 x 0 2 3 x 
A/C#
4 x 2 4 5 x AmVIII
x 0 x 9 10 8 


Gtr I (A D G C E A) - 'Baritone, Semi Clean tone'
Gtr II (E A D G B E) - 'Acoustic, Capo 5'
Gtr III (A D G C E A) - 'Baritone, Distorted'
Gtr IV (E A D G B E) - 'Distorted Electric, Standard Tuning'
Gtr V (A D G C E A) - 'Baritone (solo)'
Gtr VI (E A D G B E) - 'Classical'


 Intro
  Q=115
 4/4
  Gtr I
  W          Wx8
|----------|--------|
|----------|--------|
|----------|--------|
|----------|--------|
|----------|--------|
|----------|--------|


    $
    D5                          (Dm7)         F
    E E H.        E E H.        E E H.        E E H.
||--------------|-------------|-------------|------------||
||o-------------|-------------|-------------|-----------o||
||------2-------|-----2-------|-----0-------|-----0------||
||----2---------|---2---------|---2---------|---2--------||
||o-0-----------|-0-----------|-0-----------|-3---------o||
||--------------|-------------|-------------|------------||


   Verse
    D5
    PM---------------------------------------
    e S  S  S  S  S  S  S  S  e S  S  S  S
||------------------------------------------|
||o-----------------------------------------|
||----------2-------(2)---------------2-----|
||----2-------(2)-2-------(2)---2-------(2)-|
||o-0---(0)-------------------0---(0)-------|
||------------------------------------------|


 -----------------------------------------|
  S  S  S  S  S  S  S  S  S  S  e S  S  S  S
|----------------------------------------------|
|----------------------------------------------|
|---(2)-------2-------(2)---------------2------|
|-------2-------(2)-2-------(2)---2-------(2)--|
|-0-------(0)-------------------0---(0)--------|
|----------------------------------------------|


  (Dm7)
  PM-------------------------------------------
  S  S  S  S  S  S  S  S  S  S  e S  S  S  S
|---------------------------------------------|
|---------------------------------------------|
|---(2)-------0-------(0)---------------0-----|
|-------2-------(2)-2-------(2)---2-------(2)-|
|-0-------(0)-------------------0---(0)-------|
|---------------------------------------------|


  F
 -----------------------------------------|
  S  S  S  S  S  S  S  S  S  S  e S  S  S  S
|-----------------------------------------------||
|----------------------------------------------o||
|---(0)-------0-------(0)---------------0-------||
|-------2-------(2)-2-------(2)---2-------(2)---||
|-3-------(3)-------------------3---(3)--------o||
|-----------------------------------------------||


  Csus2               Gsus2                 D      Dsus4      D      Dsus4
  Gtr I
  E E E E +E   Q.     E  E  E E +E   Q.     Q   E  E +H       Q   E  E +H
|-------------------|---------0-(0)-------|-----------------|--------------|
|-------3-(3)-------|-------3-------(3)---|-----------------|--------------|
|-----2-------(2)---|----2----------------|-----6--7-(7)----|-----6--7-(7)-|
|---0---------------|-0-(0)---------------|-----7-----------|-----7--------|
|-------------------|---------------------|-0--(0)----------|-0--(0)-------|
|-3-----------------|---------------------|-----------------|--------------|
|
| Gtr II
| E E E E +E   Q.     E  E  E E +E   Q.     Q   E  E +H       Q   E  E +H
|-------------------|---------0-(0)-------|-----------------|--------------|
|-------3-(3)-------|-------3-------(3)---|--------3-(3)----|--------3-(3)-|
|-----2-------(2)---|----2----------------|-----2-----------|-----2--------|
|---0---------------|-0-(0)---------------|-----------------|--------------|
|-------------------|---------------------|-0--(0)----------|-0--(0)-------|
|-3-----------------|---------------------|-----------------|--------------|


  Csus2                  Gadd9/B
  E  E  E E +E  Q   E    E  E  E E +E  Q   E
|----------------------|---------0-(0)--------|
|---------3-(3)--------|---------------3------|
|-------2-------2------|-------2----------(2)-|
|----0-------------(0)-|----0-----------------|
|----------------------|----------------------|
|-3-(3)----------------|-2-(2)----------------|
|
| E  E  E E +E  Q   E    E  E  E E +E  Q   E
|----------------------|---------0-(0)--------|
|---------3-(3)--------|---------------3------|
|-------2-------2------|-------2----------(2)-|
|----0-------------(0)-|----0-----------------|
|----------------------|----------------------|
|-3-(3)----------------|-2-(2)----------------|


                             D.S.
  D      Dsus4      D      Dsus4
  Q   E  E +H       Q   E  E +H
|-----------------|-----------------|
|-----------------|-----------------|
|-----6--7-(7)----|-----6--7-(7)----|
|-----7-----------|-----7-----------|
|-0--(0)----------|-0--(0)----------|
|-----------------|-----------------|
|
| Q   E  E +H       Q   E  E +H
|-----------------|-----------------|
|--------3-(3)----|--------3-(3)----|
|-----2-----------|-----2-----------|
|-----------------|-----------------|
|-0--(0)----------|-0--(0)----------|
|-----------------|-----------------|


 Pre-Chorus
  Csus2                 Gadd9/B
  Gtr III
  E  E  E E +E  E E E   E  E  E E +E  E E E
|---------------------|---------0-(0)-------|
|---------3-(3)-------|---------------3-----|
|-------2-------2-0---|-------2---------2---|
|----0--------------0-|----0--------------0-|
|---------------------|---------------------|
|-3-(3)---------------|-2-(2)---------------|
|
| Gtr II
| E  E  E E +E  E E E   E  E  E E +E  E E E
|---------------------|---------0-(0)-------|
|---------3-(3)-------|---------------3-----|
|-------2-------2-0---|-------2---------2---|
|----0--------------0-|----0--------------0-|
|---------------------|---------------------|
|-3-(3)---------------|-2-(2)---------------|


  Dsus2                 A/C#
  E  E  E E +E  E E E   E  E  E E +E  Q  E
|---------0-(0)-------|---------0-(0)------|
|-------0-------0---0-|-------0-------0----|
|---------------------|--------------------|
|----7------------7---|----6-------------6-|
|---------------------|--------------------|
|-5-(5)---------------|-4-(4)--------------|
|
| E  E  E E +E  E E E   E  E  E E +E  Q  E
|---------0-(0)-------|---------0-(0)------|
|-------0-------0---0-|-------0-------0----|
|---------------------|--------------------|
|----7------------7---|----6-------------6-|
|---------------------|--------------------|
|-5-(5)---------------|-4-(4)--------------|


  Csus2                 Gadd9/B
  E  E  E E +E  E E E   E  E  E E +E  E E E
|---------------------|---------0-(0)-------|
|---------3-(3)-------|---------------3-----|
|-------2-------2-0---|-------2---------2---|
|----0--------------0-|----0--------------0-|
|---------------------|---------------------|
|-3-(3)---------------|-2-(2)---------------|
|
| E  E  E E +E  E E E   E  E  E E +E  E E E
|---------------------|---------0-(0)-------|
|---------3-(3)-------|---------------3-----|
|-------2-------2-0---|-------2---------2---|
|----0--------------0-|----0--------------0-|
|---------------------|---------------------|
|-3-(3)---------------|-2-(2)---------------|


  Bbsus2  N.C.                Bb5
  E  E  E E +E  E +E  E   +E  E E E E E   Q
|-----------------------|---------------------|
|-----------------------|---------------------|
|---------4-(4)-5-(5)-2-|-(2)-----------------|
|-------5---------------|-----3---------------|
|----3------------------|-------3-------------|
|-1-(1)-----------------|---------1-1-x-/12\--|
|
| E  E  E E +E  E +E  E   +E  E Q   H
|-----------------------|---------------------|
|-----------------------|---------------------|
|---------4-(4)-5-(5)-2-|-(2)-----------------|
|-------5---------------|-----3---------------|
|----3------------------|-------3-------------|
|-1-(1)-----------------|-----------1---------|


 Chorus
  Q=120
  N.C.                                       G5A5           C5D5
                    3/4                 4/4                2/4
  Gtr III
  E E E E +E  E Q    E E E +E    +E  E   E E E E +E  E Q    E E   Q
|------------------|-------------------|------------------|-----------|
|------------------|-------------------|------------------|-----------|
|------------------|-------------------|------------------|-----------|
|------------------|-------------------|-----7s9-(9)------|-----------|
|-----5s7-(7)------|-------------------|-----5s7-(7)------|-5s7---7---|
|-0-3---------5-7--|-3-5-5-(5)b7r(5)-3-|-0-3---------5-7--|-3s5---5---|
|
| Gtr IV
| E E E E +E  E Q    E E E +E    +E  E   E E E E +E  E Q    E E   Q
|------------------|-------------------|------------------|-----------|
|------------------|-------------------|------------------|-----------|
|------------------|-------------------|------------------|-----/14\--|
|-----5s7-(7)------|-------------------|------------------|-5s7-/14\--|
|-0-3---------5-7--|-3-5-5-(5)b7r(5)-3-|-0-3-5s7-(7)-5-7--|-3s5-------|
|------------------|-------------------|-----3s5-(5)------|-----------|


  N.C.                                       G5A5                 G5
 4/4                3/4                 4/4
                                  ~~~
  E E E E +E  E Q    E E E +E    +E  E   E E E E +E  E Q    E E E E +E  E E E
|------------------|-------------------|------------------|----------------|
|------------------|-------------------|------------------|----------------|
|------------------|-------------------|------------------|----------------|
|------------------|-------------------|-----7s9-(9)------|-------7-(7)----|
|-----5s7-(7)------|-------------------|-----5s7-(7)------|-------5-(5)-3-2|
|-0-3---------5-7--|-3-5-5-(5)b6r(5)-3-|-0-3---------5-7--|-3-5-3------0---|
|
|                                 ~~~
| E E E E +E  E Q    E E E +E    +E  E   E E E E +E  E Q    E E E E +E  E E E
|------------------|-------------------|------------------|----------------|
|------------------|-------------------|------------------|----------------|
|------------------|-------------------|------------------|----------------|
|-----5s7-(7)------|-------------------|------------------|----------------|
|-0-3---------5-7--|-3-5-5-(5)b6r(5)-3-|-0-3-5s7-(7)-5-7--|-3-5-3-5-(5)0---|
|------------------|-------------------|-----3s5-(5)------|-------3-(3)-1-0|


  Q=115
  D5                                   F
                           >            <
  W          +W           +W            Q.   E +E  E E E
|----------|------------|------------|-------------------|
|----------|------------|------------|-------------------|
|-2--------|-(2)--------|-(2)--------|-------0-(0)-------|
|-2--------|-(2)--------|-(2)--------|-------------2---2-|
|-0--------|-(0)--------|-(0)--------|--3------------3---|
|----------|------------|------------|-------------------|
|
|                          >
| W          +W           +W           +W
|----------|------------|------------|-------------------|
|-3--------|-(3)--------|-(3)--------|-(3)---------------|
|-2--------|-(2)--------|-(2)--------|-(2)---------------|
|-0--------|-(0)--------|-(0)--------|-(0)---------------|
|-0--------|-(0)--------|-(0)--------|-(0)---------------|
|----------|------------|------------|-------------------|


  D5
  Gtr III
  Q.    E  +E  E E E   Q.    E  +E  E E E
|--------------------|--------------------|
|--------------------|--------------------|
|-------2--(2)-------|-------2--(2)-------|
|--------------2---2-|--------------2---2-|
|-0----(0)-------0---|-0----(0)-------0---|
|--------------------|--------------------|


  (Dm7)                F
  Q.    E  +E  E E E   Q.    E  +E  E E E
|--------------------|--------------------|
|--------------------|--------------------|
|-------0--(0)-------|-------0--(0)-------|
|--------------2---2-|--------------2---2-|
|-0----(0)-------0---|-3----(3)-------3---|
|--------------------|--------------------|


   Verse
    D5         Gsus4  D5         Gsus4
       PM|               PM|
    Q  S S E E Q.     Q  S S E E Q.
||-------------5----|------------5----|
||o------------8----|------------8----|
||--2------2---7----|-2------2---7----|
||--2------2--------|-2------2--------|
||o-0--0-0-0--------|-0--0-0-0--------|
||------------------|-----------------|


  D5         Gsus4  F
     PM|               PM|
  Q  S S E E Q.     Q  S S E E E E   +E
|------------5----|------------------------||
|------------8----|-----------------------o||
|-2------2---7----|-0------0---------------||
|-2------2--------|-2------2-----4b5r(4)---||
|-0--0-0-0--------|-3--3-3-3---3----------o||
|-----------------|------------------------||


  Csus2              Gsus2                D      Dsus4      D      Dsus4
  Gtr III
  E E E E +E  Q.     E  E  E E +E  Q.     Q   E  E +H       Q   E  E +E  Q.
|------------------|---------0-(0)------|-----------------|--------------0-|
|-------3-(3)------|-------3-------3----|-----------------|----------------|
|-----2-------2----|----2---------------|-----6--7-(7)----|-----6--7-(7)---|
|---0--------------|-0------------------|-----7-----------|-----7----------|
|------------------|--------------------|-0--(0)----------|-0--(0)---------|
|-3----------------|--------------------|-----------------|----------------|
|
| Gtr II
| E E E E +E  Q.     E  E  E E +E  Q.     Q   E  E +H       Q   E  E +H
|------------------|---------0-(0)------|-----------------|----------------|
|-------3-(3)------|-------3-------3----|--------3-(3)----|--------3-(3)---|
|-----2-------2----|----2---------------|-----2-----------|-----2----------|
|---0--------------|-0-(0)--------------|-----------------|----------------|
|------------------|--------------------|-0--(0)----------|-0--(0)---------|
|-3----------------|--------------------|-----------------|----------------|


  Csus2                  Gadd9/B
  E  E  E E +E  Q.       H          S  S S S S S E
|----------------------|---------0-(0)-------------|
|---------3-(3)--------|-------3----8--8p5---------|
|-------2-------2------|----2--------------7-6s4-2-|
|----0-----------------|---------------------------|
|----------------------|---------------------------|
|-3-(3)----------------|-2-(2)---------------------|
|                        E  E  E E +H
|
| E  E  E E +E  E  E E   E  E  E E +H
|----------------------|---------0-(0)-------------|
|---------3-(3)--------|-------3-------------------|
|-------2-------2--0---|----2----------------------|
|----0---------------0-|---------------------------|
|----------------------|---------------------------|
|-3-(3)----------------|-2-(2)---------------------|


  D      Dsus4      D      Dsus4 D
  Q   E  E +H       Q   E  E +E  Q.
|-----------------|--------------------|
|-----------------|--------------------|
|-----6--7-(7)----|-----6--7-(7)-6-----|
|-----7-----------|-----7--------------|
|-0--(0)----------|-0--(0)-------------|
|-----------------|--------------------|
|
| Q   E  E +H       Q   E  E +H
|-----------------|--------------------|
|--------3-(3)----|--------3-(3)-------|
|-----2-----------|-----2--------------|
|-----------------|--------------------|
|-0--(0)----------|-0--(0)-------------|
|-----------------|--------------------|


 Pre-Chorus
  Csus2                 Gadd9/B
  Gtr III
  E  E  E E +E  E E E   E  E  E E +E  E E E
|---------------------|---------0-(0)-------|
|---------3-(3)-------|---------------3-----|
|-------2-------2-0---|-------2---------2---|
|----0--------------0-|----0--------------0-|
|---------------------|---------------------|
|-3-(3)---------------|-2-(2)---------------|
|
| Gtr II
| E  E  E E +E  E E E   E  E  E E +E  E E E
|---------------------|---------0-(0)-------|
|---------3-(3)-------|---------------3-----|
|-------2-------2-0---|-------2---------2---|
|----0--------------0-|----0--------------0-|
|---------------------|---------------------|
|-3-(3)---------------|-2-(2)---------------|


  Dsus2                 A/C#
  E  E  E E +E  E E E   E  E  E E +E  Q  E
|---------0-(0)-------|---------0-(0)------|
|-------0-------0---0-|-------0-------0----|
|---------------------|--------------------|
|----7------------7---|----6-------------6-|
|---------------------|--------------------|
|-5-(5)---------------|-4-(4)--------------|
|
| E  E  E E +E  E E E   E  E  E E +E  Q  E
|---------0-(0)-------|---------0-(0)------|
|-------0-------0---0-|-------0-------0----|
|---------------------|--------------------|
|----7------------7---|----6-------------6-|
|---------------------|--------------------|
|-5-(5)---------------|-4-(4)--------------|


  Csus2                 Gadd9/B
  E  E  E E +E  E E E   E  E  E E +E  E E E
|---------------------|---------0-(0)-------|
|---------3-(3)-------|---------------3-----|
|-------2-------2-0---|-------2---------2---|
|----0--------------0-|----0--------------0-|
|---------------------|---------------------|
|-3-(3)---------------|-2-(2)---------------|
|
| E  E  E E +E  E E E   E  E  E E +E  E E E
|---------------------|---------0-(0)-------|
|---------3-(3)-------|---------------3-----|
|-------2-------2-0---|-------2---------2---|
|----0--------------0-|----0--------------0-|
|---------------------|---------------------|
|-3-(3)---------------|-2-(2)---------------|


  Bbsus2  N.C.                Bb5
  E  E  E E +E  E +E  E   +E  E E E Q.   E
|-----------------------|------------------|
|-----------------------|------------------|
|---------4-(4)-5-(5)-2-|-(2)--------------|
|-------5---------------|-----3-----3----x-|
|----3------------------|-------3---3----x-|
|-1-(1)-----------------|---------1-1------|
|
| E  E  E E +E  E +E  E   +E  E Q   H
|-----------------------|------------------|
|-----------------------|------------------|
|---------4-(4)-5-(5)-2-|-(2)--------------|
|-------5---------------|-----3------------|
|----3------------------|-------3----------|
|-1-(1)-----------------|-----------1------|


   Chorus
    Q=120
    N.C.                                       G5A5           C5D5
                      3/4                 4/4                2/4
    Gtr III
    E E E E +E  E Q    E E E +E    +E  E   E E E E +E  E Q    E E   Q
||-------------------|-------------------|------------------|-----------|
||o------------------|-------------------|------------------|-----------|
||-------------------|-------------------|------------------|-----------|
||-------------------|-------------------|-----7s9-(9)------|-----------|
||o-----5s7-(7)------|-------------------|-----5s7-(7)------|-5s7---7---|
||--0-3---------5-7--|-3-5-5-(5)b7r(5)-3-|-0-3---------5-7--|-3s5---5---|
|
|   Gtr IV
|   E E E E +E  E Q    E E E +E    +E  E   E E E E +E  E Q    E E   Q
||-------------------|-------------------|------------------|-----------|
||o------------------|-------------------|------------------|-----------|
||-------------------|-------------------|------------------|-----/14\--|
||------5s7-(7)------|-------------------|------------------|-5s7-/14\--|
||o-0-3---------5-7--|-3-5-5-(5)b7r(5)-3-|-0-3-5s7-(7)-5-7--|-3s5-------|
||-------------------|-------------------|-----3s5-(5)------|-----------|


  N.C.
 4/4                3/4
  Gtr III
                                  ~~~
  E E E E +E  E Q    E E E +E    +E  E
|------------------|-------------------|
|------------------|-------------------|
|------------------|-------------------|
|------------------|-------------------|
|-----5s7-(7)------|-------------------|
|-0-3---------5-7--|-3-5-5-(5)b6r(5)-3-|
|
| Gtr IV
|                                 ~~~
| E E E E +E  E Q    E E E +E    +E  E
|------------------|-------------------|
|------------------|-------------------|
|------------------|-------------------|
|-----5s7-(7)------|-------------------|
|-0-3---------5-7--|-3-5-5-(5)b6r(5)-3-|
|------------------|-------------------|


                     1.         2.
      G5A5           C5D5             G5
 4/4                2/4        4/4
  E E E E +E  E Q    E E Q      E E E E +E  E E E
|------------------|---------||-------------------|
|------------------|--------o||-------------------|
|------------------|---------||-------------------|
|-----7s9-(9)------|---------||-------7-(7)-------|
|-----5s7-(7)------|-5s7-7--o||-------5-(5)-------|
|-0-3---------5-7--|-3s5-5---||-3-5-3-------0-3-2-|
|
| E E E E +E  E Q    E E Q      E E E E +E  E E E
|------------------|---------||-------------------|
|------------------|--------o||-------------------|
|------------------|---------||-------------------|
|------------------|-5s7-7---||-------------------|
|-0-3-5s7-(7)-5-7--|-3s5-5--o||-3-5-3-5-(5)-0-3-2-|
|-----3s5-(5)------|---------||-------3-(3)-------|


 Bridge
  N.C.
                        3/4
  Gtr III
  E. S S S E +E  E E E   E. S +E  E +S  E.
|----------------------|-------------------|
|----------------------|-------------------|
|----------------------|-------------------|
|----------------------|-5--7-(7)-4-(4)----|
|----7---7---------7-5-|----------------5--|
|-0--------0-(0)-0-----|-------------------|


 4/4                         3/4
  PM--|             PM|
  S S S S S S E +E  S S E E   E. S +E  E +S  S S S
|---------------------------|----------------------|
|---------------------------|----------------------|
|---------------------------|----4-(4)-7-(7)-------|
|---------------------------|-5--------------------|
|-------7---7-----------7-5-|----------------5-5-5-|
|-0-0-0-------0-(0)-0-0-----|----------------------|


 4/4                         3/4
                    PM|
  S S S S S S E +E  S S E E   E. S +E  E +S  E.
|---------------------------|-------------------|
|---------------------------|-------------------|
|---------------------------|-------------------|
|---------------------------|-5--7-(7)-4-(4)----|
|-----5h7---7-----------7-5-|----------------5--|
|-5h7---------0-(0)-0-0-----|-------------------|


 4/4                    3/4
  E. S S S E +E  E E E   E. S +E  E +S  E.
|----------------------|--------------------|
|----------------------|--------------------|
|----------------------|----4-(4)-7-(7)-----|
|----------------------|-5------------------|
|----7---7---------7-5-|----------------5---|
|-0--------0-(0)-0-----|--------------------|


 4/4                    3/4
  E. S S S E +E  E E E   E. S +E  E +S  E.
|----------------------|-------------------|
|----------------------|-------------------|
|----------------------|-------------------|
|----------------------|-5--7-(7)-4-(4)----|
|----7---7---------7-5-|----------------5--|
|-0--------0-(0)-0-----|-------------------|


 4/4                        3/4
  E. S S S E +S  S S S E E   E. S +E  E +S  E.
|--------------------------|---------------------|
|--------------------------|---------------------|
|--------------------------|---------------------|
|--------------------------|----------------4----|
|-3--3---3-3-(3)-3-3-3-3-5-|----2-(2)-5-(5)------|
|--------------------------|-3-------------------|


 4/4                        3/4
  E. S S S E +S  S S S E E   E. S +E  E +S  E.
|--------------------------|-------------------|
|--------------------------|-------------------|
|--------------------------|-------------------|
|--------------------------|-5--7-(7)-4-(4)----|
|----7---7-------------7-5-|----------------5--|
|-0--------0-(0)-0-0-0-----|-------------------|


  E. S +E  E +S  E.   E. S +E  E +S  E.
|-------------------|--------------------|
|-------------------|--------------------|
|-------------------|--------------------|
|-------------------|--------------------|
|-3--5-(5)-2-(2)----|----2-(2)-----------|
|----------------3--|-5--------3-(3)-2---|


  Q=130
  (A5)
 4/4                     3/4
  E. S +E  E +S  E. E E   E. S +E  E +S  E.
|-----------------------|-------------------|
|-----------------------|-------------------|
|-4--------4-(4)----4---|-------------------|
|-2--0-(0)-2-(2)-0--2-5-|-7--0-(0)-5-(5)-4--|
|-----------------------|-------------------|
|-----------------------|-------------------|


 4/4                     5/8
  E. S +E  E +S  E. E E   E. S +E  E E
|-----------------------|--------------|
|-----------------------|--------------|
|-4--------4-(4)----4---|-7------------|
|-2--0-(0)-2-(2)-0--2-5-|----5-(5)-7-0-|
|-----------------------|--------------|
|-----------------------|--------------|


 4/4                     3/4
  E. S +E  E +S  E. E E   E. S +E  E +S  E.
|-----------------------|-------------------|
|-----------------------|-------------------|
|-4--------4-(4)----4---|-------------------|
|-2--0-(0)-2-(2)-0--2-5-|-7--0-(0)-5-(5)-4--|
|-----------------------|-------------------|
|-----------------------|-------------------|


 4/4                     5/8
  E. S +E  E +S  E. E E   E. S +E  E E
|-----------------------|--------------|
|-----------------------|--------------|
|-4--------4-(4)----4---|-7--6-(6)-----|
|-2--0-(0)-2-(2)-0--2-5-|----------7-5-|
|-----------------------|--------------|
|-----------------------|--------------|


 Guitar Solo
               N.C.
 4/4
  Gtr III
  E +E          H.                         W
|----------------------------------------|----------------------------|
|----------------------------------------|----------------------------|
|-4-(4)\---------------------------------|----------------------------|
|-2-(2)\---------------------------------|----------------------------|
|----------------------------------------|----------------------------|
|----------------------------------------|----------------------------|
|
| Gtr V
| E  S   S     +S  S S S S S S S S S S S   S S S S S S S S S S S S Q
|----0---3b3.5-(3)-0-----0---------------|----------------------------|
|--------------------3p0---3p0-----------|----------------------------|
|------------------------------3-2p0-----|-0--------------------------|
|------------------------------------2p0-|---2p0---2---0-----------2--|
|----------------------------------------|-------2---2---2-1p0--------|
|----------------------------------------|---------------------3p0----|


  Gtr V
   |--3--|  |--3--|     |--3--|           |--------6--------|           |--3--|
   E     S  S  S  S     S  S  S  S     S  S  S  S     S  S  S  S     S  S  S  S
|-----12----------12-------------12-------------12-------------12----------|
|15b17-15-12-15b17-15-12-15b17----15-12-15b17----15-12-15b17----15-12-15b17|
|--------------------------------------------------------------------------|
|--------------------------------------------------------------------------|
|--------------------------------------------------------------------------|
|--------------------------------------------------------------------------|


 3/4
   |--3--|           |------5-------|           |--3--|
   S  S  S  S     S  S  S  S     S  S  S  S     S  S  S
|-12-------------12-------------12-------------12-------|
|----15-12-15b17----15-12-15b17----15-12-15b17----15-12-|
|-------------------------------------------------------|
|-------------------------------------------------------|
|-------------------------------------------------------|
|-------------------------------------------------------|


 4/4
                                            |--3--|
   Q      +S   S  S  S  a  S  S  E  +S   S  S  S  S
|-15b17r=(15)-12-------------15---------15----------|
|----------------15-12-15s17----17-(17)----17-15----|
|------------------------------------------------16-|
|---------------------------------------------------|
|---------------------------------------------------|
|---------------------------------------------------|


 5/8
   |---------6----------|  |--3--|      |--3---|
   S  S  S   S     +S   S  S  S  S     +S   S  S  E
|---------------------------------------------------|
|-17----15------------------------------------------|
|----16----\14b15r(14)-12---------------------------|
|-------------------------14-12---------------------|
|-------------------------------12b13r(12)-10-------|
|---------------------------------------------12-10-|


 4/4                                             3/4
   +S   S  E     +S  S S S  S S S  T T S  S S S    S S S S S S S S S S S S
|--------------------------10-7-9-10p9p7------7-|--------------------7p0---|
|---------10b12r(10)-8---8---------------10-8---|-10-9-8-7-----------------|
|----------------------9------------------------|----------9-8-7-8-9-----7h|
|-----------------------------------------------|--------------------------|
|-----------------------------------------------|--------------------------|
|-(10)\-----------------------------------------|--------------------------|


 4/4                                         5/8
  S S  S S  S S  S S  S S  S  S  S  S  S  S    S  S  S  S  S S S S S S
|---0-12-0-15-0-17-0-19-0-22s15-12-------17s|=12-10-------14s5-3-------|
|----------------------------------15-12----|-------12-10--------5-3p0-|
|-8-----------------------------------------|--------------------------|
|-------------------------------------------|--------------------------|
|-------------------------------------------|--------------------------|
|-------------------------------------------|--------------------------|


 4/4
                                  |------6-------|
  S S S  S S S  S  S  S  S  S  S  S  S  S  S  S  S
|-------10--------------14----------------12-14-15-|
|---7-8----8-7----10-12----12-10-12-14-15----------|
|-9------------12----------------------------------|
|--------------------------------------------------|
|--------------------------------------------------|
|--------------------------------------------------|


 3/4
            T                 T
   S  S  S  S  S  S  S  S  S  S  S  S
|----10h12h19p12p10----12h15h22p15p12-|
|-12----------------15----------------|
|-------------------------------------|
|-------------------------------------|
|-------------------------------------|
|-------------------------------------|


 4/4
   T        T        T        T        T        T        T       T
   |------6-------|  |------6-------|  |------6-------|  |-----6------|
   S  S  S  S  S  S  S  S  S  S  S  S  S  S  S  S  S  S  S  S S  S  S S
|-22p15p12-21p15p12-------------------19p15p14-17p15p14-----------------|
|-----------------------------------------------------------------------|
|-------------------19p14p12-18p14p12-----------------------------------|
|-------------------------------------------------------17p14p9-16p14p9-|
|-----------------------------------------------------------------------|
|-----------------------------------------------------------------------|


 5/8
   T        T        T      T      T
   |------6-------|  |-3-|  |----6-----|
   S  S  S  S  S  S  S S S  S S S  S S S
|-15p12p10--------------------------------|
|----------15p12p10-----------------------|
|-------------------14p9p7----------------|
|--------------------------14p9p7---------|
|---------------------------------14p9p7--|
|-----------------------------------------|


 4/4
  E   S  S       +S   S  S  S  S  T  T  S  S  S  S  S  S
|----12-15b15.5-(15)-12-------12h14p12----12-------------|
|----12-----------------15-12----------15----15-14-12-15-|
|--------------------------------------------------------|
|-x/-----------------------------------------------------|
|-x/-----------------------------------------------------|
|--------------------------------------------------------|


 3/4
   S  S  S  S  S  S  S  S  S  S  S  S
|-------------------------------------|
|-14-12-------------------------------|
|-------15-14-13-12-------14-11-------|
|-------------------14-12-------12----|
|----------------------------------14-|
|-------------------------------------|


 4/4
   |------6-------|  |------6-------|  |------6-------|  |------6-------|
   S  S  S  S  S  S  S  S  S  S  S  S  S  S  S  S  S  S  S  S  S  S  S  S
|-------------------------------------------------------------------------|
|-------------------------------------------------------------------------|
|----------------------------------------------------------------16-18-19-|
|----------------------------14-16-17----------16-17-19-16-17-19----------|
|----------14-16-17-14-16-17----------16-17-19----------------------------|
|-14-15-17----------------------------------------------------------------|


 5/8
   |------6-------|  |--3--|  |------6-------|
   S  S  S  S  S  S  S  S  S  S  S  S  S  S  S
|----------------------------19-21-22-19-21-22--||
|----------19-20-22-19-20-22--------------------||
|-18-19-21--------------------------------------||
|-----------------------------------------------||
|-----------------------------------------------||
|-----------------------------------------------||


  Q=124
  A5                    B5  C5       F5E5  N.C.
                                          2/4
  Gtr V
   Q          +E   +E   E   Q.       Q      W
|-22b24======(22)r(22)\---|--------------|----------|
|-------------------------|--------------|----------|
|-------------------------|--------------|----------|
|-------------------------|--------------|----------|
|-------------------------|--------------|----------|
|-------------------------|--------------|----------|
|
| Gtr III
|        PM--|                 PM--|
|  E     S S   E    E   E   E  S S E E E    E E E E
|-------------------------|--------------|----------|
|-------------------------|--------------|----------|
|-------------------------|--------------|----------|
|-------------------------|--------------|----------|
|-------------------------|----------3-2-|----5-----|
|--0-----0-0---0----0---2-|-3--3-3-3-----|-/5---3-2-|
|
| Gtr IV
|        PM--|                 PM--|
|  E     S S   E    E   E   E  S S E E E    E E E E
|-------------------------|--------------|----------|
|-------------------------|--------------|----------|
|-------------------------|----------5-4-|----------|
|--2----------------2---4-|-5--------3-2-|----5-----|
|--0-----0-0---0----0---2-|-3--3-3-3-----|-/5---3-2-|
|-------------------------|--------------|----------|


  A5         B5  C5       F5E5  N.C.
 5/8                           3/4
  Q.       Q     Q.       Q     H.
|--------------|--------------|---------------|
|--------------|--------------|---------------|
|--------------|--------------|---------------|
|--------------|--------------|---------------|
|--------------|--------------|---------------|
|--------------|--------------|---------------|
|
|    PM--|          PM--|          PM
| E  S S E E E   E  S S E E E   E  E E E E E
|--------------|--------------|---------------|
|--------------|--------------|---------------|
|--------------|--------------|---------------|
|--------------|--------------|-4----2--------|
|--------------|----------3-2-|----5---5-3-2--|
|-0--0-0-0-0-2-|-3--3-3-3-----|---------------|
|
|    PM--|          PM--|          PM
| E  S S E E E   E  S S E E E   E  E E E E E
|--------------|--------------|---------------|
|--------------|--------------|---------------|
|--------------|----------5-4-|-4----2--------|
|-2--------2-4-|-5--------3-2-|----5---5-3-2--|
|-0--0-0-0-0-2-|-3--3-3-3-----|---------------|
|--------------|--------------|---------------|


  A5        B5  C5      F5E5  N.C.
 5/8                         2/4
  Gtr III
    PM--|         PM--|
  E S S E E E   E S S E E E    E E E E
|-------------|-------------|----------|
|-------------|-------------|----------|
|-------------|-------------|----------|
|-------------|-------------|----------|
|-------------|---------3-2-|----5-----|
|-0-0-0-0-0-2-|-3-3-3-3-----|-/5---3-2-|
|
| Gtr IV
|   PM--|         PM--|
| E S S E E E   E S S E E E    E E E E
|-------------|-------------|----------|
|-------------|-------------|----------|
|-------------|---------5-4-|----------|
|-2-------2-4-|-5-------3-2-|----5-----|
|-0-0-0-0-0-2-|-3-3-3-3-----|-/5---3-2-|
|-------------|-------------|----------|


  A5        B5  C5      F5E5  N.C.
 5/8                         3/4
    PM--|         PM--|         PM
  E S S E E E   E S S E E E   E E E E E E
|-------------|-------------|-------------|
|-------------|-------------|-------------|
|-------------|-------------|-------------|
|-------------|-------------|-4---2-------|
|-------------|---------3-2-|---5---5-3-2-|
|-0-0-0-0-0-2-|-3-3-3-3-----|-------------|
|
|   PM--|         PM--|         PM
| E S S E E E   E S S E E E   E E E E E E
|-------------|-------------|-------------|
|-------------|-------------|-------------|
|-------------|---------5-4-|-4---2-------|
|-2-------2-4-|-5-------3-2-|---5---5-3-2-|
|-0-0-0-0-0-2-|-3-3-3-3-----|-------------|
|-------------|-------------|-------------|


  A5        B5   C5                  G5            E5
 5/8
  Gtr III
    PM--|            PM---|            PM--|         PM--|
  E S S E E  E    E  S  S  E  E  E   E S S E E E   E S S E E E
|--------------|-------------------|-------------|-------------|
|--------------|-------------------|-------------|-------------|
|--------------|-------------------|-------------|-------------|
|-9-------9-11-|-12----------12-12-|-7-------7-7-|-4-------4-4-|
|-7-7-7-7-7--9-|-10-10-10-10-10-10-|-5-5-5-5-5-5-|-2-2-2-2-2-2-|
|--------------|-------------------|-------------|-------------|
|
| Gtr IV
|   PM--|            PM---|            PM--|         PM--|
| E S S E E  E    E  S  S  E  E  E   E S S E E E   E S S E E E
|--------------|-------------------|-------------|-------------|
|--------------|-------------------|-------------|-------------|
|--------------|-------------------|-------------|-------------|
|--------------|-------------------|-------------|-------------|
|-7-------7--9-|-10----------10-10-|-5-------5-5-|-2-------2-2-|
|-5-5-5-5-5--7-|--8--8--8--8--8--8-|-3-3-3-3-3-3-|-0-0-0-0-0-0-|


  A5        B5   C5                  G5            N.C.
                                                  2/4
    PM--|            PM---|            PM--|
  E S S E E  E    E  S  S  E  E  E   E S S E E E   E S S E S S
|--------------|-------------------|-------------|-------------|
|--------------|-------------------|-------------|-------------|
|--------------|-------------------|-------------|-------------|
|-9-------9-11-|-12----------12-12-|-7-------7-7-|-------------|
|-7-7-7-7-7--9-|-10-10-10-10-10-10-|-5-5-5-5-5-5-|-3-2-0-------|
|--------------|-------------------|-------------|-------3-2-3-|
|
|   PM--|            PM---|            PM--|
| E S S E E  E    E  S  S  E  E  E   E S S E E E   E S S E S S
|--------------|-------------------|-------------|-------------|
|--------------|-------------------|-------------|-------------|
|--------------|-------------------|-------------|-------------|
|--------------|-------------------|-------------|-3-2-0-------|
|-7-------7--9-|-10----------10-10-|-5-------5-5-|-------3-2-3-|
|-5-5-5-5-5--7-|--8--8--8--8--8--8-|-3-3-3-3-3-3-|-------------|


  A5        B5C5        F5E5N.C.       A5        B5C5        F5E5N.C.
 3/4             4/4
    PM--|         PM--|                  PM--|       PM--|         PM
  E S S E E E E   S S E E E  E E E E   E S S E E E E S S E   E E E E E E E E
|---------------|--------------------|---------------------|---------------|
|---------------|--------------------|---------------------|---------------|
|---------------|--------------------|---------------------|---------------|
|---------------|--------------------|---------------------|-----4---2-----|
|---------------|-------3-2----5-----|---------------------|-3-2---5--5-3-2|
|-0-0-0-0-0-2-3-|-3-3-3-----/5---3-2-|-0-0-0-0-0-2-3-3-3-3-|---------------|
|
|   PM--|         PM--|                  PM--|       PM--|         PM
| E S S E E E E   S S E E E  E E E E   E S S E E E E S S E   E E E E E E E E
|---------------|--------------------|---------------------|---------------|
|---------------|--------------------|---------------------|---------------|
|---------------|-------5-4----------|---------------------|-5-4-4---2-----|
|-2-------2-4-5-|-------3-2----5-----|-2-------2-4-5-------|-3-2---5--5-3-2|
|-0-0-0-0-0-2-3-|-3-3-3-----/5---3-2-|-0-0-0-0-0-2-3-3-3-3-|---------------|
|---------------|--------------------|---------------------|---------------|


 Piano Solo
 5/8                           2/4           5/8
  Gtr VI
                                    |-3-|
  E  S S E E E   E  S S E E E   E E S S S E   E  S S E E E   E  S S E E E
|----5p3-5-----|----3p1-3-1-0-|-3-----------|----5p3-5-----|----3p1-3-1-0-|
|------------0-|-1------------|-3---1h3p1-0-|------------0-|-1------------|
|-2--------2---|--------------|---0---------|-2--------2---|--------------|
|--------------|----------3---|-------------|--------------|--------------|
|-0--------0---|--------------|-------------|-0--------0---|--------------|
|------------0-|-1----------1-|-3---3-------|------------0-|-1--------1---|
  Q.       E E   Q.       E E   Q   Q         Q.       E E   Q.       Q


 3/4                   5/8                           2/4
      |-3-|   |-3-|                                       |-3-|
  E E S S S E S S S E   E  S S E E E   E  S S E E E   E E S S S E
|-3-------------------|----5p3-5-----|----3p1-3-1-0-|-3------------|
|-3---1h3p1-0---------|------------0-|-1------------|-3---1h3p1-0--|
|---0---------2h4p2-0-|-2--------2---|--------------|---0----------|
|---------------------|--------------|----------3-2-|-0------------|
|-----3-----2-0-------|-0--------0-2-|-3------------|-----3-----2--|
|-3-----------------3-|--------------|--------------|---3----------|
  Q   E     E E     E   Q.       E E   Q.       E E   E E E     E


 5/8                             3/4
                                  |----6----| |----6----| |----6----|
  E  S S E E E     E  S S E E E   S S S S S S S S S S S S S S S S S S
|----5p3-5-------|----3p1-3-1-0-|-------3-----------------------0h1h3-|
|------------0---|-1------------|-3p0-----3p0-------------0h1h3-------|
|-2--------2-----|--------------|-----0---------------0h2-------------|
|----------------|--------------|---------------0h2-3-----------------|
|-0--------0-----|------------3-|-2-----------3-----------------------|
|------------3p1-|-0--------3---|-------3-----5-----3-----1-----0-----|
  Q.       E S S   Q.       E E   E     E     E     E     E     E
                                  |


 5/8                                        2/4
                                             |----6----|
  S  S S S S S S S S S   S S S S S S S S E   S S S S S S S S E
|-1--------------------|-----------------0-|-------------------|
|----1-----------0-1h3-|-1p0-------1-3---1-|-3p1p0-------------|
|------2p0-2-----------|-----2---------0---|-------2h4p0-----0-|
|------------------0---|-------0-----------|---------------0---|
|------------2-3-------|-0-------3---2---3-|-------------3-----|
|-1------------1---3---|-------------------|-3-----------1---0-|
  Q.           E   E     Q       E   E   E   Q           E   E


 5/8
                                              |-3-|
  S S S S S S S S S S   S  S   S  S +E  S  S  S S S
|---------------------|--------0--------3p=1--0-----|
|---------------------|-1h=3------------1-(1)---3p1-|
|-0h2---2-------0-2h4-|-0-(0)-(0)-2-(2)-------------|
|-----3-2-----3---2---|-----------------------------|
|-5-------5-3-5-------|-----------3-(3)-3-----3-----|
|---------------------|-1---------------------------|
  Q       E   E   E     Q.              E     E


 3/4
  |--3--|    |----6----| |-----6-----|
  S  S  S  E S S S S S S S S  S S S  S
|----------------------0--------7h8h10--|
|-3-(3)(3)---------1h3---6h8h10---------|
|-0h=2p=0----0h2h4--------------0-------|
|----------0----------------------------|
|------------3-----2-----0--------------|
|-3-------------------------------------|
  Q          E     E     E      E


  AmVIII
 5/8                          2/4
  Gtr VI
  Q.       Q     W              W
  |
  /

  Gtr III
     PM--|         PM--|
  E  S S E E E   E S S E E E    E E E E
|--------------|-------------|----------|
|--------------|-------------|----------|
|--------------|-------------|----------|
|--------------|-------------|----------|
|--------------|---------3-2-|----5-----|
|-0--0-0-0-0-2-|-3-3-3-3-----|-/5---3-2-|


 5/8                              3/4
  W                W               W
    PM--|            PM|
  E S S E E  S S   E S S E  E  E   E  E E  E E E
|----------------|---------------|-----------------|
|----------------|---------------|-----------------|
|----------------|---------------|-----------------|
|----------------|---------------|-----------------|
|---------7------|------------10-|-9----7----------|
|-0-0-0-0---10-8-|-7-7-7-7-10----|---10---10-8-7---|


 5/8                           2/4
    PM--|          PM|            PM
  E S S E E  E   E S S E E  E   E S S E E
|--------------|--------------|-----------|
|--------------|--------------|-----------|
|--------------|--------------|-----------|
|--------------|--------------|-----------|
|--------------|-7-7-7-7-9-10-|-5-5-5-----|
|-8-8-8-8-8-10-|--------------|-------8-7-|


 5/8                         3/4
    PM--|         PM--|         PM|
  E S S E E E   E S S E E E   E S S E E E E
|-------------|-------------|----------------|
|-------------|-------------|----------------|
|-------------|-------------|----------------|
|-------------|-----------5-|-------5-4------|
|-------------|---------7---|-5-5-5-----7-5--|
|-5-5-5-5-5-7-|-8-8-8-8-----|----------------|


 5/8                           6/8
    PM--|          PM|
  E S S E E  E   E S S E E  E   E E  E E E E    E E E  E E E
|--------------|--------------|--------------|---------------|
|--------------|--------------|--------------|---------------|
|--------------|--------------|--------------|---------------|
|--------------|--------------|-7-9-10-------|----7-9-10-----|
|--------------|-7-7-7-7-9-10-|--------5-7-9-|-10--------8---|
|-7-7-7-7-8-10-|--------------|--------------|-------------8-|


   Organ Solo
    A5        B5  C5      F5E5  N.C.
   5/8                         2/4
    Gtr III
      PM--|         PM--|
    E S S E E E   E S S E E E    E E E E
||--------------|-------------|----------|
||o-------------|-------------|----------|
||--------------|-------------|----------|
||--------------|-------------|----------|
||o-------------|---------3-2-|----5-----|
||--0-0-0-0-0-2-|-3-3-3-3-----|-/5---3-2-|
|
|   Gtr IV
|     PM--|         PM--|
|   E S S E E E   E S S E E E    E E E E
||--------------|-------------|----------|
||o-------------|-------------|----------|
||--------------|---------5-4-|----------|
||--2-------2-4-|-5-------3-2-|----5-----|
||o-0-0-0-0-0-2-|-3-3-3-3-----|-/5---3-2-|
||--------------|-------------|----------|


  A5        B5  C5      F5E5  N.C.
 5/8                         3/4
    PM--|         PM--|         PM
  E S S E E E   E S S E E E   E E E E E E
|-------------|-------------|----------------||
|-------------|-------------|---------------o||
|-------------|-------------|----------------||
|-------------|-------------|-4---2----------||
|-------------|---------3-2-|---5---5-3-2---o||
|-0-0-0-0-0-2-|-3-3-3-3-----|----------------||
|
|   PM--|         PM--|         PM
| E S S E E E   E S S E E E   E E E E E E
|-------------|-------------|----------------||
|-------------|-------------|---------------o||
|-------------|---------5-4-|-4---2----------||
|-2-------2-4-|-5-------3-2-|---5---5-3-2----||
|-0-0-0-0-0-2-|-3-3-3-3-----|---------------o||
|-------------|-------------|----------------||


  A5        B5   C5                  G5            E5
 5/8
    PM--|            PM---|            PM--|         PM--|
  E S S E E  E    E  S  S  E  E  E   E S S E E E   E S S E E E
|--------------|-------------------|-------------|-------------|
|--------------|-------------------|-------------|-------------|
|--------------|-------------------|-------------|-------------|
|-9-------9-11-|-12----------12-12-|-7-------7-7-|-4-------4-4-|
|-7-7-7-7-7--9-|-10-10-10-10-10-10-|-5-5-5-5-5-5-|-2-2-2-2-2-2-|
|--------------|-------------------|-------------|-------------|
|
|   PM--|            PM---|            PM--|         PM--|
| E S S E E  E    E  S  S  E  E  E   E S S E E E   E S S E E E
|--------------|-------------------|-------------|-------------|
|--------------|-------------------|-------------|-------------|
|--------------|-------------------|-------------|-------------|
|--------------|-------------------|-------------|-------------|
|-7-------7--9-|-10----------10-10-|-5-------5-5-|-2-------2-2-|
|-5-5-5-5-5--7-|--8--8--8--8--8--8-|-3-3-3-3-3-3-|-0-0-0-0-0-0-|


  A5        B5   C5                  G5            N.C.
                                                  2/4
    PM--|            PM---|            PM--|
  E S S E E  E    E  S  S  E  E  E   E S S E E E   E S S E S S
|--------------|-------------------|-------------|-------------|
|--------------|-------------------|-------------|-------------|
|--------------|-------------------|-------------|-------------|
|-9-------9-11-|-12----------12-12-|-7-------7-7-|-------------|
|-7-7-7-7-7--9-|-10-10-10-10-10-10-|-5-5-5-5-5-5-|-3-2-0-------|
|--------------|-------------------|-------------|-------3-2-3-|
|
|   PM--|            PM---|            PM--|
| E S S E E  E    E  S  S  E  E  E   E S S E E E   E S S E S S
|--------------|-------------------|-------------|-------------|
|--------------|-------------------|-------------|-------------|
|--------------|-------------------|-------------|-------------|
|--------------|-------------------|-------------|-3-2-0-------|
|-7-------7--9-|-10----------10-10-|-5-------5-5-|-------3-2-3-|
|-5-5-5-5-5--7-|--8--8--8--8--8--8-|-3-3-3-3-3-3-|-------------|


  A5        B5  C5      F5E5  N.C.
 5/8                         2/4
    PM--|         PM--|
  E S S E E E   E S S E E E    E E E E
|-------------|-------------|----------|
|-------------|-------------|----------|
|-------------|-------------|----------|
|-------------|-------------|----------|
|-------------|---------3-2-|----5-----|
|-0-0-0-0-0-2-|-3-3-3-3-----|-/5---3-2-|
|
|   PM--|         PM--|
| E S S E E E   E S S E E E    E E E E
|-------------|-------------|----------|
|-------------|-------------|----------|
|-------------|---------5-4-|----------|
|-2-------2-4-|-5-------3-2-|----5-----|
|-0-0-0-0-0-2-|-3-3-3-3-----|-/5---3-2-|
|-------------|-------------|----------|


  A5        B5  C5      F5E5  N.C.
 5/8                         3/4
    PM--|         PM--|         PM
  E S S E E E   E S S E E E   E E E E E E
|-------------|-------------|-------------|
|-------------|-------------|-------------|
|-------------|-------------|-------------|
|-------------|-------------|-4---2-------|
|-------------|---------3-2-|---5---5-3-5-|
|-0-0-0-0-0-2-|-3-3-3-3-----|-------------|
|
|   PM--|         PM--|         PM
| E S S E E E   E S S E E E   E E E E E E
|-------------|-------------|-------------|
|-------------|-------------|-------------|
|-------------|---------5-4-|-4---2-------|
|-2-------2-4-|-5-------3-2-|---5---5-3-5-|
|-0-0-0-0-0-2-|-3-3-3-3-----|-------------|
|-------------|-------------|-------------|


 5/8                           6/8
    PM--|          PM|
  E S S E E  E   E S S E E  E   E E  E E E E    E E E  E E E
|--------------|--------------|--------------|---------------|
|--------------|--------------|--------------|---------------|
|--------------|--------------|--------------|---------------|
|--------------|--------------|-7-9-10-------|----7-9-10-----|
|--------------|-7-7-7-7-9-10-|--------5-7-9-|-10--------8---|
|-7-7-7-7-8-10-|--------------|--------------|-------------8-|
|
|   PM--|          PM|
| E S S E E  E   E S S E E  E   E E  E E E E    E E E  E E E
|--------------|--------------|--------------|---------------|
|--------------|--------------|--------------|---------------|
|--------------|--------------|--------------|---------------|
|--------------|--------------|--------------|---------3-----|
|--------------|--------------|-5-7--8-------|--3-5-7----1---|
|-0-0-0-0-1--3-|-5-5-5-5-7--8-|--------3-5-7-|-------------1-|


   Keyboard Solo
    Q=130
    (A5)
   4/4                     3/4
    Gtr III
    E. S +E  E +S  E. E E   E. S +E  E +S  E.
||------------------------|-------------------|
||o-----------------------|-------------------|
||--4--------4-(4)----4---|-------------------|
||--2--0-(0)-2-(2)-0--2-5-|-7--0-(0)-5-(5)-4--|
||o-----------------------|-------------------|
||------------------------|-------------------|


 4/4                     5/8
  E. S +E  E +S  E. E E   E. S +E  E E
|-----------------------|---------------|
|-----------------------|---------------|
|-4--------4-(4)----4---|-7-------------|
|-2--0-(0)-2-(2)-0--2-5-|----5-(5)-7-0--|
|-----------------------|---------------|
|-----------------------|---------------|


 4/4                     3/4
  E. S +E  E +S  E. E E   E. S +E  E +S  E.
|-----------------------|-------------------|
|-----------------------|-------------------|
|-4--------4-(4)----4---|-------------------|
|-2--0-(0)-2-(2)-0--2-5-|-7--0-(0)-5-(5)-4--|
|-----------------------|-------------------|
|-----------------------|-------------------|


 4/4                     5/8
  E. S +E  E +S  E. E E   E. S +E  E E
|-----------------------|---------------||
|-----------------------|--------------o||
|-4--------4-(4)----4---|-7--6-(6)------||
|-2--0-(0)-2-(2)-0--2-5-|----------7-5--||
|-----------------------|--------------o||
|-----------------------|---------------||


 Guitar/Keyboard Unison
  Q=124
  N.C.(D)
 4/4
  Gtr IV
                           |--3--|            |---3---|
  S  S  S  S  S   S  S  S  S  S  S  S  S  S   S  S    S  S
|---------15--------19-20-19h20p19-15-17-19--17h19p==17----|
|------------19--15-------------------------------------19-|
|---14-19--------------------------------------------------|
|----------------------------------------------------------|
|----------------------------------------------------------|
|----------------------------------------------------------|
|
| Gtr III
| E     S  S +S   S  E     E        S  S +S   S    E
|----------------------------------------------------------|
|----------------------------------------------------------|
|----------------------------------------------------------|
|----------------------------------------------------------|
|----------------------------------------------------------|
|-5-----5--5-(5)--5--5-----3--------3--3-(3)--3----3-------|


                      |--3--|       |---3---|  |---3----|  |--3--|
   S  S  S  S  S   S  S  S  S  S  S S  S    S  S   S    S  S  S  S
|-------------15p=14-------10--------------------------------------|
|--------------------15p10-----------------------------------------|
|-----------------------------12-10-9h10h==12----------------------|
|-17p16---------------------------------------10h=12h==14----------|
|-------17-12---------------------------------------------10-------|
|------------------------------------------------------------13s12-|
|
|  E     S  S +S   S  E        E    S    S    +S     S     E
|------------------------------------------------------------------|
|------------------------------------------------------------------|
|------------------------------------------------------------------|
|------------------------------------------------------------------|
|------------------------------------------------------------------|
|--2-----2--2-(2)--2--2--------1----1----1----(1)----1-----1-------|


                                              |---3----|
   S  S  S  S   S   S  S  S  S  S  S  S   S   S  S     S  S
|----------15---------19-20-22-19----17--19--17h19p===17----|
|--------------19--15-------------20---------------------19-|
|----14-19--------------------------------------------------|
|-----------------------------------------------------------|
|-----------------------------------------------------------|
|-----------------------------------------------------------|
|
|  E     S  S  +S   S  E     E     S  S  +S   S     E
|-----------------------------------------------------------|
|-----------------------------------------------------------|
|-----------------------------------------------------------|
|-----------------------------------------------------------|
|-12----12-12-(12)-12-12----10----10-10-(10)-10----10-------|
|-----------------------------------------------------------|


   |--3--|  |---3---|  |---3----|  |--3--|  |--3--|
   S  S  S  S  S    S  S   S    S  S  S  S  S  S  S  S  S  S   S  T  T  S
|---------------------------------10h12h14-15p13p12------------------------|
|---------------------------------------------------15-13-17---------------|
|---------------------12h=14h==16-----------------------------14-----------|
|----------12h14h==16--------------------------------------------17p15p14--|
|--------------------------------------------------------------------------|
|-15h17h19-----------------------------------------------------------------|
|
|  E        S    S    +S     S     E        E        S  S +S   S  S     S
|--------------------------------------------------------------------------|
|--------------------------------------------------------------------------|
|--------------------------------------------------------------------------|
|--------------------------------------------------------------------------|
|--9--------9----9----(9)----9-----9--------8--------8--8-(8)--8--8-----0--|
|--------------------------------------------------------------------------|


               |--3--|        |--3---|  |--3--|
  S   S  S  S  S  S  S  S  S  S   S  S  S  S  S  S  S  S  S
|----------------------------17p=15p14----14h15p14----------|
|----------15-------------15-----------17----------15-------|
|-------------17p16p14--------------------------------14----|
|----12-17-------------17--------------------------------17-|
|-----------------------------------------------------------|
|-----------------------------------------------------------|
|
| Q.                    E    +H
|-----------------------------------------------------------|
|-----------------------------------------------------------|
|-----------------------------------------------------------|
|-----------------------------------------------------------|
|-5---------------------5----(5)----------------------------|
|-3---------------------3----(3)----------------------------|


   |--3--|  |---3---|               |--3---|  |--3--|  |--3--|  |--3--|
   S  S  S  S  S    S  S   S  S  S  S   S  S  S  S  S  S  S  S  S  S  S
|----------------------------17-19-20p=19-15-------12--------------------|
|--------------------------------------------15s13----15-----------------|
|-------------------------19-----------------------------14p12-----------|
|-16h17h19------------17---------------------------------------16p14p12--|
|----------17h19h==21----------------------------------------------------|
|------------------------------------------------------------------------|
|
|  E.            S    +E      E    +H
|------------------------------------------------------------------------|
|------------------------------------------------------------------------|
|------------------------------------------------------------------------|
|--7-------------7----(7)-----7----(7)-----------------------------------|
|--5-------------5----(5)-----5----(5)-----------------------------------|
|------------------------------------------------------------------------|


 4/4
   |--3--|  |---3---|        |--3--|  |--3--|       |---3----|  |--3--|
   S  S  S  S  S    S  E     S  S  S  S  S  S  E    S   S    S  S  S  S
|---------------------------------------------15------------------------|
|---------------------15-------12h13p12---------------------------------|
|----11h12p11---------------14----------14p12------11h=12h==14p12p11----|
|-14----------14p==12------------------------------------------------12-|
|-----------------------------------------------------------------------|
|-----------------------------------------------------------------------|
|
|  E        S    S    +S  S  E        E        S S +S     S     E
|-----------------------------------------------------------------------|
|-----------------------------------------------------------------------|
|-----------------------------------------------------------------------|
|-----------------------------------------------------------------------|
|-----------------------------------------------------------------------|
|--5--------5----5----(5)-5--5--------3--------3-3-(3)----3-----3-------|


                                  |---3---|  |--------6--------|
   S  S  S  S  S   S  S  S  S  S  S  S    S  S   S    S  S  S  S
|-----------------------15-12-13------------------------------------|
|--------------------15----------15p13p==11-----13p==11-------------|
|----------14-11--12------------------------14----------------------|
|-------12----------------------------------------------14h15-12----|
|-10s12-------------------------------------------------------------|
|-------------------------------------------------------------------|
|
|  E     S  S +S   S  E     E     S    S    +S     S     E
|-------------------------------------------------------------------|
|-------------------------------------------------------------------|
|-------------------------------------------------------------------|
|-------------------------------------------------------------------|
|-------------------------------------------------------------------|
|--2-----2--2-(2)--2--2-----1-----1----1----(1)----1-----1----------|


                             |--3--|             |---3----|
   S  S  S  S   S   S  S  S  S  S  S  S  S   S   S  S     S  S
|--------------------------------------------------------------|
|--------------------------------------------------------------|
|----------12---------16-17-16h17p16-12-14--16--14h16p===14----|
|--------------16--12---------------------------------------16-|
|----12-17-----------------------------------------------------|
|--------------------------------------------------------------|
|
|  E     S  S  +S   S  E     E        S  S  +S   S     E
|--------------------------------------------------------------|
|--------------------------------------------------------------|
|--------------------------------------------------------------|
|--------------------------------------------------------------|
|-12----12-12-(12)-12-12----10-------10-10-(10)-10----10-------|
|--------------------------------------------------------------|


                      |--3--|       |---3---|  |---3----|  |---3---|
   S  S  S  S  S   S  S  S  S  S  S S  S    S  S   S    S  S  S    S
|-------------15p=14-------10-----------------------------------------|
|--------------------15p10--------------------------------------------|
|-----------------------------12-10-9h10h==12-------------------------|
|-17p16---------------------------------------10h=12h==14-------------|
|-------17-12---------------------------------------------10----------|
|------------------------------------------------------------13s==12--|
|
|  E     S  S +S   S  E        E    S    S    +S     S     S    S
|---------------------------------------------------------------------|
|---------------------------------------------------------------------|
|---------------------------------------------------------------------|
|---------------------------------------------------------------------|
|--9-----9--9-(9)--9--9--------8----8----8----(8)----8-----8----0-----|
|---------------------------------------------------------------------|


               |--3--|        |--3---|  |--3--|
  S   S  S  S  S  S  S  S  S  S   S  S  S  S  S  S  S  S  S
|----------------------------17p=15p14----14h15p14----------|
|----------15-------------15-----------17----------15-------|
|-------------17p16p14--------------------------------14----|
|----12-17-------------17--------------------------------17-|
|-----------------------------------------------------------|
|-----------------------------------------------------------|
|
| Q.                    E    +H
|-----------------------------------------------------------|
|-----------------------------------------------------------|
|-----------------------------------------------------------|
|-----------------------------------------------------------|
|-5---------------------5----(5)----------------------------|
|-3---------------------3----(3)----------------------------|


   |--3--|  |---3---|               |--3---|  |--3--|  |--3--|  |--3--|
   S  S  S  S  S    S  S   S  S  S  S   S  S  S  S  S  S  S  S  S  S  S
|----------------------------17-19-20p=19-15-------12--------------------|
|--------------------------------------------15s13----15-----------------|
|-------------------------19-----------------------------14p12-----------|
|-16h17h19------------17---------------------------------------16p14p12--|
|----------17h19h==21----------------------------------------------------|
|------------------------------------------------------------------------|
|
|  E.            S    +E      E    +H
|------------------------------------------------------------------------|
|------------------------------------------------------------------------|
|------------------------------------------------------------------------|
|--7-------------7----(7)-----7----(7)-----------------------------------|
|--5-------------5----(5)-----5----(5)-----------------------------------|
|------------------------------------------------------------------------|


   |--3--|  |--3--|     |--3--|  |--3---|     |--3--|  |--3--|
   S  S  S  S  S  S  E  S  S  S  S   S  S  E  S  S  S  S  S  S
|-----------------------------------------22-------------------|
|-------------------15----19h20p19-----------------------------|
|----11h12p11----------21-----------21p19----17h19-16----------|
|-14----------14p12-----------------------------------17h19-16-|
|--------------------------------------------------------------|
|--------------------------------------------------------------|
|
|  Q                 E  E       +H
|--------------------------------------------------------------|
|--------------------------------------------------------------|
|--------------------6--7-------(7)----------------------------|
|--------------------7-----------------------------------------|
|--0-----------------------------------------------------------|
|--------------------------------------------------------------|


   |--3--|  |--3--|      |--3--|  |--3---|  |--3--|  |--3--|  |--3--|
   S  S  S  S  S  S  E   S  S  S  S   S  S  S  S  S  S  S  S  S  S  S
|------------------------------------------------------------19h20h22--|
|---------------------------------------------------19h20h22-----------|
|-------------------19---------------------17h19h21--------------------|
|----16h17p16--------------------17h=19h21-----------------------------|
|-19----------19p17-----17h19h21---------------------------------------|
|----------------------------------------------------------------------|
|
|  Q                 E   E       +H
|----------------------------------------------------------------------|
|----------------------------------------------------------------------|
|--------------------6---7-------(7)-----------------------------------|
|--------------------7-------------------------------------------------|
|--0----------------(0)------------------------------------------------|
|----------------------------------------------------------------------|


 Pre-Chorus
  Q=120
  Csus2                         Gsus2
  Gtr II
    E   S  S E E  S  S E  E E     E   S  S E E  S  S E  E E
    |   |  | | |  |  | |  | |     |   |  | | |  |  | |  | |
    /   /  / / /  /  / /  / /     /   /  / / /  /  / /  / /

    >
   +W                            +H             H
|-(22)------------------------|-(22)------------------------|
|-----------------------------|-----------------------------|
|-----------------------------|-----------------------------|
|-----------------------------|-----------------------------|
|-----------------------------|-----------------------------|
|-----------------------------|-----------------------------|
|
|   E   E    E E +E    Q.         E   E    E E +E    Q.
|-----------------------------|--------------0-(0)----------|
|--------------3-(3)----------|------------3---------3------|
|------------2---------2------|-------2---------------------|
|-------0---------------------|---0--(0)--------------------|
|-----------------------------|-----------------------------|
|---3--(3)--------------------|-----------------------------|


  Dsus2
  E S S  E  E  S  S E E E   E S S  E  E  S  S E E E
  | | |  |  |  |  | | | |   | | |  |  |  |  | | | |
  / / /  /  /  /  / / / /   / / /  /  /  /  / / / /

  W                         W
|-------------------------|--------------------------|
|-------------------------|--------------------------|
|-------------------------|--------------------------|
|-------------------------|--------------------------|
|-------------------------|--------------------------|
|-------------------------|--------------------------|
|
| Q      E  E +H            Q      E  E +Q      Q
|-------------------------|--------------------------|
|-------------------------|--------------------------|
|--------6--7-(7)---------|--------6--7-(7)-----6----|
|--------7----------------|--------7-----------------|
|-0-----(0)---------------|-0-----(0)----------------|
|-------------------------|--------------------------|


  Csus2                      G/B
  E  S  S E E  S  S E  E E   E  S  S E E  S  S E  E E
  |  |  | | |  |  | |  | |   |  |  | | |  |  | |  | |
  /  /  / / /  /  / /  / /   /  /  / / /  /  / /  / /

  Gtr III
  E  E    E E +E    Q.       E  E    E E +E    Q.
|--------------------------|-----------0-(0)----------|
|-----------3-(3)----------|---------3---------3------|
|---------2---------2------|----2---------------------|
|----0---------------------|-0-(0)--------------------|
|--------------------------|--------------------------|
|-3-(3)--------------------|--------------------------|


  Dsus2
  E S S  E  E  S  S E E E   E S S  E  E  S  S E E E
  | | |  |  |  |  | | | |   | | |  |  |  |  | | | |
  / / /  /  /  /  / / / /   / / /  /  /  /  / / / /

  Q      E  E +H            Q      E  E +Q      Q
|-------------------------|--------------------------|
|-------------------------|--------------------------|
|--------6--7-(7)---------|--------6--7-(7)-----6----|
|--------7----------------|--------7-----------------|
|-0-----(0)---------------|-0-----(0)----------------|
|-------------------------|--------------------------|


  Csus2                     G/B
  E  S  S E E  S  S E E E   E  S  S E E  S  S E E E
  |  |  | | |  |  | | | |   |  |  | | |  |  | | | |
  /  /  / / /  /  / / / /   /  /  / / /  /  / / / /

  E  E    E E +E    E E E   E  E    E E +E    E E E
|-------------------------|-----------0-(0)---------|
|-----------3-(3)---------|-------------------3-----|
|---------2---------2-0---|---------2-----------2---|
|----0------------------0-|----0------------------0-|
|-------------------------|-------------------------|
|-3-(3)-------------------|-2-(2)-------------------|


  Dsus2                     A/C#
  E  S  S E E  S  S E E E   E  S  S E E  S  S E E E
  |  |  | | |  |  | | | |   |  |  | | |  |  | | | |
  /  /  / / /  /  / / / /   /  /  / / /  /  / / / /

  E  E    E E +E    E E E   E  E    E E +E    Q   E
|-----------0-(0)---------|-----------0-(0)----------|
|---------0---------0---0-|---------0---------0------|
|-------------------------|--------------------------|
|----7----------------7---|----6------------------6--|
|-------------------------|--------------------------|
|-5-(5)-------------------|-4-(4)--------------------|


  Csus2                     G/B
  E  S  S E E  S  S E E E   E  S  S E E  S  S E E E
  |  |  | | |  |  | | | |   |  |  | | |  |  | | | |
  /  /  / / /  /  / / / /   /  /  / / /  /  / / / /

  Gtr III
  E  E    E E +E    E E E   E  E    E E +E    E E E
|-------------------------|-----------0-(0)---------|
|-----------3-(3)---------|-------------------3-----|
|---------2---------2-0---|---------2-----------2---|
|----0------------------0-|----0------------------0-|
|-------------------------|-------------------------|
|-3-(3)-------------------|-2-(2)-------------------|
|
| W                         W
|-------------------------|-------------------------|
|-------------------------|-------------------------|
|-------------------------|-------------------------|
|-------------------------|-------------------------|
|-------------------------|-------------------------|
|-------------------------|-------------------------|


  Bbsus2   N.C.
  W                             W
                                              ~~~~
  E   E  E E +E   E +E    E    +E  Q  E +E    Q    +E
|---------------------------|---------------------------|
|---------------------------|------8--8-(8)-[10]--(10)\-|
|----------4-(4)--5-(5)-/10-|-(10)----------------------|
|--------5------------------|---------------------------|
|-----3---------------------|---------------------------|
|-1--(1)--------------------|---------------------------|
|
| Gtr IV
|                         ~~~~~~~~~           ~~~~
| Q.       E +E   E  E    E    +E  Q  E +E    Q    +E
|---------------------------|---------------------------|
|---------------------------|---------------------------|
|----------9-(9)-10---------|------9--9-(9)--10---(10)\-|
|-------------------12---12-|-(12)----------------------|
|---------------------------|---------------------------|
|---------------------------|---------------------------|


   Chorus
    N.C.                                       G5A5           C5D5
                      3/4                 4/4                2/4
    E E E E +E  E Q    E E E +E    +E  E   E E E E +E  E Q    E E   Q
||-------------------|-------------------|------------------|-----------|
||o------------------|-------------------|------------------|-----------|
||-------------------|-------------------|------------------|-----------|
||-------------------|-------------------|-----7s9-(9)------|-----------|
||o-----5s7-(7)------|-------------------|-----5s7-(7)------|-5s7---7---|
||--0-3---------5-7--|-3-5-5-(5)b7r(5)-3-|-0-3---------5-7--|-3s5---5---|
|
|   E E E E +E  E Q    E E E +E    +E  E   E E E E +E  E Q    E E   Q
||-------------------|-------------------|------------------|-----------|
||o------------------|-------------------|------------------|-----------|
||-------------------|-------------------|------------------|-----/14\--|
||------5s7-(7)------|-------------------|------------------|-5s7-/14\--|
||o-0-3---------5-7--|-3-5-5-(5)b7r(5)-3-|-0-3-5s7-(7)-5-7--|-3s5-------|
||-------------------|-------------------|-----3s5-(5)------|-----------|


  N.C.
 4/4                3/4
                                  ~~~
  E E E E +E  E Q    E E E +E    +E  E
|------------------|-------------------|
|------------------|-------------------|
|------------------|-------------------|
|------------------|-------------------|
|-----5s7-(7)------|-------------------|
|-0-3---------5-7--|-3-5-5-(5)b6r(5)-3-|
|
|                                 ~~~
| E E E E +E  E Q    E E E +E    +E  E
|------------------|-------------------|
|------------------|-------------------|
|------------------|-------------------|
|-----5s7-(7)------|-------------------|
|-0-3---------5-7--|-3-5-5-(5)b6r(5)-3-|
|------------------|-------------------|


                     1.         2.
      G5A5           C5D5             G5
 4/4                2/4        4/4
  E E E E +E  E Q    E E Q      E E E E +E  E E E
|------------------|---------||-------------------|
|------------------|--------o||-------------------|
|------------------|---------||-------------------|
|-----7s9-(9)------|---------||-------7-(7)-------|
|-----5s7-(7)------|-5s7-7--o||-------5-(5)---3-2-|
|-0-3---------5-7--|-3s5-5---||-3-5-3-------0-----|
|
| E E E E +E  E Q    E E Q      E E E E +E  E E E
|------------------|---------||-------------------|
|------------------|--------o||-------------------|
|------------------|---------||-------------------|
|------------------|-5s7-7---||-------------------|
|-0-3-5s7-(7)-5-7--|-3s5-5--o||-3-5-3-5-(5)-0-----|
|-----3s5-(5)------|---------||-------3-(3)---1-0-|


 Outro
  Q=115
  D5                            (Dm7)           F
  Gtr III
                                                 >
  W             +W              +W              +W
|-------------|---------------|---------------|-------------|
|-------------|---------------|---------------|-------------|
|-2-----------|-(2)-----------|-(2)-----------|-(2)---------|
|-2-----------|-(2)-----------|-(2)-----------|-(2)---------|
|-0-----------|-(0)-----------|-(0)-----------|-(0)---------|
|-------------|---------------|---------------|-------------|
|
| Gtr IV
|                                                >
| W             +W              +W              +W
|-------------|---------------|---------------|-------------|
|-3-----------|-(3)-----------|-(3)-----------|-(3)---------|
|-2-----------|-(2)-----------|-(2)-----------|-(2)---------|
|-0-----------|-(0)-----------|-(0)-----------|-(0)---------|
|-0-----------|-(0)-----------|-(0)-----------|-(0)---------|
|-------------|---------------|---------------|-------------|
|
| Gtr I
| E E H.         E  E H.         E  E H.         E  E H.
|-------------|---------------|---------------|-------------|
|-------------|---------------|---------------|-------------|
|-----2-------|-------2-------|-------0-------|-------0-----|
|---2---------|-----2---------|-----2---------|-----2-------|
|-0-----------|--0------------|--0------------|--3----------|
|-------------|---------------|---------------|-------------|


    D5                          (Dm7)         F
    Gtr I
    E E H.        E E H.        E E H.        E E H.
||--------------|-------------|-------------|------------||
||o-------------|-------------|-------------|-----------o||
||------2-------|-----2-------|-----0-------|-----0------||
||----2---------|---2---------|---2---------|---2--------||
||o-0-----------|-0-----------|-0-----------|-3---------o||
||--------------|-------------|-------------|------------||


                                            H.=HQ=80
  D5                          (Dm7)         F
  E E H.        E E H.        E E H.        E E H.        W
|-------------|-------------|-------------|-------------|------*|
|-------------|-------------|-------------|-------------|------*|
|-----2-------|-----2-------|-----0-------|-----0-------|------*|
|---2---------|---2---------|---2---------|---2---------|------*|
|-0-----------|-0-----------|-0-----------|-3-----------|------*|
|-------------|-------------|-------------|-------------|------*|




--------------------------------------------------------------------------------


Duration Legend
---------------
W - whole; H - half; Q - quarter; E - 8th; S - 16th; T - 32nd; X - 64th; a - acciaccatura
+ - note tied to previous; . - note dotted; .. - note double dotted
Uncapitalized letters represent notes that are staccato (1/2 duration)
Irregular groupings are notated above the duration line
Duration letters will always appear directly above the note/fret number it represents the
duration for.  Duration letters with no fret number below them represent rests.  Multi-
bar rests are notated in the form Wxn, where n is the number of bars to rest for.  Low
melody durations appear below the staff

Tablature Legend
----------------
 h   - hammer-on
 p   - pull-off
 b   - bend
 pb  - pre-bend
 r   - bend release (if no number after the r, then release immediately)
 /\  - slide into or out of (from/to "nowhere")
 s   - legato slide
 S   - shift slide
 - natural harmonic
[n]  - artificial harmonic
n(n) - tapped harmonic
 ~   - vibrato
 tr  - trill
 T   - tap
 TP  - trem. picking
 PM  - palm muting
\n/  - tremolo bar dip; n = amount to dip
 \n  - tremolo bar down
 n/  - tremolo bar up
/n\  - tremolo bar inverted dip
 =   - hold bend; also acts as connecting device for hammers/pulls
 <> - volume swell (louder/softer)
 x   - on rhythm slash represents muted slash
 o   - on rhythm slash represents single note slash

Misc Legend
-----------
 |  - bar
||  - double bar
||o - repeat start
o|| - repeat end
*|  - double bar (ending)
 :  - bar (freetime)
 $  - Segno
 &  - Coda
Tempo markers -  = BPM(8/16=s8/s16), where s8 = swing 8ths, s16 = swing 16ths

comments
We did not receive enough feedback on this tab! Please rate:
print report bad tab
1 2 3 4 5
I want to post or [tab]
guest
You may want to rate the tab now too:
select rating
Please do not post tabs as comments. Select "correction" instead!