Oops, an error
Loading. Please wait.

Breaking All Illusions Bass Tab

ver1
ver1

Solo

Whole song

Interactive

More versions @911Tabs.com
5,422 views 21 this week
no commentswrite comment
1 2 3 4 5
excellent!
x 3
Autoscroll
+/-
esc
set tempo
stop
Contributor
Difficulty
advanced
Hey! There's an official Ultimate Guitar app which is ideal
for learning songs when you're away from computer. Get the app
WARNING: You are trying to view
                                    content from Ultimate-Guitar.com
                                    in an unauthorized application,
                                    which is prohibited.

                                    Please use an official Ultimate
                                    Guitar Tabs application for iPhone,
                                    iPad or Android to access legitimate
                                    chords, guitar, bass, and drum tabs
                                    from Ultimate-Guitar.com database.

                                    Type "ultimate guitar tabs" in Apple
                                    App Store's or Android Market's
                                    search to find the application.
                            Breaking All Illusions                              

Tabbed by Taylor H.
[See bottom for notes]

                                                                   Dream Theater
Bass



     W                   W                E     W                 
G||-------------------|----------------------|-------------------|
D||-------------------|----------------------|-------------------|
A||-------------------|----------------------|-------------------|
E||-------------------|----------------------|-------------------|
B||-------------------|----------------------|-------------------|


  W                   H        Q    E   
-------------------|-------------------|
-------------------|-------------------|
-------------------|-------------------|
-------------------|-------------------|
-------------------|-------------------|


  E  E  E  E  E  E  E  E   E   E   E   E  E     E  E  E  E   
---------------------------------------------|--------------|
--7--7--7--7---------------------------------|--------------|
--------------8--8--8--8--10--10--10--10--8--|--7--7--7--7--|
---------------------------------------------|--------------|
---------------------------------------------|--------------|


  E  E  E  E   E   E   E   E     E  E   E  E  E  E   E  E   
------------------------------|--7--7----------------------|
--7--7--7--7--10--10--10--10--|------------9--9------------|
------------------------------|--------10--------7------7--|
------------------------------|---------------------10-----|
------------------------------|----------------------------|


  E  E  E  E  E  S  S E  S S S S    E  E  E  E  E  E  E  E  E  E  E  E  E   
-----------------9s-7------------|-----------------------------------------|
--7--7--7--9--9-------5--5-5-5-5-|-----------------------------------------|
---------------------------------|--0--0--0--0-----------------------------|
---------------------------------|--------------1--1--1--1--3--3--3--3--1--|
---------------------------------|-----------------------------------------|


  E  E  E  E     E  E  E  E  E  E  E  E  E  E     E  E  E  E  E  E   
--------------|--------------------------------|--------------------|
--------------|--------------------------------|--------------------|
--------------|--0--0--0--0--3--3--3-----------|--2--2--2-----------|
--0--0--0--0--|--------------------------------|-----------0--0--0--|
--------------|-----------------------1--3--3--|--------------------|


  E  E  E  E  E  E  E     E  E  E  E  E  E  E  E  E  E  E  E  E   
-----------------------|-----------------------------------------|
-----------------------|-----------------------------------------|
-----------------3--2--|--0--0--0--0-----------------------------|
--1--1--1--3--3--------|--------------1--1--1--1--3--3--3--3--1--|
-----------------------|-----------------------------------------|


  E  E  E  E     E  E  E  E  E  E  E  E  E  E     E  E  E  E  E  E   
--------------|--------------------------------|--------------------|
--------------|--------------------------------|--------------------|
--------------|--0--0--0--0--3--3--3-----------|--2--2--2-----------|
--0--0--0--0--|--------------------------------|-----------0--0--0--|
--------------|-----------------------1--3--3--|--------------------|


  E  E  E  E  E  E  E  E  E     E  E  E  E  E  E  E  E  E  E  E  E  E   
-----------------------------|-----------------------------------------|
-----------------------------|-----------------------------------------|
-----------------0--0--2--2--|--0--0--0--0-----------------------------|
--1--1--1--3--3--------------|--------------1--1--1--1--3--3--3--3--1--|
-----------------------------|-----------------------------------------|


  E  E  E  E     E  E  E  E  E  E  E  E  E  E     E  E  E  E  E  E   
--------------|--------------------------------|--------------------|
--------------|--------------------------------|--------------------|
--------------|--0--0--0--0--3--3--3-----------|--2--2--2-----------|
--0--0--0--0--|--------------------------------|-----------0--0--0--|
--------------|-----------------------1--3--3--|--------------------|


  E  E  E  E  E  E  E  E  E     E  E  E  E  E  E  E  E   E   E   E   E  E   
-----------------------------|---------------------------------------------|
-----------------------------|--7--7--7--7---------------------------------|
-----------5-----3--2--------|--------------8--8--8--8--10--10--10--10--8--|
--1--1--1-----3--------0--3--|---------------------------------------------|
-----------------------------|---------------------------------------------|


  E  E  E  E     E  E  E  E   E   E   E   E  E  E     E  E  E  E  E  E   
--------------|------------------------------7--7--|--------------------|
--------------|--7--7--7--7--10--10--10--10--------|--9--9--9-----------|
--7--7--7--7--|------------------------------------|-----------7--7--7--|
--------------|------------------------------------|--------------------|
--------------|------------------------------------|--------------------|


                                  CHORUS                             
  E  E  E  E   E  E  E   E  E     E      E  E  E  E  E  E  E  E  E   
------------------7------------|------------------------------------|
-----------9--10-----9---------|------------------------------------|
--8--8--8---------------10--7--|------------------------------------|
-------------------------------|--1------1--1--1--1--1--1--1--1--1--|
-------------------------------|------------------------------------|


  E  E  E  E  E  E  E  E  E  E     E  E  E  E  E  E  E  E  E  E   
--------------------------------|--------------------------------|
--------------------------------|--------------------------------|
--------------------------------|--------------------------------|
--3--3--3--3--3--3--3--3--3--3--|--0--0--0--0--0--0--0--0--0--0--|
--------------------------------|--------------------------------|


  E  E  E  E  E  E  E  E  E  E     E  E  E  E  E  E  E  E  E  E   
--------------------------------|--------------------------------|
--------------------------------|--------------------------------|
--------------------------------|--------------------------------|
--1--1--1--1--1--1--1--1--1--1--|--1--1--1--1--1--1--1--1--1--1--|
--------------------------------|--------------------------------|


  E  E  E  E  E  E  E  E  E  E     E  E  E  E  E  E  E  E  E  E   
--------------------------------|--------------------------------|
--------------------------------|--------------------------------|
--------------------------------|--------------------------------|
--3--3--3--3--3--3--3--3--3--3--|--0--0--0--0--0--0--0--0--0--0--|
--------------------------------|--------------------------------|


  >           >           >       >                                         
  S S S S S S S S S S S S S S S S S S S S    E  E  E  E  E  E  E  E  E  E   
------------------------------------------|--------------------------------|
------------------------------------------|--------------------------------|
------------------------------------------|--5--5--5--5--5--5--5--5--5--5--|
--1-1-1-1-1-1-1-1-1-1-1-1-1-1-1-1-1-1-1-1-|--------------------------------|
------------------------------------------|--------------------------------|


  E  E  E  E  E  E  E  E  E  E     E  E  E  E  E  E  E  E  E  E   
--------------------------------|--------------------------------|
--------------------------------|--------------------------------|
--2--2--2--2--2--2--2--2--2--2--|--1--1--1--1--1--1--1--1--1--1--|
--------------------------------|--------------------------------|
--------------------------------|--------------------------------|


  E  E  E  E  E  E  Q    Q       E  E   E   E   E   E   
------------------------------|------------12----------|
------------------------------|--------14------12--14--|
------------------------------|--0--0------------------|
--4--4--4--4--4--1--0----0----|------------------------|
------------------------------|------------------------|


  E  E  E  S S E  E  E  E  E  S S E     E  E   S  S  S  S  E   E   
-------------------------------------|--------16-14---------------|
---------------------7---------------|--------------14----12--14--|
--0--0------------5--------7---------|--0--0-----------12---------|
--------7--5-5-3--------0-----8-7-5--|----------------------------|
-------------------------------------|----------------------------|


  S S  E  S  S  E   E   E   E  E  E  S  S    E   E   E   E  E   S S  S S  
------------------------------------------|--------------------12-9------|
----------9-10-12------12------------7----|-----10--12------9-------10-9-|
--0-0-12-----------10------12-----7----10-|--8----------10---------------|
-------------------------------0----------|------------------------------|
------------------------------------------|------------------------------|


  E  E   E   E   E   E      E   E  E  S S E  E     E  E  E   S  S  
------------12----------|-----------------------|-----------------|
--7-----14------12--14--|-----------------------|-----------------|
------------------------|--12--12------------3--|--0--------15-14-|
------------------------|-------------5-0-3-----|-----0--0--------|
------------------------|-----------------------|-----------------|


   S S  E  E   S  S  S  S  E   E      E  E  S  S  E  E   E   
--------------17-14---------------|-------------------------|
--------------------14----12--14--|---------9-10-12---------|
--12-0-12--------------15---------|--12--0------------------|
----------------------------------|---------------------10--|
----------------------------------|------------------8------|


   E  E  E  S  S E   E  E   E  E      S S  S S S  S S  S E   E  E   
------------------------7---------|--12-9------9-------------------|
------------7-------10---------9--|-------10-9---10-9--------------|
--12-----7----10-8---------10-----|-------------------12-8--10--7--|
------0---------------------------|--------------------------------|
----------------------------------|--------------------------------|


   W                   Q.     E  E  E  E  E   
--------------------|------------------------|
--------------------|------------------------|
--------------------|---------5--7--5--------|
--10----------------|--L---------------6--5--|
--------------------|------------------------|


  Q    Q    E  Q    Q    E  E  E  E  E     Q    Q    E  Q    Q    E  E  E   
------------3---------------3-----3--5--|------------3-------7----3--5--3--|
-------5-------5---------5-----5--------|-------5-------5------------------|
----------------------------------------|----------------------------------|
--3-----------------3-------------------|--3-------------------------------|
----------------------------------------|----------------------------------|


  Q    Q    E  Q    Q    E     Q    Q    E  Q    Q    E  E  E  E  E   
------------3-------5----7--|------------3---------------7--3--5--3--|
-------5-------5------------|-------5-------5---------5--------------|
----------------------------|----------------------------------------|
--3-------------------------|--3-----------------3-------------------|
----------------------------|----------------------------------------|


  Q    Q    E  Q    Q    E  E  E  E  E     Q    Q    E  Q    Q    E  E  E   
------------3---------------3-----3--5--|------------3-------7----3--5--3--|
-------5-------5---------5-----5--------|-------5-------5------------------|
----------------------------------------|----------------------------------|
--3-----------------3-------------------|--3-------------------------------|
----------------------------------------|----------------------------------|


  Q    Q    E  Q    Q    E     Q    Q    E  Q    Q    E  E  E  E  E   
------------3-------5----7--|------------3---------------7--3--5--3--|
-------5-------5------------|-------5-------5---------5--------------|
----------------------------|----------------------------------------|
--3-------------------------|--3-----------------3-------------------|
----------------------------|----------------------------------------|


  Q    Q    E  Q    Q    E  E  E  E  E     Q    Q    E  Q    Q    E  E  E   
------------3---------------3-----3--5--|------------3-------7----3--5--3--|
-------5-------5---------5-----5--------|-------5-------5------------------|
----------------------------------------|----------------------------------|
--3-----------------3-------------------|--3-------------------------------|
----------------------------------------|----------------------------------|


  Q    Q    E  Q    Q    E     Q    Q    E  Q    Q    E  E  E  E  E   
------------3-------5----7--|------------3---------------7--3--5--3--|
-------5-------5------------|-------5-------5---------5--------------|
----------------------------|----------------------------------------|
--3-------------------------|--3-----------------3-------------------|
----------------------------|----------------------------------------|


    VERSE 1 & 2                                   
    Q           Q    E  Q    Q    E  E  E  E  E   
|--------------------3---------------3-----3--5--|
|*--------------5-------5---------5-----5--------|
|------------------------------------------------|
|*--3------------------------3-------------------|
|------------------------------------------------|


  Q    Q    E  Q    Q    E  E  E     Q    Q    E  Q    Q    E   
------------3-------7----3--5--3--|------------3-------5----7--|
-------5-------5------------------|-------5-------5------------|
----------------------------------|----------------------------|
--3-------------------------------|--3-------------------------|
----------------------------------|----------------------------|


                               REPEAT 6X            VERSE 3          
  Q    Q    E  Q    Q    E  E  E         E  E   6x  Q.      Q    E   
------------3---------------7--3---------5--3---||------------------|
-------5-------5---------5---------------------*||------------------|
------------------------------------------------||------------------|
--3-----------------3--------------------------*||------------------|
------------------------------------------------||--4-------4----4--|


  Q    Q    E  E     Q.     Q    E     Q    Q    Q       Q.     Q    E   
------------------|-----------------|-----------------|-----------------|
------------------|-----------------|-----------------|-----------------|
--6----6----3-----|-----------------|-----------------|--5------5----5--|
---------------6--|--5------5----5--|--5----5----5----|-----------------|
------------------|-----------------|-----------------|-----------------|


  Q    H           Q.     Q    E     E  E  E  E  E  E     Q.     Q    E   
----------------|-----------------|--------------------|-----------------|
----------------|-----------------|--------------------|-----------------|
--5----5--------|-----------------|--5--3--------------|-----------------|
----------------|-----------------|--------6--5--3-----|--3------3----3--|
----------------|--3------3----3--|-----------------6--|-----------------|


  Q    Q    Q       Q.     Q    E     Q    Q    Q       E  E  Q    E  E   
-----------------|-----------------|-----------------|-------------------|
-----------------|-----------------|-----------------|-------------------|
-----------------|-----------------|-----------------|-----5-------------|
--3----3----6----|--5------5----5--|--5----5----5----|--3-----3----3-----|
-----------------|-----------------|-----------------|----------------6--|


  E  E  E  E  E  E     E  E  E  E  E  E     E  E  Q    Q       Q.     Q    E   
--------------------|--------3--2--------|--------2----3----|-----------------|
--------------------|--3--5--------3-----|--3--5------------|-----------------|
--------------3--5--|-----------------5--|------------------|-----------------|
--3-----3--6--------|--------------------|------------------|-----------------|
-----6--------------|--------------------|------------------|--4------4----4--|


  Q    Q    Q       Q.     Q    E     Q    Q    Q       Q.     Q    E   
-----------------|-----------------|-----------------|-----------------|
-----------------|-----------------|-----------------|-----------------|
-----------------|-----------------|-----------------|-----------------|
-----------------|-----------------|-----------------|--6------6----6--|
--4----4----4----|--6------6----6--|--6----6----6----|-----------------|


  Q.     Q    E     Q.     Q    E     H.              H.            
-----------------|-----------------|---------------|---------------|
-----------------|-----------------|---------------|---------------|
-----------------|-----------------|---------------|--3------------|
--5------5----5--|--3------3----3--|---------------|---------------|
-----------------|-----------------|--3------------|---------------|


  H        Q       H.              H.              Q.     Q    E   
----------------|---------------|---------------|-----------------|
----------------|---------------|---------------|-----------------|
--L-------------|---------------|---------------|-----------------|
-----------3----|---------------|---------------|--4------4----4--|
----------------|--1------------|--L------------|-----------------|


  H.              S S S S S S S S S S S S    S S S S S S S S S S S S  
---------------|--------------------------|--------------------------|
---------------|--6-5-6-8-6-5-------5-----|--------------------------|
---------------|--------------8-6-8---8-6-|--5-3-5-6-5-3-------3-----|
--4------------|--------------------------|--------------6-4-6---6-4-|
---------------|--------------------------|--------------------------|


    VERSE 4 (on repeat)                              
    S                   S S S S S E  E  S S S S S S  
|---------------------------------------------------|
|*--------------------------------------------------|
|---------------------------------------------0-1-3-|
|*--3-------------------2-3-5-3-2-3-----3-2-3-------|
|---------------------------------------------------|


  E.  S S S E  S S S S Q       S S S S S S E  E  S S S S S S  
----------------------------|--------------------------------|
----------------------------|--------------------------------|
--4---3-1-0-3--L-1-0--------|--------------------------0-1-3-|
---------------------3-2----|--3-2-3-5-3-2-3-----3-2-3-------|
----------------------------|--------------------------------|


  Q    E  E  E  E  Q       S S S S S S E  E  S S S S S S  
------------------------|--------------------------------|
------------------------|--------------------------------|
----------4--L----------|--------------------------0-1-3-|
--2----3--------3--6----|--3-2-3-5-3-2-3-----3-2-3-------|
------------------------|--------------------------------|


  E.  S S S E  S S S S Q       S S S S S S E  E  S S S S S S  
----------------------------|--------------------------------|
----------------------------|--------------------------------|
--4---3-1-0-3--L-1-0--------|--------------------------0-1-3-|
---------------------3-2----|--3-2-3-5-3-2-3-----3-2-3-------|
----------------------------|--------------------------------|


  Q    Q    Q    Q          S S S S S S E  E  S S S S S S  
-----------------------||---------------------------------|
----------------------*||*--------------------------------|
--0----6---------5-----||---------------------------0-1-3-|
------------4---------*||*--3-2-3-5-3-2-3-----3-2-3-------|
-----------------------||---------------------------------|


  E.  S S S E  S S S S Q       S S S S S S E  E  S S S S S S  
----------------------------|--------------------------------|
----------------------------|--------------------------------|
--4---3-1-0-3--L-1-0--------|--------------------------0-1-3-|
---------------------3-2----|--3-2-3-5-3-2-3-----3-2-3-------|
----------------------------|--------------------------------|


                             |----3----|    |----3----|    |----3----|     
  Q    E  E  E  E  Q         Q    Q    Q    Q    Q    Q    Q    Q    Q     
-------------------------||-----------------------------------------------|
------------------------*||-----------------------------------------------|
--0-------3--L-----6-----||------------4--------------1-------------------|
-------3--------3-------*||--2----3---------2----3---------2----3----2----|
-------------------------||-----------------------------------------------|


  E  E  E  E  E  E  E  E  E  E  E  E  E     E  E  E  E   
-----------------------------------------|--------------|
-----------------------------------------|--------------|
--------------3--3--3--3--5--5--5--5--3--|--2--2--2--2--|
--0--0--0--0-----------------------------|--------------|
-----------------------------------------|--------------|


  E  E  E  E  E  E  E  E     E  E  E  E  E  E  E  E   
--------------------------|--------------------------|
--------------------------|--------------------------|
--------------------------|-----------------2--2--2--|
--0--0--0--0--3--3--3--3--|--5--5--2--2--2-----------|
--------------------------|--------------------------|


  E  E  E  E  E  E  E  E  E     E  E  E  E  E  E  E  E   E   E   E   E  E   
-----------------------------|---------------------------------------------|
-----------------------------|--7--7--7--7---------------------------------|
--3--3--3--5-----3--2--------|--------------8--8--8--8--10--10--10--10--8--|
--------------3--------0--3--|---------------------------------------------|
-----------------------------|---------------------------------------------|


  E  E  E  E     E  E  E  E   E   E   E   E  E  E     E  E  E  E  E  E   
--------------|------------------------------7--7--|-----------------9--|
--------------|--7--7--7--7--10--10--10--10--------|--9--9--9-----------|
--7--7--7--7--|------------------------------------|-----------7--7-----|
--------------|------------------------------------|--------------------|
--------------|------------------------------------|--------------------|


                                  CHORUS                             
   E  Q    E   E  E  E   E  E     E      E  E  E  E  E  E  E  E  E   
--10--------------7------------|------------------------------------|
-----------9--10-----9---------|------------------------------------|
------------------------10--7--|------------------------------------|
-------------------------------|--1------1--1--1--1--1--1--1--1--1--|
-------------------------------|------------------------------------|


  E  E  E  E  E  E  E  E  E  E     E  E  E  E  E  E  E  E  E  E   
--------------------------------|--------------------------------|
--------------------------------|--------------------------------|
--------------------------------|--------------------------------|
--3--3--3--3--3--3--3--3--3--3--|--0--0--0--0--0--0--0--0--0--0--|
--------------------------------|--------------------------------|


  E  E  E  E  E  E  E  E  E  E     E  E  E  E  E  E  E  E  E  E   
--------------------------------|--------------------------------|
--------------------------------|--------------------------------|
--------------------------------|--------------------------------|
--1--1--1--1--1--1--1--1--1--1--|--1--1--1--1--1--1--1--1--1--1--|
--------------------------------|--------------------------------|


  E  E  E  E  E  E  E  E  E  E     E  E  E  E  E  E  E  E  E  E   
--------------------------------|--------------------------------|
--------------------------------|--------------------------------|
--------------------------------|--------------------------------|
--3--3--3--3--3--3--3--3--3--3--|--0--0--0--0--0--0--0--0--0--0--|
--------------------------------|--------------------------------|


  Q.     Q.     Q    Q       E  E  E  E  E  E  E  E  E  E   
--------------------------|--------------------------------|
--------------------------|--------------------------------|
--------------------------|--5--5--5--5--5--5--5--5--5--5--|
--1------1------1----1----|--------------------------------|
--------------------------|--------------------------------|


  E  E  E  E  E  E  E  E  E  E     E  E  E  E  E  E  E  E  E  E   
--------------------------------|--------------------------------|
--------------------------------|--------------------------------|
--2--2--2--2--2--2--2--2--2--2--|--1--1--1--1--1--1--1--1--1--1--|
--------------------------------|--------------------------------|
--------------------------------|--------------------------------|


                                INSTRUMENTAL BREAK 1                         
  E  E  E  Q    E  Q    Q       W                       W                E   
-----------------------------|-----------------------|----------------------|
-----------------------------|-----------------------|----------------------|
-----------------------------|-----------------------|----------------------|
--4--4--4--4----1--0----0----|-----------------------|----------------------|
-----------------------------|-----------------------|----------------------|


  W                   W                   H        Q    E   
-------------------|-------------------|-------------------|
-------------------|-------------------|-------------------|
-------------------|-------------------|-------------------|
-------------------|-------------------|-------------------|
-------------------|-------------------|-------------------|


  E.  E.  E.  E.  S S S    E.  E.  E.  E.  S S S S S S S S  
------------------------|----------------------------------|
--------------0---------|--------------0---2---------------|
--0---3---2-------3-2---|--0---3---2---------5-3-2-5-3-2---|
----------------------3-|--------------------------------3-|
------------------------|----------------------------------|


  E.  E.  E.  E.  S S S S S S    E.  E.  E.  E.  S S S S S S S S S S  
------------------------------|--------------------------------------|
--------------0---------------|--------------0---2-------------------|
--0---3---2-------3-2---3-2---|--0---3---2---------5-3-2-5-3-2-3-2---|
----------------------3-----3-|------------------------------------3-|
------------------------------|--------------------------------------|


  H        Q    E     H        Q    E     E  E  E  E  E  E  E  E   
-------------------|-------------------|--------------------------|
-------------------|-------------------|--------------------------|
-------------------|-------------------|--------------------------|
-------------------|-------------------|--------------------------|
-------------------|-------------------|--3-----3-----3-----3-----|


  E  E  E  E  E  E  E  E     E.  E.  E.  E.  S S S  
--------------------------|------------------------|
--------------------------|--------------0---------|
--------------------------|--0---3---2-------3-2---|
--------------------------|----------------------3-|
--3-----3-----3-----3-----|------------------------|


  E.  E.  E.  E.  S S S S S S S S    H        Q    E     W                Q     
----------------------------------|-------------------|------------------------|
--------------0---2---------------|-------------------|------------------------|
--0---3---2---------5-3-2-5-3-2---|-------------------|------------------------|
--------------------------------3-|-------------------|------------------------|
----------------------------------|-------------------|------------------------|


  E.  E.  E.  E.  S S S    E.  E.  E.  E.  S S S S S S S S  
------------------------|----------------------------------|
--------------0---------|--------------0---2---------------|
--0---3---2-------3-2---|--0---3---2---------5-3-2-5-3-2---|
----------------------3-|--------------------------------3-|
------------------------|----------------------------------|


  E.  E.  E.  E.  S S S S S S    E.  E.  E.  E.  S S S S S S S S S S  
------------------------------|--------------------------------------|
--------------0---------------|--------------0---2-------------------|
--0---3---2-------3-2---3-2---|--0---3---2---------5-3-2-5-3-2-3-2---|
----------------------3-----3-|------------------------------------3-|
------------------------------|--------------------------------------|


  S S S S S S S S S S S S E  E     S S S S S S S S S S S S E  E  E   
--------------------------------|-----------------------------------|
--------------------------------|-----------------------------------|
--7-5---5-L---7-5---5-L---------|--7-5---5-L---7-5---5-L------------|
------7-----0-----7-----0-0--0--|------7-----0-----7-----0-0--0--3--|
--------------------------------|-----------------------------------|


  S S S S S S S S S S S S E  E     S S S S S S S S S S S S E  E  E   
--------------------------------|-----------------------------------|
--------------------------------|-----------------------------------|
--7-5---5-L---7-5---5-L---------|--7-5---5-L---7-5---5-L------------|
------7-----0-----7-----0-0--0--|------7-----0-----7-----0-0--0--3--|
--------------------------------|-----------------------------------|


  Q    Q    E.  E.     Q    Q    E.  E.  E.  E.     Q    Q    E.  E.   
--------------------|----------------------------|--------------------|
--------------------|----------------------------|--------------------|
--------------------|----------------------------|--------------------|
--5----3----5---7---|--5----3----8---5---7---3---|--5----3----5---7---|
--------------------|----------------------------|--------------------|


  E.  E.  E.  E.  E.  E.     S S E  E  S S E  E  S S E   
--------------------------|-----------------------------|
--------------------------|-----------------------------|
--------------------------|--5-5-5--5--5-5-5--5--5-5-5--|
--8---5---7---3---5---0---|-----------------------------|
--------------------------|-----------------------------|


  S S E  E  S S E  E  S S E     S S E  E  S S E  E  S S E   
-----------------------------|-----------------------------|
-----------------------------|--4-4-4--4--4-4-4--4--4-4-4--|
--7-7-7--7--7-7-7--7--7-7-7--|-----------------------------|
-----------------------------|-----------------------------|
-----------------------------|-----------------------------|


  E  E  E  S S E  S S E  S S    S S S S S S S S S S S S S S S S  
-----------------------------|----------------------------------|
--5--5--5--5-5-5--5-5-5--5-5-|--7-7-7-7-7-7-7-7-7-7-7-7-7-7-7-7-|
-----------------------------|----------------------------------|
-----------------------------|----------------------------------|
-----------------------------|----------------------------------|


  S S S S S S S S S S S S S S S S  
----------------------------------|
--9-9-9-9-9-9-9-9-9-9-9-9-9-9-9-9-|
----------------------------------|
----------------------------------|
----------------------------------|


   S  S  S  S  S  S  S  S  S  S  S  S  S  S  S  S  
--------------------------------------------------|
--10-10-10-10-10-10-10-10-10-10-10-10-10-10-10-10-|
--------------------------------------------------|
--------------------------------------------------|
--------------------------------------------------|


   S  S  S  S  S  S  S  S  S  S  S  S  S  S  E     E  E  E  E  E  E  E  E   
------------------------------------------------|--7--5--------------------|
--12-12-12-12-12-12-12-12-12-12-12-12-12-12-12--|--------7--8--7--------5--|
------------------------------------------------|-----------------8--7-----|
------------------------------------------------|--------------------------|
------------------------------------------------|--------------------------|


                             GUITAR SOLO 1                         
  E  E  E  E  E  E  E  E     W                   W                 
--------------------------|-------------------|-------------------|
--------------------------|-------------------|-------------------|
--8--5-----7--5--0--------|-------------------|-------------------|
--------8-----------------|-------------------|--0----------------|
--------------------6--5--|--3----------------|-------------------|


  W                   W                   W                   W                 
-------------------|-------------------|-------------------|-------------------|
-------------------|-------------------|-------------------|-------------------|
-------------------|-------------------|-------------------|-------------------|
--1----------------|--3----------------|-------------------|--0----------------|
-------------------|-------------------|--3----------------|-------------------|


  W                   W                   W                   W                 
-------------------|-------------------|-------------------|-------------------|
-------------------|-------------------|-------------------|-------------------|
-------------------|-------------------|-------------------|-------------------|
--3----------------|--5----------------|--6----------------|--5----------------|
-------------------|-------------------|-------------------|-------------------|


  W                   E  E  H        Q       W                 
-------------------|----------------------|-------------------|
-------------------|--5--7--5-------------|-------------------|
-------------------|-----------------0----|--1----------------|
--3----------------|----------------------|-------------------|
-------------------|----------------------|-------------------|


  W                   W                   W                   W                 
-------------------|-------------------|-------------------|-------------------|
-------------------|-------------------|-------------------|-------------------|
--3----------------|-------------------|-------------------|-------------------|
-------------------|-------------------|-------------------|-------------------|
-------------------|--3----------------|--L----------------|--L----------------|


  W                   W                   W                   W                 
-------------------|-------------------|-------------------|-------------------|
-------------------|--5----------------|--L----------------|-------------------|
-------------------|-------------------|-------------------|--7----------------|
-------------------|-------------------|-------------------|-------------------|
--L----------------|-------------------|-------------------|-------------------|


  W                   W                   W                   W                 
-------------------|-------------------|-------------------|-------------------|
-------------------|-------------------|-------------------|-------------------|
--L----------------|--8----------------|--L----------------|--5----------------|
-------------------|-------------------|-------------------|-------------------|
-------------------|-------------------|-------------------|-------------------|


  W                   W                   H.           E  E   
-------------------|-------------------|---------------------|
-------------------|--8----------------|--L------------L--7--|
--L----------------|-------------------|---------------------|
-------------------|-------------------|---------------------|
-------------------|-------------------|---------------------|


  W                   H        H           W                 
-------------------|-----------4--------|--5----------------|
--5----------------|--6-----------------|-------------------|
-------------------|--------------------|-------------------|
-------------------|--------------------|-------------------|
-------------------|--------------------|-------------------|


  W                   W                   W                 
--L----------------|--6----------------|-------------------|
-------------------|-------------------|--7----------------|
-------------------|-------------------|-------------------|
-------------------|-------------------|-------------------|
-------------------|-------------------|-------------------|


  GUITAR SOLO 2                                                 
  H.            E  E     Q    H.              W                 
----------------------|--------------------|-------------------|
----------------------|--------------------|-------------------|
----------------------|--------------------|-------------------|
--3-------------L--1--|--3----3------------|--3----------------|
----------------------|--------------------|-------------------|


  Q    Q    E  E  Q       W                   H        Q.     E   
-----------------------|-------------------|---------------------|
-----------------------|-------------------|---------------------|
-----------------------|-------------------|---------------------|
--L----1----1--3--0----|-------------------|---------------------|
-----------------------|--3----------------|--L---------------1--|


  E  E  Q    H           E  E  E  E  E  E  Q       W                 
----------------------|-------------------------|-------------------|
----------------------|-------------------------|-------------------|
----------------------|-------------------------|-------------------|
----------------------|-------------------------|--3----------------|
--3-------------------|-----3--3-----3--3-------|-------------------|


  Q    H        E  E     W                   Q    Q    E   Q.      
----------------------|-------------------|-----------------------|
----------------------|-------------------|-----------------------|
----------------------|-------------------|-----------------------|
--3----3--------L--1--|--3----------------|-------1----3s--5------|
----------------------|-------------------|-----------------------|


  H.           E  E     E  E  Q    Q.     E     E  E  E  E  Q.     E   
---------------------|-----------------------|------------------------|
---------------------|-----------------------|------------------------|
---------------------|-----------------------|------------------------|
---------------------|-----------------------|------------------------|
--3------------L--1--|--3--3--------------3--|--3-----3------------3--|


  Q    E  E  H           H.           E  E     E  E  H.            
----------------------|---------------------|---------------------|
----------------------|---------------------|---------------------|
----------------------|---------------------|---------------------|
----------------------|--3------------L--1--|--3--1--3------------|
-------3--3--3--------|---------------------|---------------------|


  H.           E  E     E  Q.     E  E  Q       H.           E  E   
---------------------|-----------------------|---------------------|
---------------------|-----------------------|---------------------|
---------------------|-----------------------|---------------------|
--3------------L--3--|--3--1------1--3--0----|---------------------|
---------------------|-----------------------|--3------------L--1--|


  E  E  E  E  Q.     E     E  E  E  E  Q.     E     E  E  Q    E  E  Q     
------------------------|------------------------|------------------------|
------------------------|------------------------|------------------------|
------------------------|------------------------|------------------------|
------------------------|------------------------|------------------------|
--3-----3------------1--|--3--1--3------------3--|--3--1--3----3----------|


  H        Q.     E     E  E  H        E  E     H        Q.     E   
---------------------|-----------------------|---------------------|
---------------------|-----------------------|---------------------|
---------------------|-----------------------|---------------------|
--3--------3------3--|--3--1--3--------3--1--|--3--------3------3--|
---------------------|-----------------------|---------------------|


  E  E  Q    E   Q.        H        Q.     E     E  E  E  E  E  Q.      
------------------------|---------------------|------------------------|
------------------------|---------------------|------------------------|
------------------------|---------------------|------------------------|
--3--1--3----3s--5------|---------------------|------------------------|
------------------------|--3--------3------1--|--3--1--3--------1------|


                                           |--3--|  |--3--|   
  E  E  E  E  Q    S S S S    S S S S Q    E  E  E  E  E  E   
---------------------------|---------------------------------|
---------------------------|---------------------------------|
---------------------------|---------------5--3--0-----------|
---------------------------|------------------------3--1-----|
--3--1--3------------3-3---|----3-3-----------------------3--|


  H.           E  E     Q    H.              H.           E  E   
---------------------|--------------------|---------------------|
---------------------|--------------------|---------------------|
--1------------L--1--|--1----1------------|---------------------|
---------------------|--------------------|--3------------L--3--|
---------------------|--------------------|---------------------|


  Q    Q    E  Q.        H.           E  E     Q    H.            
----------------------|---------------------|--------------------|
----------------------|---------------------|--------------------|
----------------------|--3------------L-----|--3----3------------|
--3----3----1--3------|------------------3--|--------------------|
----------------------|---------------------|--------------------|


                      |--3--|  |--3--|  |--3--|  |--3--|   
  W                   E  E  E  E  E  E  E  E  E  E  E  E   
-------------------|-----------5--------------------------|
-------------------|--------7-----7--5--3-----------------|
-------------------|--5--7-----------------3--0--3--0-----|
--5----------------|--------------------------------------|
-------------------|-----------------------------------1--|


  H.           E  E     H.           E  E     H.           E  E   
---------------------|---------------------|---------------------|
---------------------|---------------------|---------------------|
--5------------L-----|---------------------|---------------------|
---------------------|--0------------L--0--|--1------------L--1--|
------------------3--|---------------------|---------------------|


  Q.     S S H           H.           E  E     H.           E  E   
----------------------|---------------------|---------------------|
---------5-7-7--------|---------------------|---------------------|
----------------------|--5------------L-----|---------------------|
--3-------------------|---------------------|--0------------L--0--|
----------------------|------------------3--|---------------------|


  H.           E  E     W                   W                 
---------------------|-------------------|-------------------|
---------------------|-------------------|-------------------|
---------------------|--0----------------|--1----------------|
--3------------L--3--|-------------------|-------------------|
---------------------|-------------------|-------------------|


  H.           E  E     W                    E   E   Q     E   E   S  S  S S  
---------------------|-------------------|-----------------------------------|
---------------------|-------------------|-----------------------------------|
--0------------L--0--|-------------------|--10--12--10----10--10--10-10------|
---------------------|--3----------------|------------------------------10-8-|
---------------------|-------------------|-----------------------------------|


  Q.     E  E  E  E  E     W                 
------------------------|-------------------|
------------------------|-------------------|
------------8-----------|-------------------|
--6------6-----6--6--6--|--8----------------|
------------------------|-------------------|


   INSTRUMENTAL BREAK 2                                                    
   E                   E   E   E  E  E  E  E      E  E   E  E   E   E  E   
----------------------------------------------|---------------------------|
--12-------------------0--12--13--0--8--0--8--|--10--0--10--0--10--12--0--|
----------------------------------------------|---------------------------|
----------------------------------------------|---------------------------|
----------------------------------------------|---------------------------|


  E  E  E  E   E  E  E  E      E  E   E   E  E  E  E   E   
---------------------------|------------------------------|
--7--0--8--0--10--0--7--0--|--12--0--12--13--0--8--0--10--|
---------------------------|------------------------------|
---------------------------|------------------------------|
---------------------------|------------------------------|


   E  E  E  E  E  E  E  E  E  E      E  E   E   E  E  E  E  E   
---------------------------------|-----------------------------|
--12--0--7--0--8--0--5--0--4--0--|--12--0--12--13--0--8--0--8--|
---------------------------------|-----------------------------|
---------------------------------|-----------------------------|
---------------------------------|-----------------------------|


   E  E   E  E   E   E  E     E  E  E  E   E  E  E  E   
---------------------------|---------------------------|
--10--0--10--0--10--12--0--|--7--0--8--0--10--0--7--0--|
---------------------------|---------------------------|
---------------------------|---------------------------|
---------------------------|---------------------------|


   E  E   E   E  E  E  E   E      E  E  E  E   E  E  E  E   E  E   
------------------------------|--------------------------------8--|
--12--0--12--13--0--8--0--10--|--12--0--7--8---------7--8--10-----|
------------------------------|---------------10--9---------------|
------------------------------|-----------------------------------|
------------------------------|-----------------------------------|


  E  E  E  E  E  E     E  E  E  E  E  E     E  E  E  E  E  E   
--------------------|--------------------|--------------------|
--0--5--0--8--7--0--|--5--0--8--7--5-----|--0--5--0--8--7--0--|
--------------------|-----------------6--|--------------------|
--------------------|--------------------|--------------------|
--------------------|--------------------|--------------------|


  E  E  E  E  E     E   E  E  E  E  E      E  E  E  E  E   E   
-----------------|---------------------|----------------------|
--5--0--8--7-----|------------8--7-----|---------8--7---------|
--------------6--|-----10--------------|--10-----------6--10--|
-----------------|--8------8--------8--|------8---------------|
-----------------|---------------------|----------------------|


  E   E  E  E  E  E      E  E  E  E  E     E  E  E  E  E  E   
---------------------|------------------|--------------------|
------------8--7-----|---------8--7--0--|-----5-----8--7-----|
-----10--------------|--10--------------|--6-----6--------6--|
--8------8--------8--|------8-----------|--------------------|
---------------------|------------------|--------------------|


  E  E  E  E  E  E     E  E  E  E  E  E     E  E  E  E  E   
--------------------|--------------------|-----------------|
--5-----8--7--5-----|-----5-----8--7-----|--5-----8--7-----|
-----6-----------8--|--6-----6--------6--|-----6--------8--|
--------------------|--------------------|-----------------|
--------------------|--------------------|-----------------|


  E  E  E  E  E  E     E  E  E  E  E  E     E  E  E  E  E  E   
-----------3--2-----|--------3--2--------|--------------------|
-----5--------------|--5-----------0--5--|--------------------|
--------------------|--------------------|-----5-----6--5-----|
--3-----3--------3--|-----3--------------|--3-----3--------3--|
--------------------|--------------------|--------------------|


  E  E  E  E  E     E  E  E  E  E  E     E  E  E  E  E     E  E  E  E  E  E   
-----------------|--------------------|-----------------|--------------------|
-----------------|--------------------|-----------------|--------------------|
--5-----6--5-----|-----1-----3--1-----|--1-----3--1-----|-----1-----3--1-----|
-----3--------3--|--1-----1--------1--|-----1--------1--|--0-----0--------0--|
-----------------|--------------------|-----------------|--------------------|


  E  E  E  E  E     E  E  E  E  E  E     E  E  E  E  S S E  E  E  E  E  E   
-----------------|--------------------|------------------------------------|
-----------------|-----7-----8--7-----|--7-----8--7--5-7-5-----------------|
--1-----3--1-----|--6-----6--------6--|-----6---------------8--6--5--------|
-----0--------0--|--------------------|------------------------------8--6--|
-----------------|--------------------|------------------------------------|


  E  E  E  E  E  E     E  E  E  E  E  E     E  E  E  E  E  E   
--------------------|--------------------|--------------------|
--------------------|--------------------|--------------------|
-----5-----6--5-----|--5-----6--5--------|-----5-----6--5-----|
--4-----4--------4--|-----4--------8--6--|--4-----4--------4--|
--------------------|--------------------|--------------------|


  E  E  E  E  E     E  E  E  E  E  E     E  E  E  E  E  E   
-----------------|--------------------|--------------------|
-----------------|-----5-----6--5-----|--5-----6--5--0-----|
--5-----6--5-----|--3-----3--------3--|-----3-----------6--|
-----4--------6--|--------------------|--------------------|
-----------------|--------------------|--------------------|


  E  E  E  E  E  E     E  E  E  E  E     E  E  E  E  E  E     E  E  E  E  E   
--------------------|-----------------|--------------------|-----------------|
-----5-----6--5-----|--5-----6--5-----|--------------------|-----------------|
--3-----3--------3--|-----3--------6--|-----5-----6--5-----|--5-----6--5-----|
--------------------|-----------------|--4-----4--------4--|-----4--------4--|
--------------------|-----------------|--------------------|-----------------|


  E  E  E  E  E  E     E  E  E  E     E  E  E  E  E  E     E  E  E  E  E   
--------------------|--------------|--------------------|-----------------|
--------------------|--------------|-----------5--------|--------5--------|
-----6-----8--6-----|--6-----8--6--|-----8--------8-----|--8--------8-----|
--5-----5--------5--|-----5--------|--6-----6--------6--|-----6--------6--|
--------------------|--------------|--------------------|-----------------|


  E  E  E  E  E  E     E  E  E  E     E  E  E  E  E  E  E  E   
--------------------|--------------|--------------------------|
-----5-----6--5-----|--5-----6--5--|--------------------------|
--------------------|--------------|-----------6--6--6--5--5--|
--7-----7--------7--|-----7--------|--8--8--8-----------------|
--------------------|--------------|--------------------------|


  E  E  E  E  E  E  E  E     E  E  E  E  E  E  E  E  E  E  E  E   
--------------------------|--------------------------------------|
--------------------------|--------------------------------------|
--5-----------------------|--------------------------------------|
-----6--6--6--3--3--3--3--|--4--4--4-----------3--3--3--6--6--6--|
--------------------------|-----------6--6--6--------------------|


  E  E  E  E  E  E  E  E     E  E  E  E  E  E  E  E   
--------------------------|--------------------------|
--------------------------|--------------------------|
--3--3--3--6--6--6--5--5--|--5-----------------------|
--------------------------|-----6--6--6--3--3--3--3--|
--------------------------|--------------------------|


  E  E  E  E  E  E  E  E     E  E  E  E  E  E  E  E   
--------------------------|--------------------------|
--------------------------|--------------------------|
--------------------------|-----6--6--6--4--4--4--4--|
--4--4--4-----------3--3--|--3-----------------------|
-----------6--6--6--------|--------------------------|


  Q.     Q.     Q    Q       Q.     Q.     Q    Q     
--------------------------|--------------------------|
--------------------------|--------------------------|
--------------------------|--------------------------|
--3------3------3----3----|--3------3------3----3----|
--------------------------|--------------------------|


  E  E  E  E  E  E  E  E     E  E  E  E  E  E  E  E   
--------------------------|--------------------------|
--------------------------|--------------------------|
-----------6--6--6--5--5--|--5-----------------------|
--8--8--8-----------------|-----6--6--6--3--3--3--3--|
--------------------------|--------------------------|


  E  E  E  E  E  E  E  E  E  E  E  E     E  E  E  E  E  E  E  E  E  E   
--------------------------------------|--------------------------------|
--------------------------------------|--5--------5--------5-----5-----|
--------------------6--6--6--4--4--4--|--------------------------------|
--4--4--4-----------------------------|-----3--3-----3--3-----3-----3--|
-----------6--6--6--------------------|--------------------------------|


  E  E  E  E  E  E  E  E  E  E       E  E  E   E  E  E   E  E   E  E   
---------------------------------|------------------------------------|
--5--------5--------5-----5------|--10--------10--------10-----10-----|
---------------------------------|------------------------------------|
-----3--3-----3--3-----3-----3/--|------8--8------8--8------8------8--|
---------------------------------|------------------------------------|


   E  E  E   E  E  E   E  E   E  E    
-------------------------------------|
--10--------10--------10-----10------|
-------------------------------------|
------8--8------8--8------8------8/--|
-------------------------------------|


   E   E   E   E   E   E   E   E   E   E   
------------------------------------------|
--13----------13----------13------13------|
------------------------------------------|
------11--11------11--11------11------11--|
------------------------------------------|


   E   E   E   E   E   E   E   E   E   E      E  E  E  E  E  E  E  E  E  E   
-------------------------------------------|--------------------------------|
--13----------13----------13------13-------|--5--------5--------5-----5-----|
-------------------------------------------|--------------------------------|
------11--11------11--11------11------11\--|-----3--3-----3--3-----3-----3--|
-------------------------------------------|--------------------------------|


  E  E  E  E  E  E  E  E  E  E      E  E  E  E  E  E  E  E  E  E   
---------------------------------|--------------------------------|
--5--------5--------5-----5------|--8--------8--------8-----8-----|
---------------------------------|--------------------------------|
-----3--3-----3--3-----3-----3/--|-----6--6-----6--6-----6-----6--|
---------------------------------|--------------------------------|


  E  E  E  E  E  E  E  E  E  E     E  E  E  E  E  E  E  E  E  E   
--------------------------------|--------------------------------|
--8--------8--------8-----8-----|--8--------8--------8-----8-----|
--------------------------------|--------------------------------|
-----6--6-----6--6-----6-----6--|-----6--6-----6--6-----6-----6--|
--------------------------------|--------------------------------|


                                 CHORUS                             
  E  E  E  E  E  E  Q    Q       E      E  E  E  E  E  E  E  E  E   
------------------------------|------------------------------------|
--8--------8------------------|------------------------------------|
--------------------6----6----|------------------------------------|
-----6--6-----6--6------------|--1------1--1--1--1--1--1--1--1--1--|
------------------------------|------------------------------------|


  E  E  E  E  E  E  E  E  E  E     E  E  E  E  E  E  E  E  E  E   
--------------------------------|--------------------------------|
--------------------------------|--------------------------------|
--------------------------------|--------------------------------|
--3--3--3--3--3--3--3--3--3--3--|--0--0--0--0--0--0--0--0--0--0--|
--------------------------------|--------------------------------|


  E  E  E  E  E  E  E  E  E  E     E  E  E  E  E  E  E  E  E  E   
--------------------------------|--------------------------------|
--------------------------------|--------------------------------|
--------------------------------|--------------------------------|
--1--1--1--1--1--1--1--1--1--1--|--1--1--1--1--1--1--1--1--1--1--|
--------------------------------|--------------------------------|


  E  E  E  E  E  E  E  E  E  E     E  E  E  E  E  E  E  E  S S E   
--------------------------------|---------------------------------|
--------------------------------|---------------------------------|
--------------------------------|--------------------------7-7----|
--3--3--3--3--3--3--3--3--3--3--|--0--0--0--0--0--0--0--0------0--|
--------------------------------|---------------------------------|


  E  E  E  E  E  E  E  S S E  S S    E  E  E  E  E  E  E  E  E  E   
----------------------------------|--------------------------------|
----------------------------------|--------------------------------|
----------------------------------|--5--5--5--5--5--5--5--5--5--5--|
--1--1--1--1--1--1--1--1-1-1--1-1-|--------------------------------|
----------------------------------|--------------------------------|


                                   OUTRO                       
  E  E  E  E  E  E  E  E  E  E     E     E  E  E  E  E  E  E   
--------------------------------|-----------------------------|
--------------------------------|-----------------------------|
--2--2--2--2--2--2--2--2--2--2--|--1-----1--1--1--1--1--1--1--|
--------------------------------|-----------------------------|
--------------------------------|-----------------------------|


  E  E  E  E  E  E  S S E     H        H           Q.     S S H         
--------------------3-2----|--------------------|-------------3--------|
------------------------3--|--------------------|-----------3----------|
--1--1--1--1--1--1---------|-----------0--------|--1------L------------|
---------------------------|--3-----------------|----------------------|
---------------------------|--------------------|----------------------|


  H        H           W                   H        H         
--------------------|-------------------|--------------------|
--------------------|-------------------|--------------------|
-----------0--------|--1----------------|--------------------|
--3-----------------|-------------------|-----------0--------|
--------------------|-------------------|--3-----------------|


  H        H           W                   W                 
--------------------|-------------------|-------------------|
--------------------|-------------------|-------------------|
-----------0--------|--1----------------|-------------------|
--1-----------------|-------------------|--3----------------|
--------------------|-------------------|-------------------|


  W                   W                   W                 
-------------------|-------------------|-------------------|
-------------------|-------------------|-------------------|
-------------------|-------------------|-------------------|
-------------------|-------------------|--4----------------|
--4----------------|--1----------------|-------------------|


  H        H           W                   W                 
--------------------|-------------------|-------------------|
--------------------|-------------------|-------------------|
--------------------|-------------------|-------------------|
--1-----------------|-------------------|-------------------|
-----------4--------|--3----------------|--1----------------|


                      fermata                                                   
  W                   W                   W                   W                 
-------------------|-------------------|-------------------|-------------------|
-------------------|-------------------|-------------------|-------------------|
--1----------------|--L----------------|-------------------|-------------------|
-------------------|-------------------|-------------------|-------------------|
-------------------|-------------------|--3----------------|--1----------------|


                      fermata            
  W                   W                  
-------------------|-------------------||
-------------------|-------------------||
--1----------------|--L----------------||
-------------------|-------------------||
-------------------|-------------------||


It's not 100% perfect, but it's pretty darn close. This is 
probably the best bass tab of this song available right 
now. I also have a Guitar Pro version available if you want
to see all the crazy time signatures. Unfortunately it doesn't 
put them in when you export a text tab. This song rocks so have 
fun and enjoy!


Duration Legend
---------------
W - whole
H - half
Q - quarter
E - 8th
S - 16th
T - 32nd
X - 64th
. - note dotted
|-n-|  - n-tuplets


Tablature Legend
----------------
L - tied note
> - accentuded note
S - shift slide
s - legato slide
/ -  slide into from below or out of upwards
\ -  slide into from above or out of downwards
comments
We did not receive enough feedback on this tab! Please rate:
print report bad tab
1 2 3 4 5
I want to post or [tab]
guest
You may want to rate the tab now too:
select rating
Please do not post tabs as comments. Select "correction" instead!