Oops, an error
Loading. Please wait.

Caught In A Web Bass Tab

ver1
ver1

Whole song

More versions @911Tabs.com
3,289 views 3 this week
no commentswrite comment
1 2 3 4 5
please rate
Autoscroll
+/-
esc
set tempo
stop
Hey! There's an official Ultimate Guitar app which is ideal
for learning songs when you're away from computer. Get the app
WARNING: You are trying to view
                                    content from Ultimate-Guitar.com
                                    in an unauthorized application,
                                    which is prohibited.

                                    Please use an official Ultimate
                                    Guitar Tabs application for iPhone,
                                    iPad or Android to access legitimate
                                    chords, guitar, bass, and drum tabs
                                    from Ultimate-Guitar.com database.

                                    Type "ultimate guitar tabs" in Apple
                                    App Store's or Android Market's
                                    search to find the application.
                                 CAUGHT IN A WEB
                          As recorded by DREAM THEATER

Music by DREAM THEATER
Transcribed by Joe Britton - Larrylaffer_uk@yahoo.co.uk

Gtr I (B E A D G C) 

  Moderately Fast Rock Q=108
 3/4
  Gtr I
  S S S S S S S S +S  S E   S S S S S S S S +S  S E
|-------------------------|-------------------------|
|-------------------------|-------------------------|
|-------------------------|-------------------------|
|-------------------------|-------------------------|
|-------------------------|---------------------0-0-|
|-0h2-2-2-2-0-0-0-(0)-2-2-|-0h2-2-2-2-0-0-0-(0)-----|


  S S S S S S S S +S  S E   S S S S S S S S +S  S E
|-------------------------|--------------------------||
|-------------------------|-------------------------o||
|-------------------------|--------------------------||
|-------------------------|--------------------------||
|-------------------------|-------------------------o||
|-0h2-2-2-2-0-0-0-(0)-2-2-|-0h2-2-2-2-0-0-0-(0)-3-3--||


   4/4
    S S S S S S S S S S S S S S S S   S S S S S S S S S S S S S S S S    4x
||----------------------------------|------------------------------------||
||o---------------------------------|-----------------------------------o||
||----------------------------------|------------------------------------||
||--2h4-----4h5---------------------|-2h4-----4h5------------------------||
||o---------------------------------|-----------------------------------o||
||------2-2-----0-2---2-2---2-2---2-|-----2-2-----0-2---2-2---2-2---2----||


  S S S S S S S S S S S S S S S S   S S S S S S S S S S S S S S S S
|---------------------------------|-----------------------------------|
|---------------------------------|-----------------------------------|
|---------------------------------|-----------------------------------|
|-0h2-----2h3---------------------|-0h2-----2h3-----------------------|
|---------------------------------|-----------------------------------|
|-----0-0-----0-0---0-0---0-0---0-|-----0-0-----0-0---0-0---0-0---0---|


  S S S S S S S S S S S S S S S S   S S S S S S S S S S S S S S S S
|---------------------------------|-----------------------------------|
|---------------------------------|-----------------------------------|
|---------------------------------|-----------------------------------|
|-2h4-----4h5---------------------|-2h4-----4h5-----------------------|
|---------------------------------|-----------------------------------|
|-----2-2-----0-2---2-2---2-2---2-|-----2-2-----0-2---2-2---2-2---2---|


 3/4
  S S S S S S S S +S  S E   S S S S S S S S +S  S E
|-------------------------|--------------------------|
|-------------------------|--------------------------|
|-------------------------|--------------------------|
|-------------------------|--------------------------|
|-------------------------|---------------------0-0--|
|-0h2-2-2-2-0-0-0-(0)-2-2-|-0h2-2-2-2-0-0-0-(0)------|


  S S S S S S S S +S  S E   S S S S S S S S +S  S E
|-------------------------|--------------------------|
|-------------------------|--------------------------|
|-------------------------|--------------------------|
|-------------------------|--------------------------|
|-------------------------|--------------------------|
|-0h2-2-2-2-0-0-0-(0)-2-2-|-0h2-2-2-2-0-0-0-(0)-3-3--|


   4/4
    S S S S S S S S S S S S S S S S   S S S S S S S S S S S S S S S S
||----------------------------------|------------------------------------||
||o---------------------------------|-----------------------------------o||
||----------------------------------|------------------------------------||
||--2h4-----4h5---------------------|-2h4-----4h5------------------------||
||o---------------------------------|-----------------------------------o||
||------2-2-----0-2---2-2---2-2---2-|-----2-2-----0-2---2-2---2-2---2----||


  S S S S S S S S S S S S S S S S   S S S S S S S S S S S S S S S S
|---------------------------------|-----------------------------------|
|---------------------------------|-----------------------------------|
|---------------------------------|-----------------------------------|
|-0h2-----2h3---------------------|-0h2-----2h3-----------------------|
|---------------------------------|-----------------------------------|
|-----0-0-----0-0---0-0---0-0---0-|-----0-0-----0-0---0-0---0-0---0---|


  S S S S S S S S S S S S S S S S   S S S S S S S S S S S S S S S S
|---------------------------------|-----------------------------------|
|---------------------------------|-----------------------------------|
|---------------------------------|-----------------------------------|
|-2h4-----4h5---------------------|-2h4-----4h5-----------------------|
|---------------------------------|-----------------------------------|
|-----2-2-----0-2---2-2---2-2---2-|-----2-2-----0-2---2-2---2-2---2---|


                                     3/4
  S S S S +S  S S S S E S +S  S S S   S S S S +S  S S S E S S
|-----------------------------------|-------------------------|
|-----------------------------------|-------------------------|
|-----------------------------------|-------------------------|
|-4-2-------------------------------|-4-2-------------------2-|
|-----4-2-(2)---4-2-------------2-4-|-----4-2-(2)-------3-4---|
|-------------5-----5-0-2-(2)-5-----|-------------2-5-2-------|


 4/4                                 3/4
  S S S S +S  S S S S E S +S  S S S   S S S S S S S S S S S S
|-----------------------------------|-------------------------|
|-----------------------------------|-------------------------|
|-----------------------------------|-------2-----5-3---------|
|-4-2-------------------------------|-4-2-----4-2-----4-2-----|
|-----4-2-(2)---4-2-------------2-4-|-----4---------------3-1-|
|-------------5-----5-0-2-(2)-5-----|-------------------------|


  $
 4/4
  E E E S S E E E E   +E  E E S S E E E E   E E S S E E E E E
|-------------------|---------------------|-------------------|
|-------------------|---------------------|-------------------|
|-------------------|---------------------|-------------------|
|-------------------|---------------------|-----3-1---1-3-5-1-|
|-3-3-3-3-3-5-6-8---|-------------6---6---|---------3---------|
|-----------------4-|-(4)-4-4-4-4---4---4-|-1-1---------------|


  +E  E E E E E E E   E E E S S E E E E   +E  E E S S E E E E
|-------------------|-------------------|---------------------|
|-------------------|-------------------|---------------------|
|-------------------|-------------------|---------------------|
|-(1)-1-1-1-1-1-1-1-|-------------------|---------------------|
|-------------------|-3-3-3-3-3-5-6-8---|-------------6---6---|
|-------------------|-----------------4-|-(4)-4-4-4-4---4---4-|


                     5/4                   4/4
  E E E E E E S S E   +E  E H.        Q     S S S S +S  S S S S E S S S S S
|-------------------|---------------------|----------------------------------|
|-------------------|---------------------|----------------------------------|
|-------------------|---------------------|----------------------------------|
|-------------------|---------------------|----------------------------------|
|-------------3h5---|---------------------|-------------------------------0--|
|-3-3-3-3-3-3-----1-|-(1)-1-1-------/16\--|-2-2-0-2-(2)-0-2-2-0-2-0-2-2-0----|


                           To Coda
  S S S S +S  S S S S E S S S S S   S S S S S S S S +S  S E S S S S
|---------------------------------|----------------------------------|
|---------------------------------|----------------------------------|
|---------------------------------|----------------------------------|
|---------------------------------|----------------------------------|
|---------------------------------|----------------------------------|
|-2-2-0-2-(2)-0-2-2-0-2-0-2-2-0-3-|-0h2-2-2-2-0-0-0-(0)-2-2-0h3-3-3--|


  S S S S S S S S +S  S E S S S S   S s S S S S S S +S  S E S S E
|---------------------------------|-------------------------------|
|---------------------------------|-------------------------------|
|---------------------------------|-------------------------------|
|---------------------------------|-2-4---4-2h4-4-2-(2)-4-4-4-2---|
|---------------------------------|-----------------------------4-|
|-0h2-2-2-2-0-0-0-(0)-2-2-0h3-3-3-|-------------------------------|


    S S S S S S S S +S  S E S S E  3x S S S S S S S S +S  S E S S E
||---------------------------------||-------------------------------|
||o-------------------------------o||-------------------------------|
||---------------------------------||-------------------------------|
||--2h4-4-4-2h4-4-2-(2)-4-4-4-2----||-0h2-2-2-0h2-2---------2-2-0---|
||o-----------------------------4-o||-----------------------------2-|
||---------------------------------||---------------0-(0)-0---------|


  S S S S S S S S +S  S E S S E   S S S S S S S S +S  S E S S S S
|-------------------------------|---------------------------------|
|-------------------------------|---------------------------------|
|-------------------------------|---------------------------------|
|-0h2-2-2-0h2-2---------2-2-0---|---------------------------------|
|-----------------------------2-|---------------------------------|
|---------------0-(0)-0---------|-0h2-2-2-2-0-0-0-(0)-2-2-0h3-3-3-|


  S S S S S S S S +S  S E S S S S     S S S S S S S S +S  S S S S S E   4x
|---------------------------------||------------------------------------||
|---------------------------------||o----------------------------------o||
|---------------------------------||------------------------------------||
|---------------------------------||--2h4-4-4-2h4-4---------4-4-4-2-----||
|---------------------------------||o-------------------------------4--o||
|-0h2-2-2-2-0-0-0-(0)-2-2-0h3-3-3-||----------------2-(2)-2-------------||


  S S S S S S S S +S  S S S S S E   S S S S S S S S +S  S S S S S E
|---------------------------------|----------------------------------|
|---------------------------------|----------------------------------|
|---------------------------------|----------------------------------|
|-0h2-2-2-0h2-2---------2-2-2-0---|-0h2-2-2-0h2-2---------2-2-2-0----|
|-------------------------------2-|-------------------------------2--|
|---------------0-(0)-0-----------|---------------0-(0)-0------------|


                                                      D.S. al Coda
  S S S S S S S S +S  S S S S S E   S S S S S S S S +S  S S S S S E
|---------------------------------|----------------------------------|
|---------------------------------|----------------------------------|
|---------------------------------|----------------------------------|
|-2h4-4-4-2h4-4---------4-4-4-2---|-2h4-4-4-2h4-4---------4-4-4-2----|
|-------------------------------4-|-------------------------------4--|
|---------------2-(2)-2-----------|---------------2-(2)-2------------|


  &
  S S S S +S  S S S S E S S S S S   S S S S +S  S S S S E S S S S S
|---------------------------------|----------------------------------|
|---------------------------------|----------------------------------|
|---------------------------------|----------------------------------|
|---------------------------------|----------------------------------|
|-------------------------------0-|----------------------------------|
|-2-2-0-2-(2)-0-2-2-0-2-0-2-2-0---|-2-2-0-2-(2)-0-2-2-0-2-0-2-2-0-3--|


  S S S S S S S S S S S S S S S S   S S S S S S S S S S S S S S E
|---------------------------------|-------------------------------|
|---------------------------------|-------------------------------|
|---------------------------------|-------------------------------|
|---------------------------------|-------------------------------|
|---------3-2---------5-4-3-2-----|-------------------------------|
|-2-3-4-5-----5-4-3-2---------5-4-|-2h3-3-3-3-2-2-2-x-2-2-x-2-2---|


  |-3-|
  S S S S S S S S S S S S S S S S S   S S S S S S S S S S S S S S E
|-----------------------------------|-------------------------------|
|-----------------------------------|-------------------------------|
|-----------------------------------|-------------------------------|
|-----------------------------------|-------------------------------|
|-3-4-3-----------4-3-2-----3-2-1---|-------------------------------|
|-------6-5-4-3-4-------3-2-------0-|-2h3-3-3-3-2-2-2-x-2-2-x-2-2---|


                                    |-3-|
  S S S S S S S S S S S S S S S S   S S S S S S S S S S S S S S S S S
|---------------------------------|------------------------------------|
|---------------------------------|------------------------------------|
|---------------------------------|------------------------------------|
|---------------------------------|------------------------------------|
|---------3-2---------5-4-3-2-----|-3-4-3-----------4-3-2-----3-2-1----|
|-2-3-4-5-----5-4-3-2---------5-4-|-------6-5-4-3-4-------3-2-------0--|


  S S S S S S S S S S S S S S S S
|---------------------------------|
|---------------------------------|
|---------------------------------|
|-----------------------------3---|
|-----------3-2-5-4-----6-5-------|
|-1-2-3-5-4---------3-2-----4---5-|


 6/4
  S S S S S S S S S S S S S S S S  S S S S S S S S
|---------------------------------------------------|
|---------------------------------------------------|
|---------------------------------------------------|
|-4-3-------6-5-3---7-7-7-6-5--------8-7-5---9-9-9--|
|-----6-5-4-------------------8-7--6----------------|
|-----------------5------------------------7--------|


 4/4                               5/4
                                            |-3-|
  S S S S S S S S S S S S S S S S   S S S S S S S S S S S S S S S S S S S S S
|---------------------------------|--------------------------------------------|
|---------------------------------|--------------------------------------------|
|-----------------5-4---------7-6-|-5-4-----5-6-5-----------6-5-4-----5-4-3----|
|---------4-5-6-7-----7-6-5-4-----|-----7-6-------8-7-6-5-6-------5-4-------2--|
|-4-5-6-7-------------------------|--------------------------------------------|
|---------------------------------|--------------------------------------------|


 4/4
  S S S S S S S S S S S S S S S S
|---------------------------------|
|-----------------------------5---|
|-----------5-4-7-6-----8-7-------|
|-3-4-5-7-6---------5-4-----6---7-|
|---------------------------------|
|---------------------------------|


 6/4
  S S S S S S S S S S S S S S  S S  S  S S S S  S  S  S
|---------------------------------------------------------|
|-6-5-------8-7-5---9-9-9-8-7---------10-9-7---11-11-11---|
|-----8-7-6-------------------10-9--8---------------------|
|-----------------7--------------------------9------------|
|---------------------------------------------------------|
|---------------------------------------------------------|


 5/4
  S S S S S S S S S S S S S S S S S S S S
|-----------------------------------------|
|-----------------------------------------|
|-----------------------------------------|
|-----------------------------------------|
|-2-2-2-2-2-2-2-2-2-2-2-2-2-2-2-2-2-2-2-2-|
|-----------------------------------------|


 6/4
  S S S S S S S S S S S S S S S S S S S S S S S S
|-------------------------------------------------|
|-------------------------------------------------|
|-2-2-2-2-2-2-2-2-2-2-2-2-2-2-2-2-2-2-2-2-2-2-2-2-|
|-------------------------------------------------|
|-------------------------------------------------|
|-------------------------------------------------|


 5/4
  S S S S S S S S S S S S S S S S S S S S
|-----------------------------------------|
|-----------------------------------------|
|-5-5-5-5-5-5-5-5-5-5-5-5-5-5-5-5-5-5-5-5-|
|-----------------------------------------|
|-----------------------------------------|
|-----------------------------------------|


   4/4
        |-3-|     |-3-|      |-3-|      |-3-|
    S S S S S S S S S S  S S S S S  S S S S S
||---------------------------------------------||
||o-9---------9---------12---------12---------o||
||----8-8-8-8---8-8-8-8----8-8-8-8----8-8-8-8--||
||---------------------------------------------||
||o-------------------------------------------o||
||---------------------------------------------||


         |--3--|        |--3--|        |--3--|        |--3--|
   S  S  S  S  S  S  S  S  S  S  S  S  S  S  S  S  S  S  S  S
|--------------------------------------------------------------|
|--------------------------------------------------------------|
|-12-------------12-------------10-------------10--------------|
|----10-10-10-10----10-10-10-10----10-10-10-10----10-10-10-10--|
|--------------------------------------------------------------|
|--------------------------------------------------------------|


         |--3--|        |--3--|        |--3--|
   S  S  S  S  S  S  S  S  S  S  S  S  S  S  S  S   S  E
|---------------------------------------------------------|
|---------------------------------------------------------|
|-12-------------12-------------10-------------10---------|
|----10-10-10-10----10-10-10-10----10-10-10-10----/15-----|
|-----------------------------------------------------15\-|
|---------------------------------------------------------|


  |----6----| |----6----| |----6----| |----6----|
  S S S S S S S S S S S S S S S S S S S S S S S S
|-------------------------------------------------|
|-------------------------------------------------|
|-------------------------------------------------|
|-------------------------------------------------|
|-2-2-2-2-2-2-2-2-2-2-2-2-2-2-2-2-2-2-2-2-2-2-2-2-|
|-------------------------------------------------|


 3/4
  S S S S S S S S +S  S E   S S S S S S S S +S  S E
|-------------------------|-------------------------|
|-------------------------|-------------------------|
|-------------------------|-------------------------|
|-------------------------|-------------------------|
|-------------------------|---------------------0-0-|
|-0h2-2-2-2-0-0-0-(0)-2-2-|-0h2-2-2-2-0-0-0-(0)-----|


  S S S S S S S S +S  S E   S S S S S S S S +S  S E
|-------------------------|-------------------------|
|-------------------------|-------------------------|
|-------------------------|-------------------------|
|-------------------------|-------------------------|
|-------------------------|-------------------------|
|-0h2-2-2-2-0-0-0-(0)-2-2-|-0h2-2-2-2-0-0-0-(0)-3-3-|


  S S S S S S S S +S  S E   S S S S S S S S +S  S E
|-------------------------|-------------------------|
|-------------------------|-------------------------|
|-------------------------|-------------------------|
|-------------------------|-------------------------|
|-------------------------|---------------------0-0-|
|-0h2-2-2-2-0-0-0-(0)-2-2-|-0h2-2-2-2-0-0-0-(0)-----|


  S S S S S S S S +S  S E   S S S S +S  S S +S  S S S S
|-------------------------|-----------------------------|
|-------------------------|-----------------------------|
|-------------------------|-----------------------------|
|-------------------------|-----------------------------|
|-------------------------|-----------------------------|
|-0h2-2-2-2-0-0-0-(0)-2-2-|-0h2-2-2-(2)-0-0-(0)-3-3-3-3-|


   4/4
    S S E S S S S S S S S S S S S   S S E S S S S S S S S S S S S    4x
||--------------------------------|----------------------------------||
||o-------------------------------|---------------------------------o||
||--------------------------------|----------------------------------||
||--2h4---4h5---------------------|-2h4---4h5------------------------||
||o-------------------------------|---------------------------------o||
||------------0-2---2-2---2-2---2-|-----------0-2---2-2---2-2---2----||


  S S E S S S S S S S S S S S S   S S E S S S S S S S S S S S S
|-------------------------------|----------------------------------|
|-------------------------------|----------------------------------|
|-------------------------------|----------------------------------|
|-0h2---2h3---------------------|-0h2---2h3------------------------|
|-------------------------------|----------------------------------|
|-----------0-0---0-0---0-0---0-|-----------0-0---0-0---0-0---0----|


  S S E S S S S S S S S S S S S   S S E S S S S S S S S S S S S
|-------------------------------|----------------------------------|
|-------------------------------|----------------------------------|
|-------------------------------|----------------------------------|
|-2h4---4h5---------------------|-2h4---4h5------------------------|
|-------------------------------|----------------------------------|
|-----------0-2---2-2---2-2---2-|-----------0-2---2-2---2-2---2----|


    S S S S S S S S S S S S S S S S   S S S S S S S S S S S S S S S S
||----------------------------------|-------------------------------------||
||o---------------------------------|------------------------------------o||
||----------------------------------|-------------------------------------||
||--2h4-----4h5---------------------|-2h4-----4h5-------------------------||
||o---------------------------------|------------------------------------o||
||------2-2-----0-2---2-2---2-2---2-|-----2-2-----0-2---2-2---2-2---2-----||


  S S S S S S S S S S S S S S S S   S S S S S S S S S S S S S S S S
|---------------------------------|-----------------------------------|
|---------------------------------|-----------------------------------|
|---------------------------------|-----------------------------------|
|-0h2-----2h3---------------------|-0h2-----2h3-----------------------|
|---------------------------------|-----------------------------------|
|-----0-0-----0-0---0-0---0-0---0-|-----0-0-----0-0---0-0---0-0---0---|


  S S S S S S S S S S S S S S S S   S S S S S S S S S S S S S S S S
|---------------------------------|-----------------------------------|
|---------------------------------|-----------------------------------|
|---------------------------------|-----------------------------------|
|-2h4-----4h5---------------------|-2h4-----4h5-----------------------|
|---------------------------------|-----------------------------------|
|-----2-2-----0-2---2-2---2-2---2-|-----2-2-----0-2---2-2---2-2---2---|


                                     3/4
  S S S S +S  S S S S E S +S  S S S   S S S S +S  S S S E S S
|-----------------------------------|--------------------------|
|-----------------------------------|--------------------------|
|-----------------------------------|--------------------------|
|-4-2-------------------------------|-4-2-------------------2--|
|-----4-2-(2)-0-4-2-------------2-4-|-----4-2-(2)-------3-4----|
|-------------------5-0-2-(2)-5-----|-------------2-5-2--------|


 4/4                                 3/4
  S S S S +S  S S S S E S +S  S S S   S S S S S S S S S S S S
|-----------------------------------|---------------------------|
|-----------------------------------|---------------------------|
|-----------------------------------|-------2-----5-3-----------|
|-4-2-------------------------------|-4-2-----4-2-----4-2-------|
|-----4-2-(2)-0-4-2-------------2-4-|-----4---------------3-1---|
|-------------------5-0-2-(2)-5-----|---------------------------|


 4/4
  E E E S S E E E E   +E  E E S S E E E E   E E S S E E E E E
|-------------------|---------------------|-------------------|
|-------------------|---------------------|-------------------|
|-------------------|---------------------|-------------------|
|-------------------|---------------------|-----3-1---1-3-5-1-|
|-3-3-3-3-3-5-6-8---|-------------6---6---|---------3---------|
|-----------------4-|-(4)-4-4-4-4---4---4-|-1-1---------------|


  E E E E E E E E   E E E S S E E E E   +E  E E S S E E E E
|-----------------|-------------------|----------------------|
|-----------------|-------------------|----------------------|
|-----------------|-------------------|----------------------|
|-1-1-1-1-1-1-1-1-|-------------------|----------------------|
|-----------------|-3-3-3-3-3-5-6-8---|-------------6---6----|
|-----------------|-----------------4-|-(4)-4-4-4-4---4---4--|


                      |-3-|          |-3--|   |-3-|
  E E E E E E S S E   S S S E.  E.  +S  S S E S S S E
|-------------------|------------------------------------|
|-------------------|------------------------------------|
|-------------------|------------------------------------|
|-------------------|-------3-----------------------3----|
|-------------3h5---|-----------------------3------------|
|-3-3-3-3-3-3-----1-|-1-1-1-----1---(1)-1-1---1-1-1------|


   E  E  E  E  E  E  E  E
|-------------------------|
|-------------------------|
|-------------------------|
|-10-10-10-10-10-10-10-10-|
|-------------------------|
|-------------------------|


   +E   E  E  S  S  E  S  S  E  E    E E E E E S S E E
|----------------------------------|----------------------|
|----------------------------------|----------------------|
|----------------------------------|----------------------|
|-(10)-10-10-10-10-10-10-10-10-10\-|-3-3-3-3-3-3-3-3-1----|
|----------------------------------|----------------------|
|----------------------------------|----------------------|


  +E  E E E E S S E E   E E E E E S S E E   +E  E E E E S S E E
|---------------------|-------------------|------------------------|
|---------------------|-------------------|------------------------|
|---------------------|-------------------|------------------------|
|-(1)-1-1-1-1-1-1-1-1-|-----------------6-|-(6)-6-6-6-6-6-6-6-6----|
|---------------------|-3-3-3-3-3-3-3-3---|------------------------|
|---------------------|-------------------|------------------------|


                     5/4
  E E E E E E S S E   +E  E Q  S S E E +E    Q
|-------------------|----------------------------|
|-------------------|----------------------------|
|-------------3h5---|----------------------------|
|-5-5-5-5-5-5-----3-|-(3)-3-3--3-3-3-3-(3)/------|
|-------------------|----------------------------|
|-------------------|-----------------------14\--|


   4/4
    S S S S +S  S S S S E S S S S S   S S S S +S  S S S S E S S S S S
||----------------------------------|------------------------------------||
||o---------------------------------|-----------------------------------o||
||----------------------------------|------------------------------------||
||----------------------------------|------------------------------------||
||o-------------------------------0-|-----------------------------------o||
||--2-2-0-2-(2)-0-2-2-0-2-0-2-2-0---|-2-2-0-2-(2)-0-2-2-0-2-0-2-2-0-3----||


 2/4    4/4
  H       S S S S S S S S S S S S   Q
|------|---------------------------------*|
|------|---------------------------------*|
|------|---------------------------------*|
|------|---------------------------------*|
|------|---------------------------------*|
|------|--2-3-3-3-3-2-2-2---2-2----------*|


Duration Legend
---------------
W - whole; H - half; Q - quarter; E - 8th; S - 16th; T - 32nd; X - 64th; a - acciaccatura
+ - note tied to previous; . - note dotted; .. - note double dotted
Uncapitalized letters represent notes that are staccato (1/2 duration)
Irregular groupings are notated above the duration line
Duration letters will always appear directly above the note/fret number it represents the
duration for.  Duration letters with no fret number below them represent rests.  Multi-
bar rests are notated in the form Wxn, where n is the number of bars to rest for.  Low
melody durations appear below the staff

Tablature Legend
----------------
 h   - hammer-on
 p   - pull-off
 b   - bend
 pb  - pre-bend
 r   - bend release (if no number after the r, then release immediately)
 /\  - slide into or out of (from/to "nowhere")
 s   - legato slide
 S   - shift slide
<n>  - natural harmonic
[n]  - artificial harmonic
n(n) - tapped harmonic
 ~   - vibrato
 tr  - trill
 T   - tap
 TP  - trem. picking
 PM  - palm muting
\n/  - tremolo bar dip; n = amount to dip
 \n  - tremolo bar down
 n/  - tremolo bar up
/n\  - tremolo bar inverted dip
 =   - hold bend; also acts as connecting device for hammers/pulls
 <>  - volume swell (louder/softer)
 x   - on rhythm slash represents muted slash
 o   - on rhythm slash represents single note slash

Misc Legend
-----------
 |  - bar
||  - double bar
||o - repeat start
o|| - repeat end
*|  - double bar (ending)
 :  - bar (freetime)
 $  - Segno
 &  - Coda
Tempo markers - <E/E./Q/Q./H/H.> = BPM(8/16=s8/s16), where s8 = swing 8ths, s16 = swing 16ths


*****************************************************************************************
* Generated using Power Tab Editor by B.S. Larsen - http://www.crosswinds.net/~powertab *
*****************************************************************************************
comments
We did not receive enough feedback on this tab! Please rate:
print report bad tab
1 2 3 4 5
I want to post or [tab]
guest
You may want to rate the tab now too:
select rating
Please do not post tabs as comments. Select "correction" instead!