Oops, an error
Loading. Please wait.

Dance Of Eternity On Portnoy Video Drum Tab

2,573 views 1 this week
no commentswrite comment
1 2 3 4 5
please rate
add to favorites launch autoscroll
font size
0
reset
Autoscroll
+/-
esc
set tempo
stop
Contributor
WARNING: You are trying to view
                                    content from Ultimate-Guitar.com
                                    in an unauthorized application,
                                    which is prohibited.

                                    Please use an official Ultimate
                                    Guitar Tabs application for iPhone,
                                    iPad or Android to access legitimate
                                    chords, guitar, bass, and drum tabs
                                    from Ultimate-Guitar.com database.

                                    Type "ultimate guitar tabs" in Apple
                                    App Store's or Android Market's
                                    search to find the application.

Video.
Album: Mike Portnoy: Liquid Drum Theater Video
Drummer: Mike Portnoy
Note: This tab is transcribed by Steve Ferraro, and is the official
transcription of the song.  I wish for no credit, but I just enjoy doing
this.
Note 2: This is how Mike Portnoy plays it on his Video set called Liquid
Drum Theater.  This obviously does not match the real recorded performace.

Key:
H   |x  = closed hi-hat
H   |s  = partially open hi-hat
H   |X  = open hi-hat
R   |x  = ride
R   |b  = bell of ride
C   |x  = crash strike
C   |s  = splash cymbal
C   |c  = china cymbal
C   |1  = Max Stax Number 1
C   |2  = Max Stax Number 2
t   |o  = timbalito
t2  |o  = octoban
T   |o  = Tom 1
T   |x  = Play on rim of tom
T2  |o  = Tom 2
S   |o  = snare drum
T3  |o  = Tom 3
T4  |o  = Tom 4
F   |o  = Floor tom 1
F2  |o  = Floor tom 2
B   |o  = Bass drum 1
B2  |o  = Bass drum 2
Hf  |x  = Hi-hat w/ foot

BMP = 106
    |----Play 7x-----|
B   |o---o---o---o---|
    (1 + 2 + 3 + 4 + )

S   |OOOO---OOOOOOO-OOOO-|
    (1tl+ 2 +tl3tl+ 4tl+ )

BMP = 128
8/8 Time:            7/8 Time:       6/8 Time:
C   |x---------x-----|x---------x---|x-----------|x-----x-----|
B   |o---------o-----|o---------o---|o-----------|o-----o-----|
    (1+2+3+4+5+6+7+8+|1+2+3+4+5+6+7+|1+2+3+4+5+6+|1+2+3+4+5+6+)
    8/8 Time:        7/8 Time:          6/8 Time:
C   |x---------x-----|x-------------x---|x-------------|
T1  |-F-ooo-o--------|--3-3-------------|----666666oo--|
T2  |----------------|------3-3---------|------------oo|
T3  |----------------|----------3-------|--------------|
S   |--------F-------|------------F-----|--------------|
B   |o---------o-----|o-------------o---|o-------------|
    (1+2+3+4+5+6+7+8+|1 t l 3 t l 5+6+7+|1+2+3tl4tl5+6+)
    6/8 Time:    8/8 Time:         7/8 Time:      6/8 Time:
C   |x-----x-----|x----------------|s-----------x-|x------------|
H   |------------|--X---666x---x---|------x---x---|--X---6666---|
T2  |--oo--------|-----------------|--------------|-------------|
T3  |----oo--oo--|-----------------|--------------|-------------|
T4  |----------oo|-----------------|--------------|-------------|
S   |------------|----o----------o-|----o---o-----|----o--------|
B   |o-----o-----|o----------o-----|--o---------o-|o----------o-|
    (1+2+3+4+5+6+|1+2+3+4tl5+6+7+8+|1+2+3+4+5+6+7+|1+2+3+4tl5+6+)
    7/8 Time:      8/8 Time:         7/8 Time:      6/8 Time:
C   |------------x-|x----------------|------------x-|x------------|
H   |--X---x---x---|--X---6666---x---|x-----x---x---|--X---6666---|
S   |----o---o-----|----o----------o-|----o---o-----|----o--------|
B   |o-----------o-|o----------o-----|--o---------o-|o----------o-|
    (1+2+3+4+5+6+7+|1+2+3+4tl5+6+7+8+|1+2+3+4+5+6+7+|1+2+3+4tl5+6+)
    7/8 Time:      3/8 Time: 7/16 Time:
C   |--------------|x--x--|-------|
H   |--X---x---x---|------|-------|
T1  |--------------|------|--oo---|
T2  |--------------|------|----oo-|
T3  |--------------|------|------o|
S   |----o---o-----|--o--o|oo-----|
B   |o-----------o-|o--o--|-------|
    (1+2+3+4+5+6+7+|1+2+3+|1234567)
    2/4 Time:
C   |x--x--x-| 
S   |--o--o--|
B   |o--o--o-|
    (1 + 2 + )
      7/16      5/8      7/16        7/8
C   |-------|x--x--x-x-|-------|x--x--x-------|
T1  |--oo---|----------|--oo---|----------oo--|
T2  |----oo-|----------|----oo-|------------oo|
T3  |------o|----------|------o|--------------|
S   |oo-----|--o--o----|oo-----|--o--o--oo----|
B   |-------|o--o--o-o-|-------|o--o--o-------|
    (1234567|1+2+3+4+5+|1234567|1+2+3+4+5+6+7+)
                 8/8                              7/8
C   |x-------------------c-----------|x-------------------c-------|
t   |--------------------------------|----------------------------|
T4  |---------o----------------------|---------o------------------|
S   |----------------o---------------|----------------o-----------|
F   |--------o-----------------------|--------o-------------------|
B   |o---o---o---o---o---o---o---o---|o---o---o---o---o---o---o---|
B2  |--o---o---o---o---o---o---o---o-|--o---o---o---o---o---o---o-|
    (1 + 2 + 3 + 4 + 5 + 6 + 7 + 8 + |1 + 2 + 3 + 4 + 5 + 6 + 7 + )
               6/8                      6/8
C   |x-----------------------|x-----------x-----------|
T3  |------------------------|----o-o-----------------|
T4  |---------o--------------|--------o-------o-o-----|
S   |----------------o-------|------------------------|
F   |--------o---------------|--------------------o---|
B   |o---o---o---o---o---o---|o---o---o---o---o---o---|
B2  |--o---o---o---o---o---o-|--o---o---o---o---o---o-|
    (1 + 2 + 3 + 4 + 5 + 6 + |1 + 2 + 3 + 4 + 5 + 6 + )
                 8/8                             7/8
C   |c-------------------x-----------|x-------------------x-------|
t   |----o-o-------------------------|----------------------------|
T1  |--------o-o---------------------|----------------------------|
T2  |------------o-------------------|----------------------------|
T3  |--------------------------------|--------o-o-o---------------|
S   |----------------o---------------|----o-o---------F-----------|
F   |--------------------------------|----------------------------|
B   |o---o---o---o---o---o---o---o---|o---o---o---o---o---o---o---|
B2  |--o---o---o---o---o---o---o---o-|--o---o---o---o---o---o---o-|
    (1 + 2 + 3 + 4 + 5 + 6 + 7 + 8 + |1 + 2 + 3 + 4 + 5 + 6 + 7 + )
               4/4
T2  |------------------6666--|
T3  |------------6666--------|
T4  |------6666--------------|
F   |6666--------------------|
B   |----6-----6-----6-----6-|
B2  |-----6-----6-----6-----6|
    (1tl+tl2tl+tl3tl+tl4tl+tl)
             5/4
S   |F-------------------|
    (1 + 2 + 3 + 4 + 5 + )
         5/8      7/16
C   |x--x--x-x-|-------|
T1  |----------|--oo---|
T2  |----------|----oo-|
T3  |----------|------o|
S   |--o--o----|oo-----|
B   |o--o--o-o-|-------|
    (1+2+3+4+5+|1234567)
       2/4     7/16
C   |x--x--x-|x------|
T2  |--------|----oo-|
T3  |--------|------o|
S   |--o--o--|-ooo---|
B   |o--o--o-|o------|
    (1 + 2 + |1234567)
                  4/4
C   |x-----------x-----------x-------|
B   |o-----------o-----------o-----o-|
B2  |-------------------------------o|
    (1   +   2   +   3   +   4   +   )
                3/4
S   |o-----------|o-----------|
F   |o-----------|o-----------|
    (1 + 2 + 3 + |1 + 2 + 3 + )
7/4 Time:
>   |----------------------------|-------------------->-->-->>|
C   |x---------------------------|c---------------------------|
H   |----s-s-s-s-s-s-s-s---------|----s-s-s-s-s-s-s-s---------|
T2  |----------------------oo----|---------------------o---o--|
T3  |------------------------oo--|----------------------o-o---|
S   |----o---o---o---o---oo------|----o---o---o---o---o--o--oo|
F   |--------------------------oo|----------------------------|
B   |o-o-o-o-o-o-o-o-o-o---------|o-o-o-o-o-o-o-o-o-o---------|
B2  |-o-o-o-o-o-o-o-o-o-o--------|-o-o-o-o-o-o-o-o-o-o--------|
    (1 + 2 + 3 + 4 + 5 + 6 + 7 + |1 + 2 + 3 + 4 + 5 + 6 + 7 + )

C   |c-------------c-c-----------|
H   |---s--s--s--s---------------|
T2  |----------------------oo----|
T3  |------------------------oo--|
S   |---o-----o----o-o---oo------|
F   |--------------------------oo|
B   |o-o-o-o-o-o-o-----o---------|
B2  |-o-o-o-o-o-o----------------|
    (1 + 2 + 3 + 4 + 5 + 6 + 7 + )
                 15/8
C   |c-------------c-c-----------------| 
H   |---s--s--s--s---------------------| 
T2  |---------------------6-------6----|
T3  |-----------------------6-------6--|
S   |---o-----o----o-o---6-----F-6-----|
F   |----------------------6-------6---|
B   |o-o-o-o-o-o-o-----o-----6-------6-|
B2  |-o-o-o-o-o-o-------------6-------6|
    (1+2+3+4+5+6+7+8+9+0+1tl2tl3+4tl5tl)
                      11/4
C   |c-------------------------------------------|
S   |o-------------------------------------------|
F2  |--oo-oooo-oooo-oooo-oooo-oooo-oooo-oooo-ooo-|
    (1 + 2 + 3 + 4 + 5 + 6 + 7 + 8 + 9 + 0 + 1 + )
                     5/4
C   |c---------------------------------------|
T4  |-----------------o---------------o------|
S   |--------o---------------o---------------|
F   |----o---o---o---o---o---o---o---o---o---|
B   |o---o---o---o---o---o---o---o---o---o---|
B2  |--o---o---o---o---o---o---o---o---o---o-|
    (1   +   2   +   3   +   4   +   5   +   )
                         6/4
T4  |---------o---------------o----------------------|
S   |o---------------o---------------o-------o-------|
F   |o---o---o---o---o---o---o---o---o---o---o---o---|
B   |o---o---o---o---o---o---o---o---o---o---o---o---|
B2  |--o---o---o---o---o---o---o---o---o---o---o---o-|
    (1   +   2   +   3   +   4   +   5   +   6   +   )
                        11/4
C   |x---x---x---x---x---x---x---x---x---x---x---|
S   |----o-------o-------o-------o-------o---o---|
F   |o-o-----------------------------------------|
B   |o-o-o-o-o-o-o-o-o-o-o-o-o-o-o-o-o-o-o-o-o-o-|
B2  |-o-o-o-o-o-o-o-o-o-o-o-o-o-o-o-o-o-o-o-o-o-o|
    (1 + 2 + 3 + 4 + 5 + 6 + 7 + 8 + 9 + 0 + 1 + )
             5/4
C   |x----x----x----x----|
S   |-----o---------o----|
B   |o---------o---------|
    (1 + 2 + 3 + 4 + 5 + )
                         6/4
C   |x---------x-------------------------------------|
S   |----------o---------o-o-o-o-----ooooo-o-o-o-o-o-|
B   |o-----------------------------------------------|
    (1   +   2   +   3   +   4   +   5   +   6   +   )
            5/4                      6/4
C   |x-------------------|------------------------|
R   |--xx-xxxx-xx-xx-xxx-|xxxx-xxxx-xx-x-xxxx-xxx-|
S   |----o-------o-------|----o-------o-----------|
B   |o-o-o-o-o-o-o-o-o-o-|o-o-o-o-o-o-o-o-o-o-o-o-|
B2  |-o-o-o-o-o-o-o-o-o-o|-o-o-o-o-o-o-o-o-o-o-o-o|
    (1 + 2 + 3 + 4 + 5 + |1 + 2 + 3 + 4 + 5 + 6 + )
            5/4                      6/4
C   |x-------------------|------------------------|
R   |-xxx-xxxx-xx-x-xxxx-|------------------------|
S   |----o-------o-------|oooo-oooo-oooo-ooo--ooo-|
B   |o-o-o-o-o-o-o-o-o-o-|------------------------|
B2  |-o-o-o-o-o-o-o-o-o-o|------------------------|
    (1 + 2 + 3 + 4 + 5 + |1 + 2 + 3 + 4 + 5 + 6 + )
           4/4
C   |x---------------|x---x---x---x---|x---------------|
H   |---X-X-X--X-X---|----------------|--xX-X-X--X-X---|
S   |----o-g-gg--o-oo|----o--o-o------|----o-g-gg--o-oo|
B   |o--o-o-o--oo----|o--o----o-oo----|o--o-o-o--oo----|
    (1 + 2 + 3 + 4 + |1 + 2 + 3 + 4 + |1 + 2 + 3 + 4 + )

C   |x-------------------------------|
H   |----x---------------------------|
T1  |----------------ooo-o-----------|
T2  |----------------------ooo-o-----|
T3  |----------------------------o-o-|
S   |--------o-o-o-o-----------------|
B   |o-------------------------------|
    (1   +   2   +   3   +   4   +   )

C   |x--1-1-1--1-1---|1---1---1---1---|1--1-1-1--1-1---|----------s-s-s-|
R   |----------------|--x---x---x-----|--x-------------|----------------|
S   |----o-g-gg--o-oo|----o--o-o--o-oo|----o-g-gg--o-dd|O-O-OO-O--------|
B   |o--o-o-o--oo-o--|o--o----o-oo-o--|o--o-o-o--oo----|----------------|
    (1 + 2 + 3 + 4 + |1 + 2 + 3 + 4 + |1 + 2 + 3 + 4 + |1 + 2 + 3 + 4 + )

BMP: 256                              |------------Play 3x--------------|
>  
|---->------->---|---->------>>---|---->------->---|---->------>>---|
C   |c---------------|----------------|----------------|----------------|
S   |----F---g---F---|g---F---g--oo---|----F---g---F---|g---F---g--oo---|
B   |o---------------|----------------|o---------------|----------------|
Hf  |x---x---x---x---|x---x---x---x---|x---x---x---x---|x---x---x---x---|
    (1 + 2 + 3 + 4 + |1 + 2 + 3 + 4 + |1 + 2 + 3 + 4 + |1 + 2 + 3 + 4 + )
    |------------Play 2x--------------|
>   |----------------|----------->>---|
R   |x---x--xx---x--x|x---x---x-------|
S   |----o-------o---|----o------OO---|
B   |o---------------|o---------------|
Hf  |x---x---x---x---|x---x---x---x---|
    (1 + 2 + 3 + 4 + |1 + 2 + 3 + 4 + )

>   |----------------|------------>---|----------------|----------------|
C   |----------------|----------------|--1-----1-----1-|----1-----1-----|
R   |x---x--xx---x---|x---x---x---x---|----------------|----------------|
S   |----o-------o---|----o-------o---|--o-----o-----o-|----o-----o-----|
B   |o---------------|o---------------|o-----o-----o---|--o-----o-----o-|
Hf  |x---x---x---x---|x---x---x---x---|----------------|----------------|
    (1 + 2 + 3 + 4 + |1 + 2 + 3 + 4 + |1 + 2 + 3 + 4 + |1 + 2 + 3 + 4 + )

C   |c---------------|----------------|
S   |o---------------|----------------|
    (1 + 2 + 3 + 4 + |1 + 2 + 3 + 4 + )

BMP: 128                                               |-----Play 4x----|
C   |x---------------|----------------|x---------------|x---------------|
H   |--s-s-s-s-s-s-s-|s-s-s-s-s-s-s-s-|--s-s-s-s-s-s-s-|--s-s-s-s-s-s-s-|
S   |--o---o---o---o-|--o---o---o---o-|--o---o---o---o-|--o---o---o---o-|
B   |o-o-o-o-o-o-o-o-|o-o-o-o-o-o-o-o-|o-o-o-o-o-o-o-o-|o-o-o-o-o-o-o-o-|
B2  |-o-o-o-o-o-o-o-o|-o-o-o-o-o-o-o-o|-o-o-o-o-o-o-o-o|-o-o-o-o-o-o-o-o|
    (1 + 2 + 3 + 4 + |1 + 2 + 3 + 4 + |1 + 2 + 3 + 4 + |1 + 2 + 3 + 4 + )
                                     |-------------Play 2x------------|
C   |x-------------------------------|x-------x-------x---------------|
H   |----s---s---s---s---s-------s---|----s-------s-------s-----------|
T3  |-------------------------o------|-------------------------o------|
S   |----o-------o-------o-----------|o-------o-------o---------------|
F   |------------------------o-------|------------------------o-------|
B   |o---o---o---o---o---o---o---o---|o---o---o---o---o---o---o---o---|
B2  |--o---o---o---o---o---o---o---o-|--o---o---o---o---o---o---o---o-|
    (1   +   2   +   3   +   4   +   |1   +   2   +   3   +   4   +   )
                                      |-------------Play 2x-------------|
C   |c---------------|--------------c-|----------------|--------------c-|
S   |o-------------oo|-oo-----------o-|--------------oo|-oo-----------o-|
B   |----o---o---o---|o---o---o---o---|o---o---o---o---|o---o---o---o---|
    (1 + 2 + 3 + 4 + |1 + 2 + 3 + 4 + |1 + 2 + 3 + 4 + |1 + 2 + 3 + 4 + )
                 7/4
S   |--------------oo-oo---------|
B   |o---o---o---o---o---o---o---|
    (1 + 2 + 3 + 4 + 5 + 6 + 7 + )

T2  |F---------------|----------------|----------------|----------------|
T3  |--oo------------|----------------|----------------|----------------|
S   |----F-oo-oo-oooo|F-ooF-oo-oo-oooo|F-ooo-oo-oo-oooo|-oo-oo-oo-oo--oo|
B   |o---o---o---o---|o---o---o---o---|o---o---o---o---|o---o---o---o---|
    (1 + 2 + 3 + 4 + |1 + 2 + 3 + 4 + |1 + 2 + 3 + 4 + |1 + 2 + 3 + 4 + )

    |----Play 3x-----|
S   |F-ooo-oo-oo-oooo|-oo-oo-oo-oo--oo|
B   |o---o---o---o---|o---o---o---o---|
    (1 + 2 + 3 + 4 + |1 + 2 + 3 + 4 + )

                     |----Play 6x-----|
C   |x-x-x-x-x-x-x-x-|x-x-x-x-x-x-x-x-|x-x-x-x-x-x-x-x-|
S   |----o---o---o---|o---o---o---o---|o---o---o---o---|
B   |o-oo--oo-o-o--oo|--oo--oo-o-o--oo|--oo--oo-o-o----|
    (1 + 2 + 3 + 4 + |1 + 2 + 3 + 4 + |1 + 2 + 3 + 4 + )

    |------------------------------Play 2x------------------------------|
H   |X--XX--X-X--X--x|X---X--X--X--X--|X--xX--X-X--X--x|X---X--X-X-X-X--|
S   |-oo--oo-o-oo-oo-|-ooo-oo-oo-oo-oo|-oo--oo-o-oo-oo-|-ooo-oo-o-o-o-oo|
B   |o---o--o-o--o---|o---o--o--o--o--|o---o--o-o--o---|o---o--o-o-o-o--|
    (1 + 2 + 3 + 4 + |1 + 2 + 3 + 4 + |1 + 2 + 3 + 4 + |1 + 2 + 3 + 4 + )

C   |-------2-2--1---|-------2-2--1---|-------2-2--1---|-------2-2--1---|
H   |X---X-----------|X---X-----------|X---X-----------|X---X-----------|
S   |-ooo-oo-o-oo-ooo|-ooo-oo-o-oo-ooo|-ooo-oo-o-oo-ooo|-ooo-oo-o-oo-ooo|
B   |o---o--o-o--o---|o---o--o-o--o---|o---o--o-o--o---|o---o--o-o--o---|
    (1 + 2 + 3 + 4 + |1 + 2 + 3 + 4 + |1 + 2 + 3 + 4 + |1 + 2 + 3 + 4 + )
       7/16
C   |2-22--2|2-22--2|2-22--2|2-22--2|
S   |-o--oo-|-o--oo-|-o--oo-|-o--oo-|
B   |o-oo--o|o-oo--o|o-oo--o|o-oo--o|
    (1234567|1234567|1234567|1234567)
      6/16
C   |2-22-2|2-22-2|2-22-2|2-22-2|2-22-2|
S   |-o--o-|-o--o-|-o--o-|-o--o-|-o--o-|
B   |o-oo-o|o-oo-o|o-oo-o|o-oo-o|o-oo-o|
    (123456|123456|123456|123456|123456)
      7/16                         4/4
C   |2------|-------|-------|x---------------|
H   |----X--|X---X--|X---X--|----------------|
S   |-ooo-oo|-ooo-oo|-ooo-oo|----------------|
B   |o---o--|o---o--|o---o--|o---------------|
    (1234567|1234567|1234567|1 + 2 + 3 + 4 + )
        5/8                      7/8         5/8           7/8
C   |2---2-----|2---2-----|2---2---2-----|2---2-----|2---2---2-----|
S   |--o---o-o-|--o---o-o-|--o---o---o-o-|--o---o-o-|--o---o---o-o-|
B   |o---o-----|o---o-----|o---o---o-----|o---o-----|o---o---o-----|
    (1+2+3+4+5+|1+2+3+4+5+|1+2+3+4+5+6+7+|1+2+3+4+5+|1+2+3+4+5+6+7+)
        5/8                      7/8
C   |2---2-----|2---2-----|2---2---2-----|
S   |--o---o-o-|--o---o-o-|--o---o---o-o-|
B   |o---o-----|o---o-----|o---o---o-----|
    (1+2+3+4+5+|1+2+3+4+5+|1+2+3+4+5+6+7+)
       4/8     3/8             4/8     3/8   
C   |x-------|------|------|x-------|------|------|
H   |--------|X-----|X-----|--------|X-----|X-----|
S   |--o-o-o-|--o-o-|--o-o-|--o-o-o-|--o-o-|--o-o-|
B   |o-------|o-----|o-----|o-------|o-----|o-----|
    (1+2+3+4+|1+2+3+|1+2+3+|1+2+3+4+|1+2+3+|1+2+3+)
           8/8                7/8             6/8
C   |x---------x-----|x-------------x---|x-------------|x-----x-----|
t1  |-F-ooF-oo-------|------------------|--------------|------------|
T1  |------------oo--|------------------|----666666oo--|------------|
T2  |--------------oo|----3-3-----------|------------oo|------------|
T3  |----------------|--------3-3-------|--------------|------------|
T4  |----------------|------------o-----|--------------|------------|
S   |----------------|--3---------o-----|--------------|--oooo--oooo|
B   |o---------o-----|o-------------o---|o-------------|o-----o-----|
    (1+2+3+4+5+6+7+8+|1 t l 3 t l 5+6+7+|1+2+3tl4tl5+6+|1+2+3+4+5+6+)
            8/8            7/8
C   |x-----cc--cccc--|cc--cccc--ccx-|
S   |--oooo--oo----oo|--oo----oo----|
B   |o-----o---o-o---|o---o-o---o-o-|
B2  |-------o---o-o--|-o---o-o---o--|
    (1+2+3+4+5+6+7+8+|1+2+3+4+5+6+7+)
         6/8      3/8
    |------Play 2x-----|Play2x|
C   |x----------|------|x-----|
H   |------x-x-x|X-----|------|
S   |------o----|--o-o-|--o-o-|
B   |o---o------|o-----|o-----|
    (1+2+3+4+5+6|1+2+3+|1+2+3+)
          6/8      3/8       6/8         5/8      3/8     4/8     3/8
C   |x-----------|------|x-----------|s---s-----|s-----|s---s---|s-----|
H   |------x-x-x-|X-----|------x-x-x-|----------|------|--------|------|
S   |------o-----|--o-o-|------o-----|--o---o-o-|--o-o-|--o---o-|--o-o-|
B   |o---o-------|o-----|o---o-------|o---o-----|o-----|o---o---|o-----|
    (1+2+3+4+5+6+|1+2+3+|1+2+3+4+5+6+|1+2+3+4+5+|1+2+3+|1+2+3+4+|1+2+3+)
          6/8      3/8
    |-------Play 2x-----|
C   |x-----------|------|s-----|x-----|
H   |------x-x-x-|X-----|------|------|
S   |------o-----|--o-o-|--o-o-|--o-o-|
B   |o---o-------|o-----|o-----|o-----|
    (1+2+3+4+5+6+|1+2+3+|1+2+3+|1+2+3+)
          6/8      3/8       6/8         5/8      3/8     4/8     3/8
C   |x-----------|------|x-----------|X---X-----|X-----|X---X---|X-----|
H   |------x-x-x-|X-----|------x-x-x-|----------|------|--------|------|
S   |------o-----|--o-o-|------o-----|o---o-----|o-----|o---o---|o-----|
B   |o---o-------|o-----|o---o-------|--o---o-o-|--o-o-|--o---o-|--o-o-|
    (1+2+3+4+5+6+|1+2+3+|1+2+3+4+5+6+|1+2+3+4+5+|1+2+3+|1+2+3+4+|1+2+3+)
          6/8      3/8
C   |s-----s-----|s-----|s-----|s-----|
H   |------------|------|------|------|
S   |------o-----|--o-o-|------|o-----|
B   |o---o-------|o-----|o---o-|------|
    (1+2+3+4+5+6+|1+2+3+|1+2+3+|1+2+3+)
         6/8       3/8            4/8
                               |-Play 2x|
H   |s---s---s---|s---s-|--s---|s---s---|
S   |------o-----|------|o-----|--o-----|
B   |o---o---o---|o---o-|--o---|o---o---|
    (1+2+3+4+5+6+|1+2+3+|1+2+3+|1+2+3+4+)
         6/8       3/8
C   |x-----------|------|------|------|
H   |----s---s---|s---s-|--s---|X---X-|
S   |------o-----|------|o-----|-ooo--|
B   |o---o---o---|o---o-|--o---|o---o-|
    (1+2+3+4+5+6+|1+2+3+|1+2+3+|1+2+3+)
         6/8       3/8
H   |s---s---s---|X---X-|X---X-|
S   |------o-----|-ooo--|-ooo--|
B   |o---o---o---|o---o-|o---o-|
    (1+2+3+4+5+6+|1+2+3+|1+2+3+)
4/4 (Same eighth note speed) 3/4        4/4
                     |-------------Play 2x---------|
C   |----------------|--------2---|--------2---2---|
R   |----------------|x-----------|x---------------|
H   |X---X---X---X---|-ooOoOoo-oOo|-ooOoOoo-oOo-oOo|
S   |-ooo-ooo-ooo-ooo|------------|----------------|
B   |o---o---o---o---|o-o-----o---|o-o-----o---o---|
    (1 + 2 + 3 + 4 + |1 + 2 + 3 + |1 + 2 + 3 + 4 + )
                                            
    |----6/8--------------Play 2x-------------4/8---|
C   |------------|2-----------|------------|2-------|
R   |x-----------|------------|x-----------|--------|
S   |--o-o-O-o-o-|--o-o-O-o-o-|--o-o-O-o-o-|--o-O-o-|
B   |o---o-------|o---o-------|o---o-------|o-------|
    (1+2+3+4+5+6+|1+2+3+4+5+6+|1+2+3+4+5+6+|1+2+3+4+)
       4/8       5/8
             |--Play 3x-|
C   |2-------|----------|
R   |--------|x---x-----|
S   |--o-O-o-|--o---o-o-|
B   |o-------|o---o-----|
    (1+2+3+4+|1+2+3+4+5+)
         6/8                         8/8             6/8
C   |------------|x-----------|----------------|x-----------|
R   |x-----x-----|--x-x-x-x-x-|x-x-x-x-x-x-x-x-|--x-x-x-x-x-|
S   |--o-o---o-o-|---O-O----O-|---O-O----O---O-|---O-O----O-|
B   |o-----o-----|o-o-----o---|o-o-----oo--oo--|o-o-----oo--|
    (1+2+3+4+5+6+|1+2+3+4+5+6+|1+2+3+4+5+6+7+8+|1+2+3+4+5+6+)
           8/8
R   |x-x-x-x-x-x-x-x-| 
S   |---O-O----OO--OO|
B   |o-o-----oo--oo--|
    (1+2+3+4+5+6+7+8+)         ________ _________________
         6/8     |---Play 2x--|1. 4/8  |2.               |
C   |x-----------|------------|----x---|--------|--------|
R   |------x-----|x-----x-----|x-------|x---x---|x---x---|
S   |------o-----|------o-----|----o---|----o---|----o---|
B   |o---o---o---|o---o---o---|o-------|o-------|o-------|
B2  |--o---o---o-|--o---o---o-|--o-----|--o-----|--o-----|
    (1+2+3+4+5+6+|1+2+3+4+5+6+|1+2+3+4+|1+2+3+4+|1+2+3+4+)
        5/8                                6/8    |--Play 4x-|
C   |----------|----------|----------|------------|1---1-----|c---c-----|
R   |x---x-----|x---x-----|x---x-----|x-----x-----|----------|----------|
S   |o-o---o-o-|--o---o-o-|--o---o-o-|--o-o---o-o-|--o---o-o-|--o---o-o-|
B   |o---o-----|o---o-----|o---o-----|o-----o-----|o---o-----|o---o-----|
    (1+2+3+4+5+|1+2+3+4+5+|1+2+3+4+5+|1+2+3+4+5+6+|1+2+3+4+5+|1+2+3+4+5+)
                                                5/8
          7/8          5/8         6/8     |--Play 3x-|     7/8      |
C   |c---c---c-----|c---c-----|c-----c-----|c---c-----|--------------|
T2  |--------------|----------|------------|----------|--o-o---------|
T3  |--------------|----------|------------|----------|------o-o-----|
T4  |--------------|----------|------------|----------|----------o-o-|
S   |--o---o---o-o-|--o---o-o-|--o-o---o-o-|--o---o-o-|F-------------|
B   |o---o---o-----|o---o-----|o-----o-----|o---o-----|--------------|
    (1+2+3+4+5+6+7+|1+2+3+4+5+|1+2+3+4+5+6+|1+2+3+4+5+|1+2+3+4+5+6+7+)
          6/8                                     7/8
C   |x-----x-----|x-----x-----|1-----x---x-|x-------------|
R   |--x-x---x-x-|--x-x---x---|--x-x---x---|--x-x---------|
T2  |------------|------------|------------|-------oo-----|
T3  |------------|------------|------------|---------oo---|
T4  |------------|------------|------------|-----------o--|
S   |---O--O---OO|---O--OO--OO|---O--O---O-|---O--F-----oo|
F   |------------|----------o-|------------|--------------|
B   |o-o--o--oo--|o-o--o--oo--|o-o--o---o--|o-o--o--------|
    (1+2+3+4+5+6+|1+2+3+4+5+6+|1+2+3+4+5+6+|1+2+3+4+5+6+7+)
          6/8                                     Ritard    5/8
C   |x-----x-----|x-----x-----|x-----x-----|x-----x-----|c---------|
R   |--x-x---x-x-|--x-x-------|--x-x---x-x-|--x-x-------|----------|
T1  |------------|-------oo---|------------|-------oo---|----------|
T2  |------------|---------o--|------------|-------ooo--|----------|
T3  |------------|------------|------------|---------oo-|----------|
T4  |------------|------------|------------|-----------o|----------|
S   |---O--O---OO|---O--O---oo|---O--O---O-|---O--O-----|o---o-o-o-|
F   |------------|------------|------------|----------o-|----o-o-o-|
F2  |------------|------------|------------|-----------o|----------|
B   |o-o--o---o--|o-o--o------|o-o--o---o--|o-o--o------|----------|
    (1+2+3+4+5+6+|1+2+3+4+5+6+|1+2+3+4+5+6+|1+2+3+4+5+6+|1+2+3+4+5+)
         3/4            4/4
C   |x---x---x---|x---------------|
B   |o---o---o---|o---------------|
    (1 + 2 + 3 + |1 + 2 + 3 + 4 + )

END
Enjoy the tab,
Dean Christesen
	
comments
We did not receive enough feedback on this tab! Please rate:
print report bad tab
1 2 3 4 5
I want to post or [tab]
guest
You may want to rate the tab now too:
select rating
Please do not post tabs as comments. Select "correction" instead!