Oops, an error
Loading. Please wait.

Dance Of Eternity Tab

ver2
ver2

Whole song

Interactive

More versions @911Tabs.com
13,555 views 30 this week
4 commentsread comments
1 2 3 4 5
excellent!
x 7
add to favorites launch autoscroll
font size
0
reset
Autoscroll
+/-
esc
set tempo
stop
Contributor
WARNING: You are trying to view
                                    content from Ultimate-Guitar.com
                                    in an unauthorized application,
                                    which is prohibited.

                                    Please use an official Ultimate
                                    Guitar Tabs application for iPhone,
                                    iPad or Android to access legitimate
                                    chords, guitar, bass, and drum tabs
                                    from Ultimate-Guitar.com database.

                                    Type "ultimate guitar tabs" in Apple
                                    App Store's or Android Market's
                                    search to find the application.
                              THE DANCE OF ETERNITY
                          As recorded by Dream Theater
           (From the 1999 Album METROPOLIS PT.2: SCENES FROM A MEMORY)

Gtr I (B A D G B E) - 'Keyboard'
Gtr II (B E A D G B E) - 'Rhythm'
Gtr III (B E A D G B E) - 'Lead'
Gtr IV (E A D G B E) - 'Piano'
Gtr V (E A D G B E) - 'Piano 2'
Gtr VI (E A D G B E) - 'Keyboard 2'

  Q=60                    Q=104
  D5
 4/4
  Gtr I
  W          +W           +W
|----------|------------|------------||
|----------|------------|------------||
|----------|------------|------------||
|-0--------|-(0)--------|-(0)--------||
|----------|------------|------------||
|-3--------|-(3)--------|-(3)--------||
|
| Gtr II
| W           W            W
|----------|------------|------------||
|----------|------------|------------||
|----------|------------|------------||
|----------|------------|------------||
|----------|------------|------------||
|----------|------------|------------||
|----------|------------|------------||


 0:10
 4/4
  +W                   +W           +W
|--------------------|------------|--------|
|--------------------|------------|--------|
|--------------------|------------|--------|
|-(0)----------------|-(0)--------|-(0)----|
|--------------------|------------|--------|
|-(3)----------------|-(3)--------|-(3)----|
|
|  S  S S S E E H       W            W
|--------------------|------------|--------|
|--------------------|------------|--------|
|--------------------|------------|--------|
|--------------------|------------|--------|
|--------------------|------------|--------|
|--------------------|------------|--------|
|--3--3-3-3-3--------|------------|--------|


  +W           +W           +W
|------------|------------|---------------------------|
|------------|------------|---------------------------|
|------------|------------|---------------------------|
|-(0)--------|-(0)--------|-(0)-----------------------|
|------------|------------|---------------------------|
|-(3)--------|-(3)--------|-(3)-----------------------|
|
|                            PM---------------------|
|                            |-3--|           |-3-|
|  W            W            S  S S e E e E e S S S e
|------------|------------|---------------------------|
|------------|------------|---------------------------|
|------------|------------|---------------------------|
|------------|------------|--0--0-0-0---0---0-0-0-0-0-|
|------------|------------|---------------------------|
|------------|------------|---------------------------|
|------------|------------|---------------------------|


  +W                          +W
|---------------------------|---------------------------|
|---------------------------|---------------------------|
|---------------------------|---------------------------|
|-(0)-----------------------|-(0)-----------------------|
|---------------------------|---------------------------|
|-(3)-----------------------|-(3)-----------------------|
|
|  PM----------------------------------------------------
|  |-3--|           |-3-|      |-3--|           |-3-|
|  S  S S e E e E e S S S e    S  S S e E e E e S S S e
|---------------------------|---------------------------|
|---------------------------|---------------------------|
|---------------------------|---------------------------|
|--0--0-0-0---0---0-0-0-0-0-|--0--0-0-0---0---0-0-0-0-0-|
|---------------------------|---------------------------|
|---------------------------|---------------------------|
|---------------------------|---------------------------|


  W
|-----------------------------------|
|-----------------------------------|
|-----------------------------------|
|-----------------------------------|
|-----------------------------------|
|-----------------------------------|
|
|-------------------------------|
| |-3-|     |-3-| |-3-|   |-3-|
| S S S e E S S S s S S E S S S e
|-----------------------------------|
|-----------------------------------|
|-----------------------------------|
|-0-0-0-0---0-0-0-0-0-0-0-0-0-0-0---|
|-----------------------------------|
|-----------------------------------|
|-----------------------------------|


 0:31
  Q=124
  G5                     Ab5
  S  S S S S S S S  S  S S  S S S S S
|-------------------------------------|
|-------------------------------------|
|--------------5-7--5-----------------|
|----------5-7---------7-5--3---------|
|------3-5--------------------5-3-1---|
|-8-10------------------------------7-|
|
| H                +E    Q.
|-------------------------------------|
|-3----------------(3)----------------|
|-0----------------(0)----------------|
|-0----------------(0)---6------------|
|------------------------6------------|
|-3----------------(3)---4------------|
|-------------------------------------|


  G5                     F5             E5
 7/8                                   3/4
  S  S S S S S S S  S  S S S T T T  T   S   S S S S S S S S S S S
|-------------------------------------|---------------------------|
|-------------------------------------|---------------------------|
|--------------5-7--5-----------------|---------------5-7-5-------|
|----------5-7---------7-5-3----------|-----------5-7-------7-5-3-|
|------3-5-------------------5-3-1----|-------3-5-----------------|
|-8-10-----------------------------10-|-8--10---------------------|
|
| H                +E    Q              H.
|-------------------------------------|---------------------------|
|-3----------------(3)----------------|---------------------------|
|-0----------------(0)----------------|---------------------------|
|-0----------------(0)---3------------|-2-------------------------|
|------------------------3------------|-2-------------------------|
|-3----------------(3)---1------------|-0-------------------------|
|-------------------------------------|---------------------------|


  C5            F#5                   G5                        Ab5
                                     4/4
                             |-3--|
  S  S S  S S S S  S T T T T S S  S   S  S S S S  S S  S  S   S S  S S S S  S
|-----------------------------------|---------------8-10--8-------------------|
|-----------------------------------|----------8-10----------10-8--6----------|
|--------------------3-2------------|------5-7------5--7--5----------7-5-3----|
|-2---------4-2----------4-2--------|-5--7-----5--7-----------7-5--3--------7-|
|----5-1--------3--1---------3-1----|------3-5-----------------------5-3-1----|
|--------10----------------------10-|-8-10---------------------------------10-|
|
| Q.            Q.                    H                  +E     Q.
|-----------------------------------|-----------------------------------------|
|-----------------------------------|-3------------------(3)------------------|
|-----------------------------------|-0------------------(0)------------------|
|---------------4-------------------|-0------------------(0)----6-------------|
|-3-------------4-------------------|---------------------------6-------------|
|-3-------------2-------------------|-3------------------(3)----4-------------|
|-1---------------------------------|-----------------------------------------|


  G5                        F5
 7/8
  S  S S S S  S S  S  S   S S S T T T  T
|---------------8-10--8-------------------|
|----------8-10----------10-8-6-----------|
|------5-7------5--7--5---------7-5-3-----|
|-5--7-----5--7-----------7-5-3--------7--|
|------3-5----------------------5-3-1-----|
|-8-10--------------------------------10--|
|
| H                  +E     Q
|-----------------------------------------|
|-3------------------(3)------------------|
|-0------------------(0)------------------|
|-0------------------(0)----3-------------|
|---------------------------3-------------|
|-3------------------(3)----1-------------|
|-----------------------------------------|


  E5
 3/4
  S   S S S S  S S  S S  S S S
|----------------8-10-8--------|
|-----------8-10--------10-8-6-|
|-------5-7------5--7-5--------|
|-5---7-----5--7---------7-5-3-|
|-------3-5--------------------|
|-8--10------------------------|
|
| H.
|------------------------------|
|------------------------------|
|------------------------------|
|-2----------------------------|
|-2----------------------------|
|-0----------------------------|
|------------------------------|


                                0:44
  C5             Eb5             G5          Csus4
                                4/4
  S  S S  S S  S S  S S  S S S   H       +E  E +Q
|--------------------------8-9-|---------------------|
|-5--------------7--8-9-11-----|-3-------(3)-1-(1)---|
|----7-3----8-10-----------5-6-|-0-------(0)-0-(0)---|
|-2-------7------4--5-6--8-----|-0-------(0)-3-(3)---|
|----5-1----6--8---------------|-------------3-(3)---|
|--------10--------------------|---------------------|
|
| Q.             Q.              E E E E  E  E  E  E
|------------------------------|---------------------|
|------------------------------|---------------------|
|------------------------------|---------------------|
|------------------------------|-----5----3--6--5----|
|-3--------------6-------------|---5---5-----------6-|
|-3--------------6-------------|-3-------------------|
|-1--------------4-------------|---------------------|


  G5        Fadd9     Esus4
 7/8                 6/8
  H          Q.        H.
|-------------------|---------------|
|-------------------|---------------|
|-0---------(0)-----|---------------|
|-0---------(0)-----|--2------------|
|------------0------|--2------------|
|-----------13------|-10------------|
|
| E E E S S  E  E E    E  E E E E E
|-------------------|---------------|
|-------------------|---------------|
|-------------------|-------------4-|
|---------3--5------|-------2-3-2---|
|-5---5-6-------3---|-----2---------|
|---3-------------1-|--0------------|
|-------------------|---------------|


  Csus4  C#sus4          Gsus4       Csus4
 7/8                    4/4
  Q.     E  E   E   E    H       +E  E +Q
|----------------------|----------------------|
|---------------1---2--|-3-------(3)-1-(1)----|
|-0------2--3----------|-0-------(0)-0-(0)----|
|-0--------------------|-0-------(0)-3-(3)----|
|-3------4-(4)-(4)-(4)-|----------------------|
|----------------------|----------------------|
|
| E  E E E  E   E   E    E E E E  E  E  E  E
|----------------------|----------------------|
|----------------------|----------------------|
|-5--------------------|----------------------|
|------5--------6------|-----5----3--6--5-----|
|----3---4-------------|---5---5-----------6--|
|-----------2-------4--|-3--------------------|
|----------------------|----------------------|


  G5        Fadd9     Esus4
 7/8                 6/8
  H          Q.        H.
|-------------------|---------------|
|-------------------|---------------|
|-0---------(0)-----|---------------|
|-0---------(0)-----|--2------------|
|------------0------|--2------------|
|-----------13------|-10------------|
|
| E E E S S  E  E E    E  E E E E E
|-------------------|---------------|
|-------------------|---------------|
|-------------------|-------------4-|
|---------3--5------|-------2-3-2---|
|-5---5-6-------3---|-----2---------|
|---3-------------1-|--0------------|
|-------------------|---------------|


  Cm                Ebsus4          N.C.
 7/8                               13/16
     |---3---|
  E  S   S   S   E  E  E   E   E    E S E S S S S S S S S
|---------------------------------|------------------------|
|--------------------------1---2--|------------------------|
|-------------------2--3----------|------------------------|
|-1--3---1---3---5----------------|-----------------3-5-6--|
|-3-(3)-(3)-(3)-(3)-4-(4)-(4)-(4)-|-------------3-5--------|
|---------------------------------|-8-9-8-9-8-9------------|
|
|    |---3---|
| E  S   S   S   E  E  E   E   E    E S E S S S S S S S S
|---------------------------------|------------------------|
|---------------------------------|------------------------|
|-5-------------------------------|------------------------|
|----------------5----------------|-----------------3h5-6--|
|----3---5---6------6-------------|-------------3h5--------|
|--------------------------6---4--|-3-4-3-4-3h4------------|
|----------------------4----------|------------------------|


 15/16
  E S E S E S S S S S S S
|-------------------------|
|-------------------------|
|-------------------------|
|-------------------------|
|-----------5-3-----------|
|-8-9-8-9-8-----9-8-6-4-3-|
|
| E S E S E S S S S S S S
|-------------------------|
|-------------------------|
|-------------------------|
|-------------------------|
|-----------5-3-----------|
|-3-4-3-4-3-----4-3-------|
|-------------------6-4-3-|


 17/16                       14/16
  E S E S E E S S S S S S S   E S E S S S S S S S S S
|---------------------------|-------------------------|
|---------------------------|-------------------------|
|---------------------------|-------------------------|
|---------------------3-5-6-|-------------------------|
|-----------------3-5-------|-------------5-3---------|
|-8-9-8-9-8-9-8-9-----------|-8-9-8-9-8-9-----9-8-6-4-|
|
| E S E S E E S S S S S S S   E S E S S S S S S S S S
|---------------------------|-------------------------|
|---------------------------|-------------------------|
|---------------------------|-------------------------|
|---------------------3h5-6-|-------------------------|
|-----------------3h5-------|-------------5-3---------|
|-3-4-3-4-3-4-3h4-----------|-3-4-3-4-3-4-----4-3-----|
|---------------------------|---------------------6-4-|


  D5                    Eb5
 4/4
  S S S S S S S S  S  S S  S S S S S
|-------------3-5--3-----------------|
|---------3-4---------4-3--1---------|
|-----0-2--------------------2-0-----|
|-0-1----------------------------3-1-|
|------------------------------------|
|------------------------------------|
|
| H               +E    Q.
|------------------------------------|
|------------------------------------|
|------------------------------------|
|------------------------------------|
|-5---------------(5)---6------------|
|-5---------------(5)---6------------|
|-3---------------(3)---4------------|


  D5                    C5            B5
 7/8                                 3/4
  S S S S S S S S  S  S S S T T T T   S  S S S S S S S S S S S
|-------------3-5--3----------------|--------------3-5-3----------|
|---------3-4---------4-3-1---------|----------3-4-------4-3-1----|
|-----0-2-------------------2-0-----|------0-2--------------------|
|-0-1---------------------------3-1-|-0--1------------------------|
|-----------------------------------|-----------------------------|
|-----------------------------------|-----------------------------|
|
| H               +E    Q             H.
|-----------------------------------|-----------------------------|
|-----------------------------------|-----------------------------|
|-----------------------------------|-----------------------------|
|-----------------------------------|-----------------------------|
|-5---------------(5)---3-----------|-2---------------------------|
|-5---------------(5)---3-----------|-2---------------------------|
|-3---------------(3)---1-----------|-0---------------------------|


  G5           C#5                   D5                    Eb5
                                    4/4
                             |-3-|
  S  S S S S S S S  T  T T T S S S   S S S S S S S S  S  S S  S S S S S
|-------------------1--------------|-------------3-5--3-----------------|
|-0--------2-0---------4-2---------|---------3-4---------4-3--1---------|
|----2---------0-----------3-------|-----0-2--------------------2-0-----|
|------3-1-------3-----------5-3-1-|-0-1----------------------------3-1-|
|----------------------------------|------------------------------------|
|----------------------------------|------------------------------------|
|
| Q.           E   +Q                H               +E    Q.
|----------------------------------|------------------------------------|
|-3--------------------------------|------------------------------------|
|-0--------------------------------|------------------------------------|
|-0--------------------------------|------------------------------------|
|--------------4---(4)-------------|-5---------------(5)---6------------|
|-3------------4---(4)-------------|-5---------------(5)---6------------|
|--------------2---(2)-------------|-3---------------(3)---4------------|


  D5                    C5
 7/8
  S S S S S S S S  S  S S S T T T T
|-------------3-5--3----------------||
|---------3-4---------4-3-1---------||
|-----0-2-------------------2-0-----||
|-0-1---------------------------3-1-||
|-----------------------------------||
|-----------------------------------||
|
| H               +E    Q
|-----------------------------------||
|-----------------------------------||
|-----------------------------------||
|-----------------------------------||
|-5---------------(5)---3-----------||
|-5---------------(5)---3-----------||
|-3---------------(3)---1-----------||


  Ab5
 4/4
  |----6----| |----6----| |----6----| |----6----|
  S S S S S S S S S S S S S S S S S S S S S S S S
|-----------------------------------------4-5-7-8--|
|-----------------------1-3-4-3---3-4-6-7----------|
|-----------------1-2-4---------5------------------|
|-0-1-0---0-1-3-4----------------------------------|
|-------3------------------------------------------|
|--------------------------------------------------|
|
| W
|--------------------------------------------------|
|--------------------------------------------------|
|--------------------------------------------------|
|-6------------------------------------------------|
|-6------------------------------------------------|
|-4------------------------------------------------|
|--------------------------------------------------|


 1:17
  G5
 5/4
  Gtr IV
   S S  S  S S S S S S S S S S S S S S S S S
|-10-------8---4---3-------------------------|
|-10---10--8---4---3---1-4---2---1-----------|
|-12-7-12-10-5-6---5-0---3---1---0-----1-----|
|----------------6-------7-1-4---3---3-1-----|
|------------------------------4---3---4-0-4-|
|--------------------------------------------|
|
|  E    E    Q       Q       H
|--------------------------------------------|
|--------------------------------------------|
|--------------------------------------------|
|--5-----------------------------------------|
|--5-----------------------------------------|
|--3-----------------------------------------|
|--------------------------------------------|


  N.C.
 17/16                       15/16                     13/16
  Gtr I
  E S E S E E S S S S S S S   E S E S E S S S S S S S   E S E S S S S S S S S
|---------------------------|-------------------------|------------------------|
|---------------------------|-------------------------|------------------------|
|---------------------------|-------------------------|------------------------|
|---------------------3-5-6-|-------------------------|-----------------3-5-6--|
|-----------------3-5-------|-----------5-3-----------|-------------3-5--------|
|-8-9-8-9-8-9-8-9-----------|-8-9-8-9-8-----9-8-6-4-3-|-8-9-8-9-8-9------------|
|
| E S E S E E S S S S S S S   E S E S E S S S S S S S   E S E S S S S S S S S
|---------------------------|-------------------------|------------------------|
|---------------------------|-------------------------|------------------------|
|---------------------------|-------------------------|------------------------|
|---------------------3h5-6-|-------------------------|-----------------3h5-6--|
|-----------------3h5-------|-----------5-3-----------|-------------3h5--------|
|-3-4-3-4-3-4-3h4-----------|-3-4-3-4-3-----4-3-------|-3-4-3-4-3h4------------|
|---------------------------|-------------------6-4-3-|------------------------|


  Bb5            Ab5               D5
 4/4
  |---5----|          |----6-----| |----6----|
  S  S S S S s s s s  S  S S S S S S S S S S S
|------------2---------------------------------||
|-5--3---------4-3-----------------------------||
|------5-3-2-------5--3--2---------------------||
|--------------------------4-2-----4-2---------||
|------------------------------5-3-----5-3-1---||
|--------------------------------------------8-||
|
| Q.             E   +Q            Q
|----------------------------------------------||
|----------------------------------------------||
|----------------------------------------------||
|-8--------------6---(6)-----------------------||
|-8--------------6---(6)-----------5-----------||
|-6--------------4---(4)-----------5-----------||
|----------------------------------3-----------||


  E5
 6/8
  S S E E Q.     S S S S S S e  e e
|--------------|----------------1-3-|
|--------------|-------------1------|
|--------------|-------4---2--------|
|--------------|-----2--------------|
|--------------|---2----------------|
|-5------------|-5------------------|
|
| E   E E Q.     E   E   E   Q.
|--------------|--------------------|
|--------------|--------------------|
|--------------|--------------------|
|--------------|--------------------|
|-7------------|-7------------------|
|-7------------|-7------------------|
|-5------------|-5------------------|


 1:29
  Q=120
  F#sus4                  C#sus4      Csus2         G#b5    D+
 5/4                                               2/4
                          |----6----| |----6----|
  S S S S S S S S S S S S S S S S S S S S S S S S   S S S S S S S  S
|-2-----------2---------------------4-3-----------|------------------|
|---2-0-2-0-----2-----------------4-----3-1-------|-------3----------|
|-----------------4-6-4---------6-----------------|---------3--------|
|-----------4-----------4---4-6-------------5-----|-----6-----4------|
|-------------------------4-------------------5-3-|---5---------5----|
|-------------------------------------------------|-9-------------11-|
|
| PM--|       PM--|
| S S S S S S S S S S S S E     E     E     E       S S S S S S S  S
|-------------------------------------------------|------------------|
|-------------------------------------------------|------------------|
|-------------------------------------------------|-------7-3--------|
|-------4-4-4-------4-4-4-------4-----5-----------|-----6-----4------|
|-------------------------4-----------------3-----|---5---------5----|
|-2-2-2-------2-2-2-------------------------------|-4--------------6-|
|-------------------------------------------------|------------------|


  F#sus4                  C#sus4      Csus2         G#b5  D+    G#b5
 5/4                                               2/4
                          |----6----| |----6----|
  S S S S S S S S S S S S S S S S S S S S S S S S   S S S S S S S S
|-------------------------4-----------3-----------|-----------------|
|-7-----------7-------------4-----------3---3-----|-3---------------|
|---6-4-6-4-----6-4-6-4-------6-----------5---5---|-------3---------|
|-----------4-----------4-------6-4-------------5-|---5-----4-------|
|-----------------------------------4-------------|-----5-----5---4-|
|-------------------------------------------------|-------------8---|
|
| PM--|       PM--|
| S S S S S S S S S S S S E     E     E     E       S S S S S S S S
|-------------------------------------------------|-----------------|
|-------------------------------------------------|-----------------|
|-------------------------------------------------|-7-----3---------|
|-------4-4-4-------4-4-4-------4-----5-----------|---6-----4-------|
|-------------------------4-----------------3-----|-----5-----5---4-|
|-2-2-2-------2-2-2-------------------------------|-------------3---|
|-------------------------------------------------|-----------------|


  F#sus4                  C#sus4      Csus2         A#+     G#b5
 5/4                                               2/4
                          |----6----| |----6----|
  S S S S S S S S S S S S S S S S S S S S S S S S   S S S S S S S S
|-----------------------------------4-3-----------|-----------------|
|-7-----------7-------------------4-----3---------|-------3-5-------|
|---6-4-6-4-----6-4-6-4---------6---------5-------|-----3-----------|
|-----------4-----------4---4-6-------------5-----|---4-------6-----|
|-------------------------4-------------------5-3-|-1-----------5---|
|-------------------------------------------------|---------------9-|
|
| PM--|       PM--|
| S S S S S S S S S S S S E     E     E     E       S S S S S S S S
|-------------------------------------------------|-----------------|
|-------------------------------------------------|-----------------|
|-------------------------------------------------|-------7-9-------|
|-------4-4-4-------4-4-4-------4-----5-----------|-----8-----6-----|
|-------------------------4-----------------3-----|---9---------5---|
|-2-2-2-------2-2-2-------------------------------|-6-------------4-|
|-------------------------------------------------|-----------------|


  F#sus4                  C#sus4      Csus2
 5/4
                          |----6----| |----6----|
  S S S S S S S S S S S S S S S S S S S S S S S S
|-------------------------4-----------3-----------||
|-7-----------7-------------4---4-------3---3-----||
|---6-4-6-4-----6-4-6-4-------6---6-------5---5---||
|-----------4-----------4-----------6-----------5-||
|-------------------------------------------------||
|-------------------------------------------------||
|
| PM--|       PM--|
| S S S S S S S S S S S S E     E     E     E
|-------------------------------------------------||
|-------------------------------------------------||
|-------------------------------------------------||
|-------4-4-4-------4-4-4-------4-----5-----------||
|-------------------------4-----------------3-----||
|-2-2-2-------2-2-2-------------------------------||
|-------------------------------------------------||


 5/8
  W
|----------------------------|
|----------------------------|
|----------------------------|
|----------------------------|
|----------------------------|
|----------------------------|
|
| PM----------------------|
| |----6----|   |----6----|
| S S S S S S E S S S S S S
|----------------------------|
|----------------------------|
|----------------------------|
|----------------------------|
|----------------------------|
|-5-4-4-3-3-2-1--------------|
|---------------5-4-3-3-2-2--|


 1:44
  Q=124
  B5
 11/4
  Gtr II
  PM----------------------------------------------------------------------------------|
  S S S S S S S S S S S S S S S S S S S S S S S S S S S S S S S S S S S S S S S S S S S S
|------------------------------------------------------------------------------------------|
|------------------------------------------------------------------------------------------|
|------------------------------------------------------------------------------------------|
|------------------------------------------------------------------------------------------|
|------------------------------------------------------------------------------------------|
|------------------------------------------------------------------------------------------|
|-0-0-0-0---0-0-0-0---0-0-0-0---0-0-0-0---0-0-0-0---0-0-0-0---0-0-0-0---0-0-0-0---0-0-0----|


  PM----------------------------------------------------------------------------------|
  S S S S S S S S S S S S S S S S S S S S S S S S S S S S S S S S S S S S S S S S S S S S
|-----------------------------------------------------------------------------------------|
|-----------------------------------------------------------------------------------------|
|-----------------------------------------------------------------------------------------|
|-----------------------------------------------------------------------------------------|
|-----------------------------------------------------------------------------------------|
|-----------------------------------------------------------------------------------------|
|-0-0-0-0---0-0-0-0---0-0-0-0---0-0-0-0---0-0-0-0---0-0-0-0---0-0-0-0---0-0-0-0---0-0-0---|


  PM----------------------------------------------------------------------------------|
  S S S S S S S S S S S S S S S S S S S S S S S S S S S S S S S S S S S S S S S S S S S S
|-----------------------------------------------------------------------------------------|
|-----------------------------------------------------------------------------------------|
|-----------------------------------------------------------------------------------------|
|-----------------------------------------------------------------------------------------|
|-----------------------------------------------------------------------------------------|
|-7-7-7-7---7-7-7-7---7-7-7-7---7-7-7-7---7-7-7-7---7-7-7-7---7-7-7-7---7-7-7-7---7-7-7---|
|-0-0-0-0---0-0-0-0---0-0-0-0---0-0-0-0---0-0-0-0---0-0-0-0---0-0-0-0---0-0-0-0---0-0-0---|


 9/4
  Gtr I
   S  S  S  e  S  S  S  e  S  S  S  e  S  S  S  e  S  S  S  e  S  S  S  e  S  S  S  e S
|---------------------------------------------------------------------------------------|
|---------------------------------------------------------------------------------------|
|---------------------------------------------------------------------------------------|
|---------------------------------------------------------------------------------------|
|---------------------------------------------------------------------------------------|
|-12-12-12-12-12-12-12-12-12-12-12-12-12-12-12-12-12-12-12-12-12-12-12-12-12-12-12-12---|
|
| Gtr II
|  PM------------------------------------------------------------------------------|
|  S  S  S  e  S  S  S  e  S  S  S  e  S  S  S  e  S  S  S  e  S  S  S  e  S  S  S  e S
|---------------------------------------------------------------------------------------|
|---------------------------------------------------------------------------------------|
|---------------------------------------------------------------------------------------|
|---------------------------------------------------------------------------------------|
|---------------------------------------------------------------------------------------|
|--7--7--7--7--7--7--7--7--7--7--7--7--7--7--7--7--7--7--7--7--7--7--7--7--7--7--7--7---|
|--0--0--0--0--0--0--0--0--0--0--0--0--0--0--0--0--0--0--0--0--0--0--0--0--0--0--0--0---|


  Bm
 2/4
  |------6------|  |------6-------|
  S  S  S S  S  S  S  S  S  S  S  S
|-------------------------------------|
|---------------------------5--6--7---|
|------------------4--5--7------------|
|---------2--4--5---------------------|
|-2--3--5-----------------------------|
|-------------------------------------|
|
| |------6------|  |------6-------|
| S  S  S S  S  S  S  S  S  S  S  S
|--------------------------12-13-14---|
|-----------------12-13-15------------|
|---------9-11-12---------------------|
|-9-10-12-----------------------------|
|-------------------------------------|
|-------------------------------------|
|-------------------------------------|


  Em                       F#/E         Am/E        Em                   F#/E                  Am/E
 11/4
   S  S  S  S S  S S S S S  S S  S  S S  S S  S S S  S S S S S S S S S S S S S  S S S S  S S S S S  S S
|--3------------------------2------------0-----------0---------------------------------------------------|
|--5--5----------5----------2-2----------1-1---------0-0-------0---------2-------------------------------|
|-----4--4-------4-4----------3--3---------2--2--------0-0-----0-0-------3-3--------3----------2---------|
|--------5--5------5-5-2---------4--4---------2-2--------2-2-----2-2-------4-4------4-4--------2-2-------|
|-----------7--------7-2------------4-----------3----------2-------2-2-------4--4-----4--4-1-----3--3----|
|--------------------------------------------------------------------8---------11-------11-7-------10----|
|
|  S  S  S  S S  S S S S S  S S  S  S S  S S  S S S  S S S S S S S S S S S S S  S S S S  S S S S S  S S
|-15p12---------12p7-------14p9---------12p8--------12p7-------7p3-------9p6--------6p2--------8p5-------|
|-------12-----------8----------11-----------10----------8---------5---------7-----------2----------5----|
|----------12----------9-----------11-----------9----------9---------4----------6----------3-------------|
|--------------------------------------------------------------------------------------------------------|
|--------------------------------------------------------------------------------------------------------|
|--------------------------------------------------------------------------------------------------------|
|--------------------------------------------------------------------------------------------------------|


  Em                       F#/E         Am/E        Em                   F#/E                  Am/E
   S  S  S  S S  S S S S S  S S  S  S S  S S  S S S  S S S S S S S S S S S S S  S S S S  S S S S S  S S
|--3------------------------2------------0-----------0--------------------------------------------------|
|--5--5----------5----------2-2----------1-1---------0-0-------0---------2------------------------------|
|-----4--4-------4-4----------3--3---------2--2--------0-0-----0-0-------3-3--------3----------2--------|
|--------5--5------5-5-2---------4--4---------2-2--------2-2-----2-2-------4-4------4-4--------2-2------|
|-----------7--------7-2------------4-----------3----------2-------2-2-------4--4-----4--4-1-----3--3---|
|--------------------------------------------------------------------8---------11-------11-7-------10---|
|
|  S  S  S  S S  S S S S S  S S  S  S S  S S  S S S  S S S S S S S S S S S S S  S S S S  S S S S S  S S
|-15p12---------12p7-------14p9---------12p8--------12p7-------7p3-------9p6--------6p2--------8p5------|
|-------12-----------8----------11-----------10----------8---------5---------7-----------2----------5---|
|----------12----------9-----------11-----------9----------9---------4----------6----------3------------|
|-------------------------------------------------------------------------------------------------------|
|-------------------------------------------------------------------------------------------------------|
|-------------------------------------------------------------------------------------------------------|
|-------------------------------------------------------------------------------------------------------|


 2:16
  E5
 4/4
   S S S  S S S S  S S S S S S S S S
|------------------------------------|
|--5------4--------3-2---1-0---------|
|----4------4------------------3-2---|
|------2------2--------2-----2-----4-|
|------------------------------------|
|------------------------------------|
|
|  S S S  S S S S  S S S S S S S S S
|-12p7-0-11p7-0---10p9-0-8p7-0-6p5---|
|----------------------------------7-|
|------------------------------------|
|------------------------------------|
|------------------------------------|
|------------------------------------|
|------------------------------------|


  S S S S S S  S  S  S  S  S  S  S  S S S
|------------------------------------------|
|--------------7--8--5-----5--------5------|
|-----------4-----------3-----3--2---------|
|-5---2-4-5---------------------------5-4--|
|---6--------------------------------------|
|------------------------------------------|
|
| S S S S S S  S  S  S  S  S  S  S  S S S
|-----------7-14h15-12----12-------12------|
|-8-----7h8------------11----11p10----8p7--|
|---8h9------------------------------------|
|------------------------------------------|
|------------------------------------------|
|------------------------------------------|
|------------------------------------------|


   S S S  S S S S  S S S S S S S S S   S S S S S S S S S S S S S S S S
|------------------------------------|---------------------------------|
|--5------4--------3-2---1-0---------|---------------------------------|
|----4------4------------------3-2---|---------------------------------|
|------2------2--------2-----2-----4-|-5-------------------------------|
|------------------------------------|---3-4-6-7-0-1-3-4-----0-1-0-----|
|------------------------------------|-------------------7-8-------8-7-|
|
|  S S S  S S S S  S S S S S S S S S   S S S S S S S S S S S S S S S S
|-12p7-0-11p7-0---10p9-0-8p7-0-6p5---|---------------------------------|
|----------------------------------7-|-8-------5-----------------------|
|------------------------------------|---5-6-8-------5-6-------3-------|
|------------------------------------|-----------7-8-----4-5-7---7-5-4-|
|------------------------------------|---------------------------------|
|------------------------------------|---------------------------------|
|------------------------------------|---------------------------------|


                                    C               B
  S S S S S S S S S S S S S S S S   S S S S S S S S S S S S S  S S S
|---------------------------------|-3---------------2----------------|
|---------------------------------|-5---------------4----------------|
|---------------------------------|-5---------------4----------------|
|-2-----1-------------------------|-5---------------4--------------4-|
|---2-----2-----5-4---3-2---1-0---|-----------------2-3-4-5-6----6---|
|-----5-----5-------5-----5-----7-|-8-7-5-7-4-5-7-8-----------12-----|
|                                   H               H
|
| PM---------------------------------------------------------------|
| S S S S S S S S S S S S S S S S   S S S S S S S S S S S S S  S S S
|---------------------------------|----------------------------------|
|---------------------------------|----------------------------------|
|---------------------------------|----------------------------------|
|---------------------------------|----------------------------------|
|-7-----6-------5-4---3-2---1-0---|-----------------2-3-4-5-6----6-9-|
|---7-0---7-0-------0-----0-----2-|-3-2-0-2-----2-3------------7-----|
|---------------------------------|---------4-5----------------------|


  E5
  S S S S S S S S S S S S S S S S
|-0-------------------------------|
|-0-------------------------------|
|---------------------------------|
|-2-----1-------------------------|
|-7-2-----2-----5-4---3-2---1-0---|
|-----5-----5-------5-----5-----5-|
| W
|
| PM-------------------------------
| S S S S S S S S S S S S S S S S
|---------------------------------|
|---------------------------------|
|---------------------------------|
|---------------------------------|
|-7-----6-------5-4---3-2---1-0---|
|---7-0---7-0-------0-----0-----2-|
|---------------------------------|
|
| Gtr III
| W
|---------------------------------|
|---------------------------------|
|---------------------------------|
|---------------------------------|
|---------------------------------|
|---------------------------------|
|---------------------------------|


  C7            B7
   e  e  S e    S +Q                  Q
|------------------------------------------------------|
|--1--1--1-1----1--------------------------------------|
|--0--0--0-0-------------------------------------------|
|--2--2--2-2----4-(4)S===============16----------------|
|--1--1--1-1----6-(6)S===============18----------------|
|-13-13-13---13-7-(7)S===============22----------------|
|  e  E  E    E    H
|
|-----------------|
|  e  e  S e    S +H
|------------------------------------------------------|
|------------------------------------------------------|
|------------------------------------------------------|
|------------------------------------------------------|
|--3--3--3-3----2-(2)----------------------------------|
|--3--3--3-3----2-(2)----------------------------------|
|--1--1--1-1----0-(0)----------------------------------|
|
|                                     |------6-------|
|  H               S   S  T  T  T  T  S  S  S  S  S  S
|---------------------------------14-19p14-------------|
|------------------------------16----------16----------|
|---------------------------16----------------16-------|
|------------------------16----------------------16----|
|---------------------14----------------------------14-|
|------------------------------------------------------|
|------------------------------------------------------|


 2:32
  Q=132
  Em
  Gtr IV
  S S S S S S S S  S  S S  S  +S   E    S
|-------------------------11-(11)-10---10-|
|-------------7-8--5-------4--(4)--3----3-|
|-----------4---------4-------------------|
|-5---2-4-5-------------------------------|
|---6-------------------------------------|
|-----------------------------------------|
|
| Gtr V
| E   e   E   e    E    e      E     e
|-----------------------------------------|
|-----0-------0---------0------------0----|
|-----0-------0---------0------------0----|
|---------2--------------------2----------|
|-----------------------------------------|
|-0----------------0----------------------|
|
| Gtr II
| PM---------------------------------------
| E   E   E   S S +S  E    S   E     E
|-----------------------------------------|
|-----------------------------------------|
|-----------------------------------------|
|-----------------------------------------|
|-7---7---------7-(7)-7----7--------------|
|-7---7-------7-7-(7)-7----7--------------|
|-5---5---0---0-5-(5)-5----5---0-----0----|


  C#°7  C7      B7
                 |-------6--------|  |--3--|   |-3-|
   e  e S e   S  S  S   S  S   S  S  T  T  T S S S S
|--9--9-8-8---7------------4--11-14-19-14-11-7---------|
|-11-11-------------4---7----------------------7-4-----|
|--6--6-5-5------4---------------------------------4---|
|------------------------------------------------------|
|------------------------------------------------------|
|------------------------------------------------------|
|
|  E  E E   E    E         Q.
|--------------------------5---------------------------|
|--------------------------7---------------------------|
|-----3-5---3----4--------(4)--------------------------|
|-----5-----5------------------------------------------|
|--4---------------------------------------------------|
|------------------------------------------------------|
|
|----------------------------------------------|
|  E  E S S S S +S    S    E         E         E
|------------------------------------------------------|
|------------------------------------------------------|
|------------------------------------------------------|
|------------------------------------------------------|
|--4--4-3-3---2-(2)------------------5---------6-------|
|--4--4-3-3---2-(2)------------------5---------6-------|
|--2--2-1-1---0-(0)---0----0---------3---------4-------|


  Em                                      F#                   B7
  S S S S S S S S  S  S S  S  +S  S S S   S S  S  S  S  S  S S  H
|-------------------------12-(12)-2-3-6-|-7-9-10-11-12-13-14-------------------|
|-------------7-8--5-------5--(5)-------|--------------------0--0tr12----------|
|-----------4---------4-----------------|-4-6--7--8--9-10-11-------------------|
|-5---2-4-5-----------------------4-5-8-|--------------------------------------|
|---6-----------------------------------|--------------------------------------|
|---------------------------------------|--------------------------------------|
|
| E   e   E   e    E    e      E    e     E    e     E     e    E        e E e
|---------------------------------------|--------------------------------------|
|-----0-------0---------0-----------0---|--------------------------------------|
|-----0-------0---------0-----------0---|------3-----------3-------------2---2-|
|---------2--------------------2--------|------4-----------4-------------4---4-|
|---------------------------------------|------------4----------2----------2---|
|-0----------------0--------------------|-2------------------------------------|
|
| PM-------------------------------------------------------------------------|
| E   E   E   S S +S  E    S   E    E     E    E     S  S  S S +S     S  E E E
|---------------------------------------|--------------------------------------|
|---------------------------------------|--------------------------------------|
|---------------------------------------|--------------------------------------|
|---------------------------------------|--------------------------------------|
|-7---7---------7-(7)-7----7------------|-9----9-----9--9---------------10-9-8-|
|-7---7---------7-(7)-7----7------------|-9----9-----9--9---------------10-9-8-|
|-5---5---0---0-5-(5)-5----5---0----0---|-7----7-----7--7----0-(0)----0--8-7-6-|


  Em      Eb    G/D     C#m7b5      C9            B7
  S E   S E S S S S S S  S  E   S   S E   S E   S S  S   S S  S  Q
|---------------------------------|----------------------7----7--7------|
|---------------------------------|----------------------7----7--7------|
|---0-----0-----0-----------------|---0-----0------------8----8---------|
|---2-----1-----0-----5-----5-----|---2-----2-----4------9----9--9------|
|---2-----1---1-2---2-4-----4-----|---5-----5---1-6-----12---12-12------|
|-------3---0-----3---7-----7---3-|---6---3-6-----5---------------------|
|
| E   E   E E   E   E    E    E     E   e   E   e    E     e     E.   S
|---------------------------------|-------------------------------------|
|-----5-----4-------3-------------|-----------------------------------5-|
|-----------------------------6---|-----5-------5----------4------------|
|-2-------1-----0-----------------|-------------------------------------|
|------------------------4--------|-3-------3--------2-----------2------|
|---------------------------------|-------------------------------------|
|
| PM----------------------------------------------------------------|
| E   S S E S S E   S S +S  E   S   E   E   S S S S +S   S E     E  E
|---------------------------------|-------------------------------------|
|---------------------------------|-------------------------------------|
|---------------------------------|-------------------------------------|
|---------------------------------|-------------------------------------|
|---------------------------------|-3---3---3-3-------------------------|
|-7-------6-----5-----4-(4)-4-----|-3---3---3-3-------------------------|
|-5---0-0-4-0-0-3---0-2-(2)-2---0-|-1---1---1-1---0-(0)--0-0-----3--4---|


  Em      D#°/F#E°/G      E9/G#
  S E   S E S S  S S S  S   S   E.
|----------------6------7-------7------|
|------------------5-3--7-------7------|
|---0------------3------9-------9------|
|---2-----5-------------9-------9------|
|---2-----6-0-6------------------------|
|-------0------------------------------|
|
| E   E   E E    E   E      E      S S
|--------------------------------------|
|-----5-----7--------8-------------9-5-|
|--------------------------------------|
|-2-------4------5----------6----------|
|--------------------------------------|
|--------------------------------------|
|
| PM------------------------------------
| E   S S E S S  E   S  S  +S   E.
|--------------------------------------|
|--------------------------------------|
|--------------------------------------|
|--------------------------------------|
|--------------------------------------|
|-7-------9-----10-----11-(11)-11------|
|-5---0-0-7-0-0--8---0--9--(9)--9------|


  Am13                                  B
  S  E.    E.    S  +E.      S S  E S    H        Q  Q
|----8-----------8--(8)-----------8---|-------------------|
|---10-----1----10-(10)------1-1-10-4-|--7----------------|
|---11-----2----11-(11)------2-2-11---|--8----------------|
|---14-----4----14-(14)------4-4-14---|--9----------------|
|---15-----7----15-(15)------7-7-15---|-------------------|
|----------8-----------------8-8------|-31S=======7-------|
|
| S  E  S  E  S  S  +S  S  E   S  E S    E  E Q   H
|----5-----5-----5--(5)----5------5---|--7----------------|
|-------------------------------------|-------------------|
|-2-----2-----2---------2------2----2-|--4----------------|
|-------------------------------------|-------------------|
|-------------------------------------|-------------------|
|-------------------------------------|-------------------|
|
|---------------------------------------|
| S  E  S  E  S  S  +S  S  E   S  E S    H        Q  Q
|-------------------------------------|-------------------|
|-------------------------------------|-------------------|
|-------------------------------------|-------------------|
|-------------------------------------|-------------------|
|-------------------------------------|-------------------|
|---12----12----12-(12)---12-----12---|-14\------12s=7\---|
|-0-10--0-10--0-10-(10)-0-10---0-10-0-|-12\---------------|


  E5
  Gtr I
  S S S  S S  S S  S S S  S S  S  S S  S
|----------------------------------------|
|---------------------------------5------|
|----------------------------------------|
|----------2--3-2----2------2--3----2--3-|
|-----2--3---------3---2--3--------------|
|-5-6------------------------------------|
|
| Gtr III
| S S S  S S  S S  S S S  S S  S  S S  S
|--------------------------------12------|
|----------------------------------------|
|----------9h10p9----9------9h10----9h10-|
|-----9h10--------10---9h10--------------|
|-7h8------------------------------------|
|----------------------------------------|
|----------------------------------------|
|
| Gtr II
| W
|----------------------------------------|
|----------------------------------------|
|----------------------------------------|
|----------------------------------------|
|-7--------------------------------------|
|-7--------------------------------------|
|-5--------------------------------------|


  D5
   S S  S S S  S S S S  S S S S S  S S
|--------------------------------------|
|--3-----------------------------------|
|---------4-5--7-5-4-5------4----------|
|----2--3---------------3-2---3-2------|
|----------------------------------3-2-|
|--------------------------------------|
|
|  S S  S S S  S S S S  S S S S S  S S
|-10------7h8-10-8-7-8------7----------|
|--------------------------------------|
|----9h10--------------10-9---9-7------|
|---------------------------------10-9-|
|--------------------------------------|
|--------------------------------------|
|--------------------------------------|
|
|  W
|--------------------------------------|
|--------------------------------------|
|--------------------------------------|
|--------------------------------------|
|--5-----------------------------------|
|--5-----------------------------------|
|--3-----------------------------------|


  A5
  S S S  S S  S S  S S S  S S  S  S  S  S
|-----------------------------------------|
|-----------------------------------------|
|------------------------------------2--4-|
|----------2--3-2----2------2--3--5-------|
|-----2--3---------3---2--3---------------|
|-5-6-------------------------------------|
|
| S S S  S S  S S  S S S  S S  S  S  S  S
|--------------------------------------15s|
|--------------------------------12h13----|
|----------9h10p9----9------9h10----------|
|-----9h10--------10---9h10---------------|
|-7h8-------------------------------------|
|-----------------------------------------|
|-----------------------------------------|
|
| W
|-----------------------------------------|
|-----------------------------------------|
|-----------------------------------------|
|-7---------------------------------------|
|-7---------------------------------------|
|-5---------------------------------------|
|-----------------------------------------|


  F5
   S  S  S  S  S  S  S  S  S  S  S S  S  S  S S
|-----------------------1-----------------------|
|-----------5--------------5--------------------|
|--5--4--2-----2--------------4--2-------4------|
|-----------------5--3-------------5--3-----2---|
|---------------------------------------------5-|
|-----------------------------------------------|
|
|  S  S  S  S  S  S  S  S  S  S  S S  S  S  S S
|-17-------15-----------------------------------|
|----15-13----13-12----15-13--------------------|
|-------------------14-------12s10-9----12------|
|------------------------------------12----10-9-|
|-----------------------------------------------|
|-----------------------------------------------|
|-----------------------------------------------|
|
|  W
|-----------------------------------------------|
|-----------------------------------------------|
|-----------------------------------------------|
|--3--------------------------------------------|
|--3--------------------------------------------|
|--1--------------------------------------------|
|-----------------------------------------------|


  E5
  S S S  S S  S S  S S S  S S  S  S S  S
|----------------------------------------|
|---------------------------------5------|
|----------------------------------------|
|----------2--3-2----2------2--3----5--7-|
|-----2--3---------3---2--3--------------|
|-5-6------------------------------------|
|
| S S S  S S  S S  S S S  S S  S  S S  S
|--------------------------------12------|
|----------------------------------------|
|----------9h10p9----9------9h10----9h10-|
|-----9h10--------10---9h10--------------|
|-7h8------------------------------------|
|----------------------------------------|
|----------------------------------------|
|
| W
|----------------------------------------|
|----------------------------------------|
|----------------------------------------|
|----------------------------------------|
|-7--------------------------------------|
|-7--------------------------------------|
|-5--------------------------------------|


  D5
   S S  S S S  S S S S  S S S S S  S S
|--1-----------------------------------|
|---------3-5--6-5-3-5------3----------|
|-------2---------------2--------------|
|----5--------------------5---5-3--2---|
|------------------------------------5-|
|--------------------------------------|
|
|  S S  S S S  S S S S  S S S S S  S S
|-10------7h8-10-8-7-8------7----------|
|--------------------------------------|
|----9h10--------------10-9---9-7------|
|---------------------------------10-9-|
|--------------------------------------|
|--------------------------------------|
|--------------------------------------|
|
|  W
|--------------------------------------|
|--------------------------------------|
|--------------------------------------|
|--------------------------------------|
|--5-----------------------------------|
|--5-----------------------------------|
|--3-----------------------------------|


  A5
  S S S  S S  S S  S S S  S S  S  S  S  S
|-----------------------------------------|
|-----------------------------------------|
|------------------------------------2--5-|
|----------2--3-2----2------2--3--5-------|
|-----2--3---------3---2--3---------------|
|-5-6-------------------------------------|
|
| S S S  S S  S S  S S S  S S  S  S  S  S
|--------------------------------------15-|
|--------------------------------12h13----|
|----------9h10p9----9------9h10----------|
|-----9h10--------10---9h10---------------|
|-7h8-------------------------------------|
|-----------------------------------------|
|-----------------------------------------|
|
| W
|-----------------------------------------|
|-----------------------------------------|
|-----------------------------------------|
|-7---------------------------------------|
|-7---------------------------------------|
|-5---------------------------------------|
|-----------------------------------------|


  F5
   |------6-------|  |------6-------|  |------6-------|  |------6-------|
   S  S  S  S  S  S  S  S  S  S  S  S  S  S  S  S  S  S  S  S  S  S  S  S
|--1--------1--------3--------3--------5--------5--------7--------7-------|
|-----1--0-----0--1-----1--0-----0--1-----5--3-----3--5-----5--3-----5--3-|
|-------------------------------------------------------------------------|
|-------------------------------------------------------------------------|
|-------------------------------------------------------------------------|
|-------------------------------------------------------------------------|
|
|  |------6-------|  |------6-------|  |------6-------|  |------6-------|
|  S  S  S  S  S  S  S  S  S  S  S  S  S  S  S  S  S  S  S  S  S  S  S  S
|-17p12----17----12-19p12----19----12-20p15----20----15-22p15----22----15-|
|-------15----15----------15----15----------18----18----------18----18----|
|-------------------------------------------------------------------------|
|-------------------------------------------------------------------------|
|-------------------------------------------------------------------------|
|-------------------------------------------------------------------------|
|-------------------------------------------------------------------------|
|
|  W
|-------------------------------------------------------------------------|
|-------------------------------------------------------------------------|
|-------------------------------------------------------------------------|
|--3----------------------------------------------------------------------|
|--3----------------------------------------------------------------------|
|--1----------------------------------------------------------------------|
|-------------------------------------------------------------------------|


  E5
   |------6-------|  |------6-------|  |------6-------|  |------6-------|
   S  S  S  S  S  S  S  S  S  S  S  S  S  S  S  S  S  S  S  S  S  S  S  S
|-12----------------------------------------------------12----------------|
|----12----------------------------------------------12----12-------------|
|-------14--------------------------------2--4--9-14----------14----------|
|----------14--------------------------2-------------------------14-------|
|-------------14-12--------------0--2-------------------------------14-12-|
|-------------------17-12-10--5-------------------------------------------|
|
|  |------6-------|  |------6-------|  |------6-------|  |------6-------|
|  S  S  S  S  S  S  S  S  S  S  S  S  S  S  S  S  S  S  S  S  S  S  S  S
|-24p19----24----19-24p19----------19-24p19----24----19-24p19----------19-|
|-------22----22----------22----22----------22----22----------22----22----|
|----------------------------21----------------------------------21-------|
|-------------------------------------------------------------------------|
|-------------------------------------------------------------------------|
|-------------------------------------------------------------------------|
|-------------------------------------------------------------------------|
|
|  W
|-------------------------------------------------------------------------|
|-------------------------------------------------------------------------|
|-------------------------------------------------------------------------|
|-------------------------------------------------------------------------|
|--7----------------------------------------------------------------------|
|--7----------------------------------------------------------------------|
|--5----------------------------------------------------------------------|


  F5                               G5
   |------6------|  |-----6------|  |------6-------|  |-----6-----|
   S  S  S  S  S S  S S  S S  S  S  S  S  S  S  S  S  S  S  S S S S
|----------------------------------12--------------------------------|
|-------------------------------12----12-----------------------------|
|---------------------2--4-9-14----------14--------------------------|
|-------------------2-----------------------14-----------------------|
|--------------0-2-----------------------------14-12-----------------|
|-17-12-10--5----------------------------------------17-12-10-5-3-0--|
|
|  |------6------|  |-----6------|  |------6-------|  |-----6-----|
|  S  S  S  S  S S  S S  S S  S  S  S  S  S  S  S  S  S  S  S S S S
|-12p=7----12----7-12p7----------7-12p=7-----------------------------|
|-------10----10--------10---10----------10----10--------------------|
|--------------------------9-----------------9-----9-----9------9----|
|----------------------------------------------------12----10-9---9--|
|--------------------------------------------------------------------|
|--------------------------------------------------------------------|
|--------------------------------------------------------------------|
|
|  H                                H
|--------------------------------------------------------------------|
|--------------------------------------------------------------------|
|--------------------------------------------------------------------|
|--3--------------------------------5--------------------------------|
|--3--------------------------------5--------------------------------|
|--1--------------------------------3--------------------------------|
|--------------------------------------------------------------------|


 3:06 (Bass Solo)
  A5
   H         Q  E  S  S    +S   S  E Q  Q  E  E
|-----------------------|-----------------------|
|-----------------------|-----------------------|
|-----------------------|-----------------------|
|--7\--------------7--7-|--(7)--7--7----------7-|
|-----------------------|-----------------------|
|-10\-------------10-10-|-(10)-10-10---------10-|
|
|  Q   +Q    Q  E  S  S    +S   S  E Q  Q  E  E
|-----------------------|-----------------------|
|-----------------------|-----------------------|
|-----------------------|-----------------------|
|--7---(7)\-------------|-----------------------|
|--7---(7)\--------7--7-|--(7)--7--7----------7-|
|--5---(5)\--------5--5-|--(5)--5--5----------5-|
|-----------------------|-----------------------|


    H          Q  E  S  S    +S   S  E Q  Q  E  E
|-------------------------|-----------------------|
|-------------------------|-----------------------|
|-------------------------|-----------------------|
|---7\---------------7--7-|--(7)--7--7----------7-|
|-------------------------|-----------------------|
|-(10)\-------------10-10-|-(10)-10-10---------10-|
|
|  +Q    +Q    Q  E  S  S    +S   S  E Q  Q  E  E
|-------------------------|-----------------------|
|-------------------------|-----------------------|
|-------------------------|--------------------14-|
|-------------------------|--------------------14-|
|--(7)---(7)\--------7--7-|--(7)--7--7---------12-|
|--(5)---(5)\--------5--5-|--(5)--5--5------------|
|-------------------------|-----------------------|


   +H           Q  E  S  S    +S   S  E Q  Q  E  E
|--------------------------|-----------------------|
|--------------------------|-----------------------|
|--------------------------|-----------------------|
|--(7)\---------------7--7-|--(7)--7--7----------7-|
|--------------------------|-----------------------|
|-(10)\--------------10-10-|-(10)-10-10---------10-|
|
|  +Q     +Q    Q  E  S  S    +S   S  E Q  Q  E  E
|--------------------------|-----------------------|
|--------------------------|-----------------------|
|-(14)---(14)\-------14-14-|-(14)-14-14---------14-|
|-(14)---(14)\-------14-14-|-(14)-14-14---------14-|
|-(12)---(12)\-------12-12-|-(12)-12-12---------12-|
|--------------------------|-----------------------|
|--------------------------|-----------------------|


   +H           Q  E  S  S    +S   S  E Q  H
|--------------------------|-------------------------|
|--------------------------|-------------------------|
|--------------------------|-------------------------|
|--(7)\---------------7--7-|--(7)--7--7--------------|
|--------------------------|-------------------------|
|-(10)\--------------10-10-|-(10)-10-10--------------|
|
|  +Q     +Q    Q  E  S  S    +S   S  E Q  Q  E S S
|--------------------------|-------------------------|
|--------------------------|-------------------------|
|-(14)---(14)\-------14-14-|-(14)-14-14--------------|
|-(14)---(14)\-------14-14-|-(14)-14-14--------------|
|-(12)---(12)\-------12-12-|-(12)-12-12--------------|
|--------------------------|------------------5------|
|--------------------------|--------------------8-6--|


 3:21
  Em
  W                             W
|-----------------------------|-----------------------------|
|-----------------------------|-----------------------------|
|-----------------------------|-----------------------------|
|-----------------------------|-----------------------------|
|-----------------------------|-----------------------------|
|-----------------------------|-----------------------------|
|
| E S S +S  S E S S S S E S S   E S S +S  S E S S S S E S S
|-----------------------------|-----------------------------|
|-----------------------------|-----------------------------|
|-----------------------------|-----------------------------|
|-----------------------------|-----------------------------|
|-----------------------------|---------------5-7-5-7-------|
|---5-7-(7)-------------5-----|---5-7-(7)-------------5-----|
|-5---------8-5-6-8-6-5---8-6-|-5---------8-5-----------8-6-|


 3/4                     5/4
  W                       H             H                E  S S
|-----------------------|---------------------------------------|
|-----------------------|---------------------------------------|
|-----------------------|---------------------------------------|
|-----------------------|---------------------------------------|
|-----------------------|--------------------------------0------|
|-----------------------|-----------------------------------8-6-|
|
|                                             ~~~~~~
| E S S +S  S E S S S S   S S E S S S S S S S S +E   S S E  S S
|-----------------------|---------------------------------------|
|-----------------------|---------------------------------------|
|-----------------------|---------------------------------------|
|-----------------------|---------------------------10-9-7------|
|-----------------------|-------------5-7---8-7-(7)--------10-8-|
|---5-7-(7)-------------|---5-7---------------------------------|
|-5---------8-5-6-8-6-5-|-------8-5-----------------------------|


 4/4
  E S S +S   S E S  S S S E  S S   E S  S  +S   S E S S S S E  S S
|--------------------------------|---------------------------------|
|--------------------------------|---------------------------------|
|--------------------------------|---------------------------------|
|--------------------------------|---------------------------------|
|---0-2-(2)---------------0------|---0--2--(2)------5-7-5-7-0------|
|-5----------8-5-6--8-6-5----8-6-|-5------------8-5------------8-6-|
|
| E S S +S   S E S  S S S E  S S   E S  S  +S   S E S S S S E  S S
|--------------------------------|---------------------------------|
|--------------------------------|---------------------------------|
|--------------------------------|------------------7-9-7-9--------|
|---7-9-(9)---------------7------|---9-10-(10)--------------7------|
|-7---------10-7-8-10-8-7---10-8-|-7-----------10-7-----------10-8-|
|--------------------------------|---------------------------------|
|--------------------------------|---------------------------------|


 3/4                       4/4
  E S S +S   S E S  S S S   S S E  S S S S E  S S +E  E
|-------------------------|---------------------------------|
|-------------------------|---------------------------------|
|-------------------------|---------------------------------|
|-------------------------|---------------------------------|
|---0-2-(2)---------------|---0-2--------5-7--8-7-(7)-------|
|-5----------8-5-6--8-6-5-|--------8-5----------------------|
|
|                                               ~~~~~~
| E S S +S   S E S  S S S   S S E  S S S S E  S S +E  S S
|-------------------------|---------------------------------|
|-------------------------|---------------------------------|
|-------------------------|--------------7-9-10-9-(9)-------|
|---7-9-(9)---------------|---7-9---------------------------|
|-7---------10-7-8-10-8-7-|-------10-7----------------------|
|-------------------------|---------------------------8-7---|
|-------------------------|---------------------------------|


  S S S S S S S S S S S S S S S S   S S S S S S S S S S S S S S S S
|---------------------------------|---------------------------------|
|---5-------5-----5-----5---------|---5-------5-----5-----5---------|
|-2---0-------2-4-----------------|-2---0-------2-4-----------------|
|-------3-2---------5-2---3-5-3-2-|-------3-2---------5-2---3-5-3-2-|
|---------------------------------|---------------------------------|
|---------------------------------|---------------------------------|
|
| S S S S S S S S S S S S S S S S   S S S S S S S S S S S S S S S S
|---------------------------------|---------------------------------|
|---------------------------------|---------------------------------|
|---------------------------------|---------------------------------|
|---------------------------------|---------------------------------|
|---------------------------------|---------------------------------|
|-5-0-3-1-0-0-5-7-0-3-0-0-1-3-1-0-|-5-0-3-1-0-0-5-7-0-3-0-0-1-3-1-0-|
|---------------------------------|---------------------------------|


  S S S S S S S S S S S S S S S S   S S S S S S S S S S S S S S S S
|---------------------------------|---------------------------------|
|---5-------5-----5-----5---------|---5-------5-----5-----5---------|
|-2---0-------2-4-----------------|-2---0-------2-4-----------------|
|-------3-2---------5-2---3-5-3-2-|-------3-2---------5-2---3-5-3-2-|
|---------------------------------|---------------------------------|
|---------------------------------|---------------------------------|
|
| S S S S S S S S S S S S S S S S   S S S S S S S S S S S S S S S S
|---------------------------------|---------------------------------|
|---------------------------------|---------------------------------|
|---------------------------------|---------------------------------|
|---------------------------------|---------------------------------|
|---------------------------------|---------------------------------|
|-5-0-3-1-0-0-5-7-0-3-0-0-1-3-1-0-|-5-0-3-1-0-0-5-7-0-3-0-0-1-3-1-0-|
|---------------------------------|---------------------------------|


  S S S S S S S S S S S S S S S S   S S S S S S S S S S S S  S  S  S  S
|---------------------------------|-------------------------------------|
|---5-------5-----5-----5---------|---5-------5-----5-----5--6--8--6--8-|
|-2---0-------2-4-----------------|-2---0-------2-4---------------------|
|-------3-2---------5-2---3-5-3-2-|-------3-2---------5-2---------------|
|---------------------------------|-------------------------------------|
|---------------------------------|-------------------------------------|
|
| S S S S S S S S S S S S S S S S   S S S S S S S S S S S S  S  S  S  S
|---------------------------------|-------------------------------------|
|---------------------------------|-------------------------------------|
|---------------------------------|-------------------------------------|
|---------------------------------|-------------------------------------|
|---------------------------------|-------------------------------------|
|-5-0-3-1-0-0-5-7-0-3-0-0-1-3-1-0-|-5-0-3-1-0-0-5-7-0-3-0-0-10-12-10-12-|
|---------------------------------|-------------------------------------|


  S S S S S S S S S S S S S S S S   S S S S S S S  S  S S  S  S +E    S S
|---------------------------------|---------------------------------------|
|---5-------5-----5-----5---------|-5-----5-----5--3--5----6--5-(5)---6-5-|
|-2---0-------2-4-----------------|---2-4---------------------------------|
|-------3-2---------5-2---3-5-3-2-|---------5-2---------2-----------------|
|---------------------------------|---------------------------------------|
|---------------------------------|---------------------------------------|
|
| S S S S S S S S S S S S S S S S   S S S S S S S  S  S S  S  S  S  S S S
|---------------------------------|---------------------------------------|
|---------------------------------|---------------------------------------|
|---------------------------------|---------------------------------------|
|---------------------------------|---------------------------------------|
|---------------------------------|-----------------------------------8-7-|
|-5-0-3-1-0-0-5-7-0-3-0-0-1-3-1-0-|-0-5-7-0-3-0-0-10-12-0-13-12--0--0-----|
|---------------------------------|---------------------------------------|


 3:50
  S S S S S S S S S S S S S S S S   S S S S S S S S S S S S S S S S
|---------------------------------|---------------------------------|
|---------------------------------|---------------3-----------------|
|-2-------2-----0-------0---0-----|-2-------2-----2-----5-----2-----|
|-3-2-0-2-3-2-0-2-------2---2-----|-3-2-0-2-3-2-0---5-2-5-2-0-2-----|
|-----------------5-3-5-------5-3-|-----------------------------5-3-|
|---------------------------------|---------------------------------|
|
| S S S S S S S S S S S S S S S S   S S S S S S S S S S S S S S S S
|---------------------------------|---------------------------------|
|---------------------------------|---------------------------------|
|---------------------------------|---------------------------------|
|---------------------------------|---------------------------------|
|-5-0-3-2-0-0-5-7-0-3-0-0-2-3-2-0-|-5-0-3-2-0-0-5-7-0-3-0-0-2-3-2-0-|
|---------------------------------|---------------------------------|
|---------------------------------|---------------------------------|


  S S S S S S S S S S S S S S S S   S S S S S S S S S S S S S S S S
|---------------------------------|---------------------------------|
|---------------------------------|---------------3---1-------------|
|-2-------2-----0-------0---0-----|-2-------2-----2---0---2---------|
|-3-2-0-2-3-2-0-2-------2---2-----|-3-2-0-2-3-2-0---2---2-2---5-----|
|-----------------5-3-5-------5-3-|-------------------------2-3-2-0-|
|---------------------------------|---------------------------------|
|
| S S S S S S S S S S S S S S S S   S S S S S S S S S S S S S S S S
|---------------------------------|---------------------------------|
|---------------------------------|---------------------------------|
|---------------------------------|---------------------------------|
|---------------------------------|---------------------------------|
|-5-0-3-2-0-0-5-7-0-3-0-0-2-3-2-0-|-5-0-3-2-0-0-5-7-0-3-0-0-2-3-2-0-|
|---------------------------------|---------------------------------|
|---------------------------------|---------------------------------|


  S S S S S S S S S S S S S S S S   S S S S S S S S S S S S S S S S
|---------------------------------|---------------------------------|
|---------------------------------|---------------3-----------------|
|-2-------2-----0-------0---0-----|-2-------2-----2-----5-----2-----|
|-3-2-0-2-3-2-0-2-------2---2-----|-3-2-0-2-3-2-0---5-2-5-2-0-2-----|
|-----------------5-3-5-------5-3-|-----------------------------5-3-|
|---------------------------------|---------------------------------|
|
| S S S S S S S S S S S S S S S S   S S S S S S S S S S S S S S S S
|---------------------------------|---------------------------------|
|---------------------------------|---------------------------------|
|---------------------------------|---------------------------------|
|---------------------------------|---------------------------------|
|-5-0-3-2-0-0-5-7-0-3-0-0-2-3-2-0-|-5-0-3-2-0-0-5-7-0-3-0-0-2-3-2-0-|
|---------------------------------|---------------------------------|
|---------------------------------|---------------------------------|


  S S S S S S S S S S S S S S S S   S S S S S S S S S S S S S S S S
|---------------------------------|---------------------------------|
|---------------------------------|---------------3---1-------------|
|-2-------2-----0-------0---0-----|-2-------2-----2---0---2---------|
|-3-2-0-2-3-2-0-2-------2---2-----|-3-2-0-2-3-2-0---2---2-2---5-----|
|-----------------5-3-5-------5-3-|-------------------------2-3-2-0-|
|---------------------------------|---------------------------------|
|
| S S S S S S S S S S S S S S S S   S S S S S S S S S S S S S S S S
|---------------------------------|---------------------------------|
|---------------------------------|---------------------------------|
|---------------------------------|---------------------------------|
|---------------------------------|---------------------------------|
|-5-0-3-2-0-0-5-7-0-3-0-0-2-3-2-0-|-5-0-3-2-0-0-5-7-0-3-0-0-2-3-2-0-|
|---------------------------------|---------------------------------|
|---------------------------------|---------------------------------|


  S S S S S S S S S S S S S S S S   S S S S S S S S S S S S S S S S
|---------------------------------|---------------------------------|
|---------------------------------|---------------------------------|
|---------------------------------|---------------2-------2---2-----|
|-3-2-0-2-3---3-5-3-2-3-5---5-3---|-5-3-2-3-5---5-3-5-3-5-3---3-5---|
|-5-3-0-3-5-0-5-7-5-3-5-7---7-5-3-|-7-5-3-5-7-3-7---7-5-7-------7-5-|
|---------------------------------|---------------------------------|
|
| S S S S S S S S S S S S S S S S   S S S S S S S S S S S S S S S S
|---------------------------------|---------------------------------|
|---------------------------------|---------------------------------|
|---------------------------------|---------------------------------|
|---------------------------------|---------------------------------|
|-5-0-3-2-0-0-5-7-0-3-0-0-2-3-2-0-|-7-0-5-3-0-0-7-8-0-5-0-0-3-5-3-0-|
|---------------------------------|---------------------------------|
|---------------------------------|---------------------------------|


  S S S S S S S  S S S S S S S S S    S S S S S S  S  S S S S S S S S S
|----------------------------------|------------------------------------|
|----------------------------------|------------------------------------|
|-2-------2---2--4-2---2-4---4-2---|--4-2---2-4----4--5-4---4-5---5-4---|
|-3-5-3-5-3-0-3--5-3-5-3-5---5-3-2-|--5-3-5-3-5-2--5--7-5-7-5-7---7-5-2-|
|---7-5-7------------7-------------|------7---------------7-------------|
|----------------------------------|------------------------------------|
|
| S S S S S S S  S S S S S S S S S    S S S S S S  S  S S S S S S S S S
|----------------------------------|------------------------------------|
|----------------------------------|------------------------------------|
|----------------------------------|------------------------------------|
|----------------------------------|------------------------------------|
|-8-0-7-5-0-0-8-10-0-7-0-0-5-7-5-0-|-10-0-8-7-0-0-10-12-0-8-0-0-7-8-7-0-|
|----------------------------------|------------------------------------|
|----------------------------------|------------------------------------|


 4:12
 7/16
   S S  S S S S  S    S S  S  S S S  S    S S  S  S S S  S    S S  S  S S S  S
|------------------|-------------------|-------------------|-------------------|
|---------1------1-|-------1--3------3-|--1----3--5------5-|--3----5--6------6-|
|--2-2--4-2-2----2-|--4----2--4-2----4-|--2-2--4--5-2----5-|--4-2--5--7-2----7-|
|-------5----------|--5-2--------------|-------------------|-------------------|
|--3----------0----|--------------0----|--------------0----|--------------0----|
|------------------|-------------------|-------------------|-------------------|
|
|  S S  S S S S  S    S S  S  S S S  S    S S  S  S S S  S    S S  S  S S S  S
|------------------|-------------------|-------------------|-------------------|
|------------------|-------------------|-------------------|-------------------|
|------------------|-------------------|-------------------|-------------------|
|------------------|-------------------|-------------------|-------------------|
|-12-0-10-8-0-0-12-|-14-0-12-10-0-0-14-|-15-0-14-12-0-0-15-|-17-0-15-14-0-0-19-|
|------------------|-------------------|-------------------|-------------------|
|------------------|-------------------|-------------------|-------------------|


 6/16
   S S  S  S S  S    S S  S  S S  S
|-----------------|--1------------1-|
|--5----3--1----5-|--3----5--3----3-|
|--5-2--4--2-2--5-|----2--5--4-2----|
|-----------------|-----------------|
|----0-------0----|----0-------0----|
|-----------------|-----------------|
|
|  S S  S  S S  S    S S  S  S S  S
|-----------------|-----------------|
|-----------------|-----------------|
|-----------------|-----------------|
|-----------------|-----------------|
|-19-0-17-15-0-19-|-20-0-19-17-0-20-|
|-----------------|-----------------|
|-----------------|-----------------|


   S S  S  S S  S    S S  S  S S  S    S S  S  S S  S
|--3----1-------3-|--5----3--5----3-|--5----3--5----3-|
|--5----3--5----5-|-------5-------5-|-------5-------5-|
|----2-----5-2----|--2-2-----2-2----|--2-2-----2-2----|
|-----------------|-----------------|-----------------|
|----0-------0----|----0-------0----|----0-------0----|
|-----------------|-----------------|-----------------|
|
|  S S  S  S S  S    S S  S  S S  S    S S  S  S S  S
|-----------------|-----------------|-----------------|
|-----------------|-----------------|-----------------|
|-----------------|-----------------|-----------------|
|-----------------|-----------------|-----------------|
|-22-0-20-19-0-22-|-24-0-22-24-0-22-|-24-0-22-24-0-22-|
|-----------------|-----------------|-----------------|
|-----------------|-----------------|-----------------|


 7/16
  S S S S S S S   S S  S S S  S  S
|---------------|------------------|
|---------------|----------------6-|
|---------------|------5-4-4--5----|
|-------------3-|-2-3--------------|
|-----3-2-2-3---|------------------|
|-5-6-----------|------------------|
|
| S S S S S S S   S S  S S S  S  S
|---------------|------------------|
|---------------|------------------|
|---------------|---------------10-|
|---------------|-----10-9-9-10----|
|-------------8-|-7-8--------------|
|-----8-7-7-8---|------------------|
|-5-6-----------|------------------|


                       4/4
                                      |--3--|
  S  S  S  S  S  S  S    H..          S  S  S
|-------8--7--7--8-13-|-12-----------12-13-15--|
|-5--6----------------|------------------------|
|---------------------|------------------------|
|---------------------|------------------------|
|---------------------|------------------------|
|---------------------|------------------------|
|
| S  S  S  S  S  S  S    W
|------------------13-|-12tr13-----------------|
|------13-12-12-13----|------------------------|
|-9-10----------------|------------------------|
|---------------------|------------------------|
|---------------------|------------------------|
|---------------------|------------------------|
|---------------------|------------------------|


 4:22
  Q=102
  A5            Bb5/A         Am
 5/16                        7/16
  Gtr I
  E   +E.       E   +E.        Q        +E.
|-5---(5)-----|-6---(6)-----|--8--------(8)-----|
|-5---(5)-----|-6---(6)-----|-10-------(10)-----|
|-5---(5)-----|-3---(3)-----|--9--------(9)-----|
|-------------|-------------|-10-------(10)-----|
|-------------|-------------|-------------------|
|-------------|-------------|-------------------|
|
| Gtr VI
| S S  S  S S   S S  S  S S    S S S S   S  S S
|-------------|-------------|-------------------|
|-------------|-------------|-------------------|
|-2----2------|-2----2------|--2---2-----2------|
|-------------|-------------|-------------------|
|---0-----0-0-|---0-----0-0-|----0---0------0-0-|
|-------------|-------------|-------------------|
|
| Gtr II
| S S  S  S S   S S  S  S S    S S S S   S  S S
|-------------|-------------|-------------------|
|-------------|-------------|-------------------|
|-------------|-------------|-------------------|
|-7----7------|-7----7------|--7---7-----7------|
|---0-----0-0-|---0-----0-0-|----0---0------0-0-|
|-------------|-------------|-------------------|
|-------------|-------------|-------------------|


  Bb/A            Am                   Bb/A
 5/16            7/16                 5/16
   E    +E.        Q         +E.        E    +E.
|-10---(10)-----|-12--------(12)-----|-13---(13)------|
|-11---(11)-----|-13--------(13)-----|-15---(15)------|
|-10---(10)-----|-14--------(14)-----|-15---(15)------|
|-12---(12)-----|-14--------(14)-----|-15---(15)------|
|---------------|--------------------|----------------|
|---------------|--------------------|----------------|
|
|  S S   S  S S    S S  S S   S  S S    S S   S  S S
|---------------|--------------------|----------------|
|---------------|--------------------|----------------|
|--2-----2------|--2----2-----2------|--2-----2-------|
|---------------|--------------------|----------------|
|----0------0-0-|----0----0------0-0-|----0------0-0--|
|---------------|--------------------|----------------|
|
|  S S   S  S S    S S  S S   S  S S    S S   S  S S
|---------------|--------------------|----------------|
|-10----10------|-10---10----10------|-10----10-------|
|---------------|--------------------|----------------|
|--7-----7------|--7----7-----7------|--7-----7-------|
|----0------0-0-|----0----0------0-0-|----0------0-0--|
|---------------|--------------------|----------------|
|---------------|--------------------|----------------|


  Eb/A            A5
                 7/16
   E    +E.        Q         +E.
|-15---(15)-----|-17--------(17)-----|
|-16---(16)-----|-17--------(17)-----|
|-15---(15)-----|-14--------(14)-----|
|-17---(17)-----|--------------------|
|---------------|--------------------|
|---------------|--------------------|
|
|  S S   S  S S    S S  S S   S  S S
|---------------|--------------------|
|---------------|--------------------|
|--2-----2------|--2----2-----2------|
|---------------|--------------------|
|----0------0-0-|----0----0------0-0-|
|---------------|--------------------|
|
|  S S   S  S S    S S  S S   S  S S
|---------------|--------------------|
|-10----10------|-10---10----10------|
|---------------|--------------------|
|--7-----7------|--7----7-----7------|
|----0------0-0-|----0----0------0-0-|
|---------------|--------------------|
|---------------|--------------------|


  Am
 10/16
   S  S  S  S  S  S  S  S  S  S    S  S  S  S  S  S  S  S  S  S
|-17-12-13-15-13-12-------------|--------------------------------|
|-------------------15-13-15-12-|--------------------------------|
|-------------------------------|-14-------12--------------------|
|-------------------------------|----14-15----15-14-12----12-----|
|-------------------------------|----------------------15----14--|
|-------------------------------|--------------------------------|
|
|  W                               W
|-------------------------------|--------------------------------|
|-------------------------------|--------------------------------|
|-------------------------------|--------------------------------|
|-------------------------------|--------------------------------|
|-------------------------------|--------------------------------|
|-------------------------------|--------------------------------|
|
|  S  S  S  S  S  S  S  S  S  S    S  S  S  S  S  S  S  S  S  S
|-17-12-13-15-13-12-------------|--------------------------------|
|-------------------15-13-15-12-|--------------------------------|
|-------------------------------|-14--9-10-12-10--9--------------|
|-------------------------------|-------------------12-10-12--9--|
|-------------------------------|--------------------------------|
|-------------------------------|--------------------------------|
|-------------------------------|--------------------------------|


 4:32
  Q=124
  G5                             Ab5
 4/4
  Gtr I
   H                      +E      Q.
|---------------------------------------------------|
|---------------------------------------------------|
|---------------------------------------------------|
|--5----------------------(5)-----6-----------------|
|---------------------------------------------------|
|--8----------------------(8)-----9-----------------|
|
| Gtr III
|  S  S  S  S  S  S  S  S  S   S  S   S  S  S  S  S
|---------------------------------------------------|
|-------------------13-15-13------------------------|
|-------------12-13-----------13-12--10-------------|
|-------10-12---------------------------12-10-------|
|-10-11---------------------------------------13-11-|
|---------------------------------------------------|
|---------------------------------------------------|


  G5                             F5
 7/8
   H                      +E      Q
|---------------------------------------------------|
|---------------------------------------------------|
|---------------------------------------------------|
|--5----------------------(5)-----3-----------------|
|---------------------------------------------------|
|--8----------------------(8)-----6-----------------|
|
|  S  S  S  S  S  S  S  S  S   S  S  S  T  T  T  T
|---------------------------------------------------|
|-------------------13-15-13------------------------|
|-------------12-13-----------13-12-10--------------|
|-------10-12--------------------------12-10--------|
|-10-11--------------------------------------13-11--|
|---------------------------------------------------|
|---------------------------------------------------|


  E5
 3/4
   H.
|--------------------------------------|
|--------------------------------------|
|--------------------------------------|
|--2-----------------------------------|
|--------------------------------------|
|--5-----------------------------------|
|
|  S   S  S  S  S  S  S  S  S  S  S  S
|--------------------------------------|
|--------------------13-15-13----------|
|--------------12-13----------13-12-10-|
|--------10-12-------------------------|
|-10--11-------------------------------|
|--------------------------------------|
|--------------------------------------|


  C5                 F#5
   Q.                 E    +Q
|---------------------------------------------|
|---------------------------------------------|
|---------------------------------------------|
|---------------------4----(4)----------------|
|--3------------------------------------------|
|--1------------------7----(7)----------------|
|
|                           |-------6-------|
|  S   S  S  S  S  S  S  S  S   S  S  S  S  S
|---------------------------------------------|
|---------------------------------------------|
|--------------------------15--13-11----------|
|-14--12-------16-14--------------------------|
|--------13-11-------15-13-----------15-13-11-|
|---------------------------------------------|
|---------------------------------------------|


  G5                             Ab5
 4/4
   H                      +E      Q.
|---------------------------------------------------|
|---------------------------------------------------|
|---------------------------------------------------|
|--5----------------------(5)-----6-----------------|
|---------------------------------------------------|
|--8----------------------(8)-----9-----------------|
|
|  S  S  S  S  S  S  S  S  S   S  S   S  S  S  S  S
|---------------------------------------------------|
|-------------------13-15-13------------------------|
|-------------12-13-----------13-12--10-------------|
|-------10-12---------------------------12-10-------|
|-10-11---------------------------------------13-11-|
|---------------------------------------------------|
|---------------------------------------------------|


  G5                             F5
 7/8
   H                      +E      Q
|---------------------------------------------------|
|---------------------------------------------------|
|---------------------------------------------------|
|--5----------------------(5)-----3-----------------|
|---------------------------------------------------|
|--8----------------------(8)-----6-----------------|
|
|  S  S  S  S  S  S  S  S  S   S  S  S  T  T  T  T
|---------------------------------------------------|
|-------------------13-15-13------------------------|
|-------------12-13-----------13-12-10--------------|
|-------10-12--------------------------12-10--------|
|-10-11--------------------------------------13-11--|
|---------------------------------------------------|
|---------------------------------------------------|


 4:42
  Q.=118
  E5               N.C.
 9/8
   H.               Q.         W
|---------------------------|----------------------------|
|---------------------------|----------------------------|
|---------------------------|----------------------------|
|--2------------------------|----------------------------|
|---------------------------|----------------------------|
|--5------------------------|----------------------------|
|
|                ~~~~~~   ~~~~~~~~
|  E   E E  E  E E +E   E E   +E   E  E E  E E +E   E  E
|---------------------------|----------------------------|
|---------------------------|----------------------------|
|----------10----9-(9)-10-9-|-(9)------------------------|
|--------9----12------------|-----12-10-9-10-------------|
|-10--12--------------------|----------------8-(8)-10-12-|
|---------------------------|----------------------------|
|---------------------------|----------------------------|


 6/8                  9/8                       6/8
    W                  W                          W
|--------------------|-------------------------|------------------|
|--------------------|-------------------------|------------------|
|--------------------|-------------------------|------------------|
|--------------------|-------------------------|------------------|
|--------------------|-------------------------|------------------|
|--------------------|-------------------------|------------------|
|
|                                   ~~~~~~   ~~~~~~~~
|  +E  E  E  E  E  E   E  E E  E  E E +E   E E   +E   E  E E  E E
|--------------------|-------------------------|------------------|
|--------------------|-------------------------|------------------|
|--------------10-12-|--------10----9-(9)-10-9-|-(9)--------------|
|------9-11-13-------|------9----12------------|-----12-10-9-10---|
|-(12)---------------|---12--------------------|----------------8-|
|--------------------|-------------------------|------------------|
|--------------------|-------------------------|------------------|


 15/8
   W
|-----------------------------------------------|
|-----------------------------------------------|
|-----------------------------------------------|
|-----------------------------------------------|
|-----------------------------------------------|
|-----------------------------------------------|
|
| +E   E  E  E  E  E  E  E  E  E  E  E  E  E  E
|-----15-13-11----------------------------------|
|--------------12-14-12-------------------------|
|-----------------------14-12-------15----------|
|-----------------------------12-13----13-11----|
|-(8)----------------------------------------11-|
|-----------------------------------------------|
|-----------------------------------------------|


 9/8
  E  E E  E  E E +E   E E   +E   E  E E  E E +E   E  E
|-------------------------|----------------------------|
|-------------------------|----------------------------|
|-------------------------|----------------------------|
|---------3----2-(2)--3-2-|-(2)------------------------|
|----0-2-----5------------|------5--3-2--3-----------0-|
|-------------------------|----------------6-(6)--8----|
|
| E  E E  E  E E +E   E E   +E   E  E E  E E +E   E  E
|-------------------------|----------------------------|
|-------------------------|----------------------------|
|--------10----9-(9)-10-9-|-(9)------------------------|
|------9----12------------|-----12-10-9-10-------------|
|---12--------------------|----------------8-(8)-10-12-|
|-0-----------------------|----------------------------|
|-------------------------|----------------------------|


 6/8                  9/8
   +E  E  E  E  E  E   E  E E  E  E E +E   E E
|--------------------|-------------------------|
|--------------------|-------------------------|
|------------0--2--4-|-------------------------|
|------1--3--1--3--5-|---------3----2-(2)--3-2-|
|--(0)-2--4----------|----0-1-----5------------|
|--------------------|-------------------------|
|
|  +E  E  E  E  E  E   E  E E  E  E E +E   E E
|--------------------|-------------------------|
|--------------------|-------------------------|
|--------------------|--------10----9-(9)-10-9-|
|--------------10-12-|------9----12------------|
|-(12)-9-11-13-------|---12--------------------|
|--------------------|-------------------------|
|--------------------|-------------------------|


 6/8                15/8
  +E   E  E E  E E   +E   E  E  E  E  E  E  E  E  E  E  E  E  E  E
|------------------|------7--5--3-----1----------------------------|
|------------------|------8--6--4--4--2--4--2--0--------2----------|
|------------------|---------------4-----4--2--0--------3----------|
|-(2)--------------|------------------------------3--4-----4--3----|
|------5--3-2--3---|------------------------------5--6-----6--4--2-|
|----------------6-|-(6)-----------------------------------------9-|
|
| +E   E  E E  E E   +E   E  E  E  E  E  E  E  E  E  E  E  E  E  E
|------------------|-----15-13-11----------------------------------|
|------------------|--------------12-14-12-------------------------|
|-(9)--------------|-----------------------14-12-------15----------|
|-----12-10-9-10---|-----------------------------12-13----13-11----|
|----------------8-|-(8)----------------------------------------11-|
|------------------|-----------------------------------------------|
|------------------|-----------------------------------------------|


 5:01
 9/8
  E  E  E  E  E  E  +E   E  E    +E   E  E  +E   E  E  +E   E  E
|-----------------------------|----------------------------------|
|-----------------------------|----------------------------------|
|-----------------------------|----------------------------------|
|-----------------------------|----------------------------------|
|----------6-----5--(5)-------|----------------------------------|
|----7--9-----9---------11-12-|-(12)-12-13-(13)--9-10-(10)--7--9-|
|
| E  E  E  E  E  E  +E   E  E    +E   E  E  +E   E  E  +E   E  E
|-----------------------------|----------------------------------|
|-----------------------------|----------------------------------|
|-----------------------------|----------------------------------|
|-----------------------------|----------------------------------|
|---------18----17-(17)-------|------14-15-(15)------------------|
|-0-14-16----16---------18-19-|-(19)------------16-17-(17)-14-16-|
|-----------------------------|----------------------------------|


   E  E  E  +E   E  E  +E   E  E
|---------------------------------|
|---------------------------------|
|---------------------------------|
|---------------------------------|
|--6-----5--(5)--1--2--(2)--2--3--|
|-----9---------------------------|
|
|  E  E  E  +E   E  E  +E   E  E
|---------------------------------|
|---------------------------------|
|---------------------------------|
|---------------------------------|
|-18----17-(17)------------14-15--|
|----16---------18-19-(19)--------|
|---------------------------------|


 8/8                       9/8
   E  E  E  E  E  E  E  E   E  E  E  E  E  E  +E   E  E
|-------------------------|-----------------------------|
|-------------------------|-----------------------------|
|-------------------------|-----------------------------|
|--------2--3--5--6--2--3-|-----------------------------|
|--4--5-------------------|----------6-----5--(5)--1--2-|
|-------------------------|----7--9-----9---------------|
|
|  E  E  E  E  E  E  E  E   E  E  E  E  E  E  +E   E  E
|-------------------------|-----------------------------|
|-------------------------|-----------------------------|
|-------------------------|-----------------------------|
|-------14-15-17-18-14-15-|-----------------------------|
|-16-17-------------------|---------18----17-(17)-------|
|-------------------------|-0-14-16----16---------18-19-|
|-------------------------|-----------------------------|


   +E   E  E  +E   E  E  +E   E  E
|-----------------------------------|
|-----------------------------------|
|-----------------------------------|
|-----------------------------4--6--|
|--(2)--2--3--(3)-----0--(0)--4--6--|
|------------------9----------------|
|
|  +E   E  E  +E   E  E  +E   E  E
|-----------------------------------|
|-----------------------------------|
|-----------------------------------|
|-----------------------------------|
|------14-15-(15)-------------------|
|-(19)------------16-17-(17)-14-16--|
|-----------------------------------|


                                  8/8
   E  E  E  +E   E  E  +E   E  E    E  E  E  E  E  E  E  E
|--------------------------------|-------------------------|
|--4-----3--(3)----------------1-|--2--3--5--6--8--9--5--6-|
|--1--1--0--(0)--3--4--(4)--4----|--------------------6--7-|
|-----1----------0--1--(1)--1--2-|--2--3--5--6--9-10-------|
|--------------------------------|-------------------------|
|--------------------------------|-------------------------|
|
|  E  E  E  +E   E  E  +E   E  E    E  E  E  E  E  E  E  E
|--------------------------------|-------------------------|
|--------------------------------|-------------------------|
|--------------------------------|-------------------------|
|--------------------------------|-------14-15-17-16-14-15-|
|-18----17-(17)------------14-15-|-16-17-------------------|
|----16---------18-19-(19)-------|-------------------------|
|--------------------------------|-------------------------|


 5:13
  Q=112
  N.C.
 3/4
  Gtr III
  S  S  S  S  S  S  S  S  S  S  S  S
|------------------------------------|
|------------------------------------|
|------------------------------------|
|------------------------------------|
|---------18----17-------14-15-------|
|-0-14-16----16----18-19-------16-17-|
|------------------------------------|


 4/4
  S  S  S  S  S  S  S  S  S  S  S  S  S  S  S  S
|------------------------------------------------|
|------------------------------------------------|
|------------------------------------------------|
|------------------------------------------------|
|---------18----17-------14-15-------13-14-------|
|-0-14-16----16----18-19-------16-17-------15-16-|
|------------------------------------------------|


 3/4
  S  S  S  S  S  S  S  S  S  S  S  S
|------------------------------------|
|------------------------------------|
|------------------------------------|
|------------------------------------|
|---------18----17-------14-15-------|
|-0-14-16----16----18-19-------16-17-|
|------------------------------------|


 4/4
  S  S  S  S  S  S  S  S  S  S  S  S  S  S  S  S
|------------------------------------------------|
|------------------------------------------------|
|------------------------------------------------|
|------------------------------------14-15-16-17-|
|---------18----17-------15-16-17-18-------------|
|-0-14-16----16----18-19-------------------------|
|------------------------------------------------|


 12/16                                10/16
  S  S  S  S  S  S  S  S  S  S  S  S   S  S  S  S  S  S  S  S  S  S
|------------------------------------|------------------------------|
|------------------------------------|------------------------------|
|------------------------------------|------------------------------|
|------------------------------------|------------------------------|
|---------18----17-------14-15-------|---------18----17-14-15-------|
|-0-14-16----16----18-19-------16-17-|-0-14-16----16----------16-17-|
|------------------------------------|------------------------------|


 12/16
  S  S  S  S  S  S  S  S  S  S  S  S
|------------------------------------|
|------------------------------------|
|------------------------------------|
|------------------------------------|
|---------18----17-------14-15-------|
|-0-14-16----16----18-19-------16-17-|
|------------------------------------|


 14/16                                      5/16
  S  S  S  S  S  S  S  S  S  S  S  S  S  S    S  S  S  S S    S  S  S  S S
|------------------------------------------|---------------|---------------|
|------------------------------------------|---------------|---------------|
|------------------------------------------|---------------|---------------|
|------------------------------------------|---------------|---------------|
|---------18----17-14-15-------13-14-------|---------------|---------------|
|-0-14-16----16----------16-17-------15-16-|-19-16-18-16-0-|-19-16-18-16-0-|
|------------------------------------------|---------------|---------------|


                 6/16                12/16
  Gtr I
                                                            ~~~
   W               W                  S S S S S S S S S S S S
|---------------|-------------------|-------------------------|
|---------------|-------------------|-------------------------|
|---------------|-------------------|-------------------------|
|---------------|-------------------|-------------------------|
|---------------|-------------------|-------6---5-1-2-2-3---0-|
|---------------|-------------------|---7-9---9-----------9---|
|
| Gtr III
|                                     PM-----------------------
|  S  S  S  S S    S  S  S  S  S  S   S S S S S S S S S S S S
|---------------|-------------------|-------------------------|
|---------------|-------------------|-------------------------|
|---------------|-------------------|-------------------------|
|---------------|-------------------|-------------------------|
|---------------|----------14-16-17-|-------6---5-----2-3-----|
|-19-16-18-16-0-|-15-16-18----------|-0-2-4---4---6-7-----4-5-|
|---------------|-------------------|-------------------------|


 16/16
 ~~~~~                            ~
  +S  S S S S S S S S S S S S S S S
|-------------------------------------|
|-------------------------------------|
|-------------------------------------|
|-------------------------------------|
|-(0)-----6---5-1-2-2-3---0-1-2-------|
|-----7-9---9-----------9-------8-9---|
|
|---------------------------------|
|  S  S S S S S S S S S S S S S S S
|-------------------------------------|
|-------------------------------------|
|-------------------------------------|
|-------------------------------------|
|---------6---5-----2-3-----1-2-------|
|--0--2-4---4---6-7-----4-5-----3-4---|
|-------------------------------------|


 12/16                       16/16
   ~~~                    ~~~~~~~~                            ~
  +S  S S S S S S S S S S S   +S  S S S S S S S S S S S S S S S
|---------------------------|-----------------------------------|
|---------------------------|-----------------------------------|
|---------------------------|-----------------------------------|
|---------------------------|-----------------------0-1-2-4-5-6-|
|---------6---5-1-2-2-3---0-|-(0)-----6---5-1-2-3-4-------------|
|-(9)-7-9---9-----------9---|-----7-9---9-----------------------|
|
|  PM---------------------------------------------------------|
|  S  S S S S S S S S S S S    S  S S S S S S S S S S S S S S S
|---------------------------|-----------------------------------|
|---------------------------|-----------------------------------|
|---------------------------|-----------------------------------|
|---------------------------|---------------------------2-4-5-6-|
|---------6---5-----2-3-----|---------6---5-----3-4-5-6---------|
|--0--2-4---4---6-7-----4-5-|--0--2-4---4---6-7-----------------|
|---------------------------|-----------------------------------|


 12/16                       10/16
                          ~~~~~~~~                ~~~
  +S  S S S S S S S S S S S   +S  S S S S S S S S S
|---------------------------|-----------------------|
|---------------------------|-----------------------|
|---------------------------|-----------------------|
|-(6)-----------------------|-----------------------|
|---------6---5-1-2-2-3---0-|-(0)-----6---5-2-3---0-|
|-----7-9---9-----------9---|-----7-9---9-------9---|
|
|  PM------------------------------------------------
|  S  S S S S S S S S S S S    S  S S S S S S S S S
|---------------------------|-----------------------|
|---------------------------|-----------------------|
|---------------------------|-----------------------|
|---------------------------|-----------------------|
|---------6---5-----2-3-----|---------6---5-2-3-----|
|--0--2-4---4---6-7-----4-5-|--0--2-4---4-------4-5-|
|---------------------------|-----------------------|


 12/16
 ~~~~~                       ~
  +S  S S S S S  S  S  S S S S
|------------------------------|
|------------------------------|
|------------------------------|
|------------------------------|
|-(0)-----6---5----------3---0-|
|-----7-9---9---11-12-12---9---|
|
|----------------------------|
|  S  S S S S S  S  S  S S S S
|------------------------------|
|------------------------------|
|------------------------------|
|------------------------------|
|---------6---5--------2-3-----|
|--0--2-4---4----6--7------4-5-|
|------------------------------|


                                 5:43
 14/16                           5/16
   ~~~
  +S  S S S S S S S S S S S S S   S S  S S S
|-------------------------------|------------|
|-------------------------------|------------|
|-------------------------------|------------|
|-------------------------------|------------|
|-(0)-----6---5-2-3---0-1-2-----|-2----------|
|-----7-9---9-------9-------8-9-|---9-11-9-5-|
|
|  PM-------------------------|
|  S  S S S S S S S S S S S S S   S S  S S S
|-------------------------------|------------|
|-------------------------------|------------|
|-------------------------------|------------|
|-------------------------------|------------|
|---------6---5-2-3-----1-2-----|------------|
|--0--2-4---4-------4-5-----3-4-|-7-4--6-4-0-|
|-------------------------------|------------|


                           6/16
  S S  S S S   S S  S S S   S S S S S S
|------------|------------|-------------|
|------------|------------|-------------|
|------------|------------|-------------|
|------------|------------|-------------|
|-2----------|-2----------|-----1-2-4-5-|
|---9-11-9-5-|---9-11-9-5-|-8-9---------|
|
| S S  S S S   S S  S S S   S S S S S S
|------------|------------|-------------|
|------------|------------|-------------|
|------------|------------|-------------|
|------------|------------|-------------|
|------------|------------|-------2-4-5-|
|-7-4--6-4-0-|-7-4--6-4-0-|-3-4-6-------|
|------------|------------|-------------|


 5/16
  S S S S S   S S S S S   S S S S S   S S S S S
|-----------|-----------|-----------|-----------|
|-----------|-----------|-----------|-----------|
|-----------|-----------|-----------|-----------|
|-2---------|-2---------|-2---------|-------2-4-|
|---4-6-4-0-|---4-6-4-0-|---4-6-4-0-|-3-4-6-----|
|-----------|-----------|-----------|-----------|
|
| S S S S S   S S S S S   S S S S S   S S S S S
|-----------|-----------|-----------|-----------|
|-----------|-----------|-----------|-----------|
|-----------|-----------|-----------|-----------|
|-----------|-----------|-----------|-------2-4-|
|-7-4-6-4-0-|-7-4-6-4-0-|-7-4-6-4-0-|-3-4-6-----|
|-----------|-----------|-----------|-----------|
|-----------|-----------|-----------|-----------|


             7/16            5/16
  S S S S S   S S S S S S S   S S S S S
|-----------|---------------|------------|
|-----------|---------------|------------|
|-----------|---------------|------------|
|-5-2-4-2---|-5-2-4-2-4-2---|-5-2-4-2----|
|---------3-|-------------3-|---------3--|
|-----------|---------------|------------|
|
| S S S S S   S S S S S S S   S S S S S
|-----------|---------------|------------|
|-----------|---------------|------------|
|-----------|---------------|------------|
|-5-2-4-2---|-5-2-4-2-4-2---|-5-2-4-2----|
|---------3-|-------------3-|---------3--|
|-----------|---------------|------------|
|-----------|---------------|------------|


 6/16          5/16                                7/16
  S S S S S S   S S S S S   S S S S S   S S S S S   S S S S S S S
|-------------|-----------|-----------|-----------|---------------|
|-------------|-----------|-----------|-----------|---------------|
|-------2-3-5-|-6-3-5-----|-6-3-5-----|-6-3-5-----|---------------|
|-2-4-5-------|-------6-3-|-------6-3-|-------6-3-|-5-6-5-3-------|
|-------------|-----------|-----------|-----------|---------6-4-3-|
|-------------|-----------|-----------|-----------|---------------|
|
| S S S S S S   S S S S S   S S S S S   S S S S S   S S S S S S S
|-------------|-----------|-----------|-----------|---------------|
|-------------|-----------|-----------|-----------|---------------|
|-------2-3-5-|-6-3-5-----|-6-3-5-----|-6-3-5-----|---------------|
|-2-4-5-------|-------6-3-|-------6-3-|-------6-3-|-5-6-5-3-------|
|-------------|-----------|-----------|-----------|---------6-4-3-|
|-------------|-----------|-----------|-----------|---------------|
|-------------|-----------|-----------|-----------|---------------|


 5:55
  E=207
  B
 6/8
  E. E S E E E   E. E S S T T S S S S
|--------------|----------------------|
|--------------|----------------------|
|--------------|----------------------|
|----4---3-----|----4---3-4-3---------|
|-2----2---6-4-|-2----2-------6-4-2---|
|-7------------|-7------------------9-|
| H.             H.
|
| E. E S E E E   E. E S S T T S S S S
|--------------|----------------------|
|--------------|----------------------|
|--------------|----------------------|
|----4---3-----|----4---3h4p3---------|
|-2----2---6-4-|-2----2-------6-4-2---|
|--------------|--------------------4-|
|--------------|----------------------|


  C#
                 7/8
   E. E S E E E    E. E S S T T S S S S S S
|---------------|---------------------------|
|---------------|---------------------------|
|---------------|---------------------------|
|-----6---4-3-1-|-----6---4-6-4-3-----------|
|--4----4-------|--4----4-6-------6-4-2-4-6-|
|-11------------|-11------------------------|
|  H.              Q.     H
|
|  E. E S E E E    E. E S S T T S S S S S S
|---------------|---------------------------|
|---------------|---------------------------|
|---------------|---------------------------|
|-----6---4-3---|-----6---4h6p4-3-----------|
|--4----4-----6-|--4----4---------6-4-2-4-6-|
|---------------|---------------------------|
|---------------|---------------------------|


  A                                   F#
 6/8
  E. E S E E E   E. E S S S S S S S   E. E S E E E
|--------------|--------------------|--------------|
|--------------|--------------------|--------------|
|--------------|--------------------|--------------|
|----2---------|----2---4-2---------|--------------|
|-0----0-6-4-2-|-0----0-----6-4-2-0-|-4--4---3-1---|
|-5------------|-5------------------|-7----7-----9-|
| H.             H.
|
| E. E S E E E   E. E S S S S S S S   E. E S E E E
|--------------|--------------------|--------------|
|--------------|--------------------|--------------|
|--------------|--------------------|--------------|
|--------------|--------------------|--------------|
|----7---6-----|----7---9-7-6-------|----4---3-----|
|-5----5---9-7-|-5----5-------9-7-5-|-2----2---6-4-|
|--------------|--------------------|--------------|


         H.=H                           E=100
                       E5        B5
                      5/16      3/8
  E. E S S S S S S S   E S S S   e e e
|--------------------|---------|---------*|
|--------------------|---------|---------*|
|--------------------|---------|---------*|
|--------------------|---------|---------*|
|-4--4---6-4-3-1-----|---------|-2-2-2---*|
|-7----7---------9-7-|-5-5-5-5-|---------*|
|
|                        PM--|
| E. E S S S S S S S   E S S S   e e e
|--------------------|---------|---------*|
|--------------------|---------|---------*|
|--------------------|---------|-4-4-4---*|
|--------------------|---2-2-2-|-4-4-4---*|
|----4---6-4-3-------|---2-2-2-|-2-2-2---*|
|-2----2-------6-4-2-|-0-0-0-0-|---------*|
|--------------------|---------|---------*|


Duration Legend
---------------
W - whole; H - half; Q - quarter; E - 8th; S - 16th; T - 32nd; X - 64th; a - acciaccatura
+ - note tied to previous; . - note dotted; .. - note double dotted
Uncapitalized letters represent notes that are staccato (1/2 duration)
Irregular groupings are notated above the duration line
Duration letters will always appear directly above the note/fret number it represents the
duration for.  Duration letters with no fret number below them represent rests.  Multi-
bar rests are notated in the form Wxn, where n is the number of bars to rest for.  Low
melody durations appear below the staff

Tablature Legend
----------------
 h   - hammer-on
 p   - pull-off
 b   - bend
 pb  - pre-bend
 r   - bend release (if no number after the r, then release immediately)
 /\  - slide into or out of (from/to "nowhere")
 s   - legato slide
 S   - shift slide
<n>  - natural harmonic
[n]  - artificial harmonic
n(n) - tapped harmonic
 ~   - vibrato
 tr  - trill
 T   - tap
 TP  - trem. picking
 PM  - palm muting
\n/  - tremolo bar dip; n = amount to dip
 \n  - tremolo bar down
 n/  - tremolo bar up
/n\  - tremolo bar inverted dip
 =   - hold bend; also acts as connecting device for hammers/pulls
 <>  - volume swell (louder/softer)
 x   - on rhythm slash represents muted slash
 o   - on rhythm slash represents single note slash

Misc Legend
-----------
 |  - bar
||  - double bar
||o - repeat start
o|| - repeat end
*|  - double bar (ending)
 :  - bar (freetime)
 $  - Segno
 &  - Coda
Tempo markers - <E/E./Q/Q./H/H.> = BPM(8/16=s8/s16), where s8 = swing 8ths, s16 = swing 16ths
comments
print report bad tab
4 comments total. Showing first comments.
0 reply
autumnskyguitar wrote on June 4 2006, 12:38 pm

Sweet tab. It's nice that all the keyboard stuff is there, too. Nice Job 5 Stars.

0 reply
Kid Fisto wrote on September 13 2007, 09:09 pm

Well done, its very accurate

Cheers

0 reply
Metalfork wrote on January 1 2008, 05:54 am

Brilliant.

I want to post or [tab]
guest
You may want to rate the tab now too:
select rating
Please do not post tabs as comments. Select "correction" instead!