Oops, an error
Loading. Please wait.

Dark Eternal Night Tab

114,605 views 303 this week
23 commentsread comments
1 2 3 4 5
excellent!
x 18
Autoscroll
+/-
esc
set tempo
stop
Contributor
Difficulty
advanced
WARNING: You are trying to view
                                    content from Ultimate-Guitar.com
                                    in an unauthorized application,
                                    which is prohibited.

                                    Please use an official Ultimate
                                    Guitar Tabs application for iPhone,
                                    iPad or Android to access legitimate
                                    chords, guitar, bass, and drum tabs
                                    from Ultimate-Guitar.com database.

                                    Type "ultimate guitar tabs" in Apple
                                    App Store's or Android Market's
                                    search to find the application.
Dream Theater: The Dark Eternal Night

Transcribed by: Andrew Zara (disturbedfreak0520@yahoo.com)

Date last modified: June 8, 2007

PLEASE DO NOT COPY THIS TAB TO ANOTHER SITE
WITHOUT AUTHORS' PERMISSION. THANK YOU.

Tuning: Standard (B,E,A,D,G,B,E)

Notes: This tab is split up between 3 guitars to make it easier to read. Only 1 guitar 
a time. The solo is at the bottom. Enjoy.

GUITAR 1

                                                PM PM PM PM   PM
     S S E  E  S S S S S S S S S S    S S E  E  S  S  S  S  E  S  S S S
E||--------------------------------|------------------------------------|
B||--------------------------------|------------------------------------|
G||--------------------------------|------------------------------------|
D||--------------------------------|------------------------7-----------|
A||--------------------------------|------------------------6-----------|
E||--------------------4-5---4-----|------------------------5-----4-----|
B||--7-6-0-----0-0-6-7-----7---6-0-|--7-6-0-----0--0--0--0-----0----2-0-|


                                             PM PM PM PM PM PM
                                             |--3--|  |--3--|
  S S E  E  S S S S S S S S S S    S S E  E  S  S  S  E  E  E  Q
--------------------------------|-----------------------------------|
--------------------------------|-----------------------------------|
--------------------------------|-----------------------------------|
--------------------------------|------------------------------6----|
--------------------------------|------------------------------5----|
--------------------1-2---1-----|------------------------------4----|
--7-6-0-----0-0-3-4-----4---3-0-|--4-3-0-----0--0--0--0--0--0-------|


                                             PM PM PM PM    PM
  S S E  E  S S S S S S S S S S    S S E  E  S  S  S  S  E  S  S S S
--------------------------------|------------------------------------|
--------------------------------|------------------------------------|
--------------------------------|------------------------------------|
--------------------------------|------------------------7-----------|
--------------------------------|------------------------6-----------|
--------------------4-5---4-----|------------------------5-----4-----|
--7-6-0-----0-0-6-7-----7---6-0-|--7-6-0-----0--0--0--0-----0----2-0-|


                                             PM PM     PM PM
  S S E  E  S S S S S S S S S S    S S E  E  S  S  S S S  S  S E.
--------------------------------|-----------------------------------|
--------------------------------|-----------------------------------|
--------------------------------|-----------------------------------|
--------------------------------|-----------------------------------|
--------------------------------|-----------------------------------|
--------------------1-2---1-----|------------------7---------4------|
--7-6-0-----0-0-3-4-----4---3-0-|--4-3-0-----0--0----6-0--0----3~---|


                                             PM PM PM PM    PM
  S S E  E  S S S S S S S S S S    S S E  E  S  S  S  S  E  S  S S S
--------------------------------|------------------------------------|
--------------------------------|------------------------------------|
--------------------------------|------------------------------------|
--------------------------------|------------------------7-----------|
--------------------------------|------------------------6-----------|
--------------------4-5---4-----|------------------------5-----4-----|
--7-6-0-----0-0-6-7-----7---6-0-|--7-6-0-----0--0--0--0-----0----2-0-|


  S S E  E  S S S S S S S S S S
--------------------------------|
--------------------------------|
--------------------------------|
--------------------------------|
--------------------------------|
--------------------1-2---1-----|
--7-6-0-----0-0-3-4-----4---3-0-|


            PM PM PM PM PM PM    PM PM PM
            |--3--|  |--3--|     |--3--|
  S S E  E  S  S  S  E  E  E  E  S  S  S  E.  S
-------------------------------------------------|
-------------------------------------------------|
-------------------------------------------------|
------------------------------6-----------7---L\-|
------------------------------5-----------6---L\-|
------------------------------4-----------5---L\-|
--4-3-0-----0--0--0--0--0--0-----0--0--0---------|


    PM PM PM PM PM   PM PM PM PM PM   PM PM PM
  S S  S  S  S  S  S S  S  S  S  S  S S  S  S
-----------------------------------------------|
-----------------------------------------------|
-----------------------------------------------|
-----------------------------------------------|
--6----------------4----------------2----------|
----4-----5--4-------2-----4--2-------1--0-----|
-------0--------0-------0--------0----------0--|


    PM PM PM PM PM   PM PM PM PM PM   PM PM PM   PM PM PM
  S S  S  S  S  S  S S  S  S  S  S  S S  S  S  S S  S  S
----------------------------------------------------------|
----------------------------------------------------------|
----------------------------------------------------------|
----------------------------------------------------------|
--6----------------4----------------2---------------------|
----4-----5--4-------2-----4--2-------1--0-----4----------|
-------0--------0-------0--------0----------0----3--2--0--|


  S S S S S S S S S S S S S S S S    S S S S S S S S S S S S S S S S
----------------------------------|----------------------------------|
----------------------------------|----------------------------------|
----------------------------------|----------------------------------|
----------------------------------|----------------------------------|
----------------------------------|----------------------------------|
------4---4-------4---4-------5---|------4---4-------4---4-------7---|
--0-3---3---3-0-3---3---3-0-3---6-|--0-3---3---3-0-3---3---3-0-3---6-|


    PM PM PM PM PM   PM PM PM PM PM   PM PM PM
  S S  S  S  S  S  S S  S  S  S  S  S S  S  S
-----------------------------------------------|
-----------------------------------------------|
-----------------------------------------------|
-----------------------------------------------|
--6----------------4----------------2----------|
----4-----5--4-------2-----4--2-------1--0-----|
-------0--------0-------0--------0----------0--|


    PM PM PM PM PM   PM PM PM PM PM   PM PM PM   PM PM PM
  S S  S  S  S  S  S S  S  S  S  S  S S  S  S  S S  S  S
----------------------------------------------------------|
----------------------------------------------------------|
----------------------------------------------------------|
----------------------------------------------------------|
--6----------------4----------------2---------------------|
----4-----5--4-------2-----4--2-------1--0-----4----------|
-------0--------0-------0--------0----------0----3--2--0--|


  S S S S S S S S S S S S S S S S    S S S S S S S S S S S S S S S S
----------------------------------|----------------------------------|
----------------------------------|----------------------------------|
----------------------------------|----------------------------------|
----------------------------------|----------------------------------|
----------------------------------|----------------------------------|
------4---4-------4---4-------5---|------4---4-------4---4-------7---|
--0-3---3---3-0-3---3---3-0-3---6-|--0-3---3---3-0-3---3---3-0-3---6-|


  PM PM PM PM PM PM PM PM PM PM PM PM PM PM PM PM PM PM PM PM
  S  S  S  S  S  S  S  S  S  S  S  S  S  S  S  S  S  S  S  S
--------------------------------------------------------------|
--------------------------------------------------------------|
--------------------------------------------------------------|
--------------------------------------------------------------|
--------------------------------------------------------------|
--------1--2-----1--------------------1--2-----1--------------|
--3--4--------4-----3--4--3--0--3--4--------4-----3--4--3--0--|


  PM PM PM PM PM PM PM PM PM PM PM PM PM PM PM PM PM PM PM PM
  S  S  S  S  S  S  S  S  S  S  S  S  S  S  S  S  S  S  S  S
--------------------------------------------------------------|
--------------------------------------------------------------|
--------------------------------------------------------------|
--------------------------------------------------------------|
--------------------------------------------------------------|
--------4--5-----4--------------------4--5-----4--------------|
--6--7--------7-----6--7--6--0--6--7--------7-----6--7--6--0--|


  PM PM PM PM PM PM PM PM PM PM PM PM PM PM PM PM PM PM PM PM
  S  S  S  S  S  S  S  S  S  S  S  S  S  S  S  S  S  S  S  S
--------------------------------------------------------------|
--------------------------------------------------------------|
--------------------------------------------------------------|
--------------------------------------------------------------|
--------------------------------------------------------------|
--------1--2-----1--------------------1--2-----1--------------|
--3--4--------4-----3--4--3--0--3--4--------4-----3--4--3--0--|


  PM PM PM PM PM PM PM PM PM PM
  S  S  S  S  S  S  S  S  S  S  S S S S S S S S S S
----------------------------------------------------|
----------------------------------------------------|
----------------------------------------------------|
----------------------------------------------------|
----------------------------------------------------|
--------4--5-----4------------------4-5---4---------|
--6--7--------7-----6--7--6--0--6-7-----7---6-7-6-0-|


  S S S S S S S S S S S S S S S S    S S S S S S S S S S S S S S S S
----------------------------------|----------------------------------|
----------------------------------|----------------------------------|
----------------------------------|----------------------------------|
----------------------------------|----------------------------------|
----------------------------------|----------------------------------|
------4---4-------4---4-------5---|------4---4-------4---4-------7---|
--0-3---3---3-0-3---3---3-0-3---6-|--0-3---3---3-0-3---3---3-0-3---6-|


  S S S S S S S S S S S S S S S S    S S S S S S S S S S S S S S S S
----------------------------------|----------------------------------|
----------------------------------|----------------------------------|
----------------------------------|----------------------------------|
----------------------------------|----------------------------------|
----------------------------------|----------------------------------|
------4---4-------4---4-------5---|------4---4-------4---4-------7---|
--0-3---3---3-0-3---3---3-0-3---6-|--0-3---3---3-0-3---3---3-0-3---6-|


                                   PM PM     PM PM     PM
  E  W                   S S E  E  S  S  S S S  S  S S S  S
----------------------|-------------------------------------|
----------------------|-------------------------------------|
----------------------|-------------------------------------|
----------------------|-------------------------------------|
----------------------|-------------------------------------|
--2-------------------|----------------------------4--------|
--0-------------------|--7-6-0-----0--0--0-3-0--0----3-0--3-|


            PM PM     PM PM     PM                PM PM     PM PM     PM
  S S E  E  S  S  S S S  S  S S S  S    S S E  E  S  S  S S S  S  S S S  S
-------------------------------------|-------------------------------------|
-------------------------------------|-------------------------------------|
-------------------------------------|-------------------------------------|
-------------------------------------|-------------------------------------|
-------------------------------------|-------------------------------------|
--9-8-2---------------------4--------|--9-8-2---------------------7--------|
--7-6-0-----0--0--0-3-0--0----3-0--3-|--7-6-0-----0--0--0-3-0--0----6-5--0-|


                                             PM PM PM
                                             |--3--|
  S S E  E  S S S S S S S S S S    S S E  E  S  S  S  S S S S S E.
--------------------------------|------------------------------------|
--------------------------------|------------------------------------|
--------------------------------|------------------------------------|
--------------------------------|------------------------------------|
--------------------------------|------------------------------------|
--4-5-2-----------------1-------|--9-8-2--------------7-------5------|
--4-3-0-----0-0-0-3-0-0---3-0-3-|--7-6-0-----0--0--0----6-0-0---3~---|


            PM PM     PM PM     PM                PM PM     PM PM     PM
  S S E  E  S  S  S S S  S  S S S  S    S S E  E  S  S  S S S  S  S S S  S
-------------------------------------|-------------------------------------|
-------------------------------------|-------------------------------------|
-------------------------------------|-------------------------------------|
-------------------------------------|-------------------------------------|
-------------------------------------|-------------------------------------|
--9-8-2---------------------4--------|--9-8-2---------------------7--------|
--7-6-0-----0--0--0-3-0--0----3-0--3-|--7-6-0-----0--0--0-3-0--0----6-5--0-|


                                             PM PM PM PM PM PM
                                             |--3--|  |--3--|
  S S E  E  S S S S S S S S S S    S S E  E  S  S  S  E  E  E  Q
--------------------------------|-----------------------------------|
--------------------------------|-----------------------------------|
--------------------------------|-----------------------------------|
--------------------------------|------------------------------6----|
--------------------------------|------------------------------5----|
--4-5-2-----------------1-------|--9-8-2-----2--2--2--2--2--2--4----|
--4-3-0-----0-0-0-3-0-0---3-0-3-|--7-6-0-----0--0--0--0--0--0-------|


      PM     PM     PM     PM   PM PM PM
  S S S  S S S  S S S  S S S  S S  S  S
-----------------------------------------|
-----------------------------------------|
-----------------------------------------|
--6-------------4-------------2----------|
----4----5-4------2----4-2------1--0-----|
------0------0------0------0----------0--|
-----------------------------------------|


      PM     PM     PM     PM   PM PM PM
  S S S  S S S  S S S  S S S  S S  S  S  S S S S
-------------------------------------------------|
-------------------------------------------------|
-------------------------------------------------|
--6-------------4-------------2------------------|
----4----5-4------2----4-2------1--0-----4-------|
------0------0------0------0----------0----3-2-0-|
-------------------------------------------------|


  S S S S S S S S S S S S S S S S    S S S S S S S S S S S S S S S S S S S S
----------------------------------|------------------------------------------|
----------------------------------|------------------------------------------|
----------------------------------|------------------------------------------|
----------------------------------|------------------------------------------|
--------------------2-------------|--------------------2---------------------|
------4---4-------3---3---4-------|------4---4-------3---3---4-------4-------|
--0-2---2---2-0-2-------2---2-0-3-|--0-2---2---2-0-2-------2---2-0-3---2-0-3-|


      PM     PM     PM     PM   PM PM PM
  S S S  S S S  S S S  S S S  S S  S  S
-----------------------------------------|
-----------------------------------------|
-----------------------------------------|
--6-------------4-------------2----------|
----4----5-4------2----4-2------1--0-----|
------0------0------0------0----------0--|
-----------------------------------------|


      PM     PM     PM     PM   PM PM PM
  S S S  S S S  S S S  S S S  S S  S  S  S S S S
-------------------------------------------------|
-------------------------------------------------|
-------------------------------------------------|
--6-------------4-------------2------------------|
----4----5-4------2----4-2------1--0-----4-------|
------0------0------0------0----------0----3-2-0-|
-------------------------------------------------|


  S S S S S S S S S S S S S S S S
----------------------------------|
----------------------------------|
----------------------------------|
----------------------------------|
--------------------2-------------|
------4---4-------3---3---4-------|
--0-2---2---2-0-2-------2---2-0-3-|


  S S S S S S S S S S S S S S S S S S S S S S S S    Q.      S  S  E   Q    E
--------------------------------------------------|----------------------------|
--------------------------------------------------|----------------------------|
--------------------------------------------------|----------------------------|
--------------------------------------------------|---------12-12-12--11----9--|
--------------------2---------------2-------------|--2-------------------------|
------4---4-------3---3---4-------3---3---4-------|--2------10-10-10---9----7--|
--0-2---2---2-0-2-------2---2-0-2-------2---2-0-3-|--0-------------------------|


  H        H           Q.      S  S  E   Q    E     H        H
--------------------|----------------------------|--------------------|
--------------------|----------------------------|--------------------|
--------------------|----------------------------|--------------------|
--7-----------------|---------12-12-12--11----9--|--7--------5--------|
--7--------7--------|--2-------------------------|--7--------5--------|
--5--------7--------|--2------10-10-10---9----7--|--5--------3--------|
-----------5--------|--0-------------------------|--------------------|


  Q.      S  S  E   Q    E     H        H           H        H
----------------------------|--------------------|--------------------|
----------------------------|--------------------|--------------------|
----------------------------|--------------------|--------------------|
---------12-12-12--11----9--|--7-----------------|--------------------|
--2-------------------------|--7--------7--------|--9--------5--------|
--2------10-10-10---9----7--|--5--------7--------|--9--------5--------|
--0-------------------------|-----------5--------|--7--------3--------|


                              |-3-| |--3--|
  H        H           Q.     S S S E  E  E  E  E
--------------------|-------------------------------|
--------------------|-------------------------------|
--------------------|-------------------------------|
--------------------|-------------------------------|
--7--------4--------|--2------x-x-x-2--x--x---------|
--7--------4--------|--2------x-x-x-2--x--x--9--L\--|
--5--------2--------|--0------x-x-x-0--x--x--7--L\--|


            PM PM     PM PM     PM                PM PM     PM PM     PM
  S S E  E  S  S  S S S  S  S S S  S    S S E  E  S  S  S S S  S  S S S  S
-------------------------------------|-------------------------------------|
-------------------------------------|-------------------------------------|
-------------------------------------|-------------------------------------|
-------------------------------------|-------------------------------------|
-------------------------------------|-------------------------------------|
--9-8-2---------------------4--------|--9-8-2---------------------7--------|
--7-6-0-----0--0--0-3-0--0----3-0--3-|--7-6-0-----0--0--0-3-0--0----6-5--0-|


  S S E  E  S S S S S S S S S S
--------------------------------|
--------------------------------|
--------------------------------|
--------------------------------|
--------------------------------|
--4-5-2-----------------1-------|
--4-3-0-----0-0-0-3-0-0---3-0-3-|


            PM PM PM PM PM PM    PM PM PM
            |--3--|  |--3--|     |--3--|
  S S E  E  S  S  S  E  E  E  E  S  S  S  Q
-----------------------------------------------|
-----------------------------------------------|
-----------------------------------------------|
------------------------------6-----------7----|
------------------------------5-----------6----|
--9-8-2-----------------------4-----------5----|
--7-6-0-----0--0--0--0--0--0-----0--0--0-------|


            PM PM     PM PM     PM
  S S E  E  S  S  S S S  S  S S S  S
-------------------------------------|
-------------------------------------|
-------------------------------------|
-------------------------------------|
-------------------------------------|
--9-8-2---------------------4--------|
--7-6-0-----0--0--0-3-0--0----3-0--3-|


            PM PM     PM PM     PM
  S S E  E  S  S  S S S  S  S S S  S S S S S    S S E  E  S S S S S S S S S S
---------------------------------------------|--------------------------------|
---------------------------------------------|--------------------------------|
---------------------------------------------|--------------------------------|
---------------------------------------------|--------------------------------|
---------------------------------------------|--------------------------------|
--9-8-2---------------------7--------4-------|--4-5-2-----------------4-------|
--7-6-0-----0--0--0-3-0--0----6-5--6---3-2-3-|--4-3-0-----0-0-0-3-0-0---3-0-3-|


                |-3-| |-3-|     |--3-| |--3-|
  S S E  E  S S S S S S S S S S S S  S S S  S E    S S E
-----------------------------------------------------------|
-----------------------------------------------------------|
-----------------------------------------------------------|
----------------------------------------------7~-----------|
----------------------------6----------8-9-11-----11-9-8~--|
--9-8-2---------------6-7-9-----7-9-11---------------------|
--7-6-0-----0-0-6-7-9--------------------------------------|


      PM     PM     PM     PM   PM PM PM
  S S S  S S S  S S S  S S S  S S  S  S
-----------------------------------------|
-----------------------------------------|
-----------------------------------------|
--6-------------4-------------2----------|
----4----5-4------2----4-2------1--0-----|
------0------0------0------0----------0--|
-----------------------------------------|


      PM     PM     PM     PM   PM PM PM
  S S S  S S S  S S S  S S S  S S  S  S  S S S S
-------------------------------------------------|
-------------------------------------------------|
-------------------------------------------------|
--6-------------4-------------2------------------|
----4----5-4------2----4-2------1--0-----4-------|
------0------0------0------0----------0----3-2-0-|
-------------------------------------------------|


  S S S S S S S S S S S S S S S S    S S S S S S S S S S S S S S S S S S S S
----------------------------------|------------------------------------------|
----------------------------------|------------------------------------------|
----------------------------------|------------------------------------------|
----------------------------------|------------------------------------------|
--------------------2-------------|--------------------2---------------------|
------4---4-------3---3---4-------|------4---4-------3---3---4-------4-------|
--0-2---2---2-0-2-------2---2-0-3-|--0-2---2---2-0-2-------2---2-0-3---2-0-3-|


      PM     PM     PM     PM   PM PM PM
  S S S  S S S  S S S  S S S  S S  S  S
-----------------------------------------|
-----------------------------------------|
-----------------------------------------|
--6-------------4-------------2----------|
----4----5-4------2----4-2------1--0-----|
------0------0------0------0----------0--|
-----------------------------------------|


      PM     PM     PM     PM   PM PM PM
  S S S  S S S  S S S  S S S  S S  S  S  S S S S
-------------------------------------------------|
-------------------------------------------------|
-------------------------------------------------|
--6-------------4-------------2------------------|
----4----5-4------2----4-2------1--0-----4-------|
------0------0------0------0----------0----3-2-0-|
-------------------------------------------------|


  S S S S S S S S S S S S S S S S
----------------------------------|
----------------------------------|
----------------------------------|
----------------------------------|
--------------------2-------------|
------4---4-------3---3---4-------|
--0-2---2---2-0-2-------2---2-0-3-|


  S S S S S S S S S S S S S S S S S S S S S S S S    Q.      S  S  E   Q    E
--------------------------------------------------|----------------------------|
--------------------------------------------------|----------------------------|
--------------------------------------------------|----------------------------|
--------------------------------------------------|---------12-12-12--11----9--|
--------------------2---------------2-------------|--2-------------------------|
------4---4-------3---3---4-------3---3---4-------|--2------10-10-10---9----7--|
--0-2---2---2-0-2-------2---2-0-2-------2---2-0-3-|--0-------------------------|


  |----3----|
  Q    Q    Q    Q    Q       Q.      S  S  E   Q    E
---------------------------|----------------------------|
---------------------------|----------------------------|
---------------------------|----------------------------|
---------------------------|---------12-12-12--11----9--|
-------4----5---------7----|--2-------------------------|
--5----L----L--------------|--2------10-10-10---9----7--|
-----------------5----L----|--0-------------------------|


  |----3----|
  Q    Q    Q    E.  S Q       Q.      S  S  E   Q    E
----------------------------|----------------------------|
----------------------------|----------------------------|
-----------------------0----|----------------------------|
---------------------0-L----|---------12-12-12--11----9--|
-------4----5---------------|--2-------------------------|
--5----L----L----3-----L----|--2------10-10-10---9----7--|
----------------------------|--0-------------------------|


  |----3----|
  Q    Q    Q    Q    Q       H        H           H        H
---------------------------|--------------------|--------------------|
---------------------------|--------------------|--------------------|
---------------------------|--------------------|--------------------|
---------------------------|--------------------|--------------------|
-------4----5---------7----|--9--------5--------|--7--------4--------|
--5----L----L--------------|--9--------5--------|--7--------4--------|
-----------------5----L----|--7--------3--------|--5--------2--------|


                               |----3----|
  Q.      S  S  E   Q    E     Q    Q    Q    Q    Q
----------------------------|---------------------------|
----------------------------|---------------------------|
----------------------------|---------------------------|
---------12-12-12--11----9--|---------------------------|
--2-------------------------|-------4----5---------7----|
--2------10-10-10---9----7--|--5----L----L--------------|
--0-------------------------|-----------------5----L----|


                               |----3----|
  Q.      S  S  E   Q    E     Q    Q    Q    E.  S Q
----------------------------|-----------------------------|
----------------------------|-----------------------------|
----------------------------|-----------------------0~----|
---------12-12-12--11----9--|---------------------0-L-----|
--2-------------------------|-------4----5----------------|
--2------10-10-10---9----7--|--5----L----L----3-----L-----|
--0-------------------------|-----------------------------|


                               |----3----|
  Q.      S  S  E   Q    E     Q    Q    Q    Q    Q       H        H
----------------------------|---------------------------|--------------------|
----------------------------|---------------------------|--------------------|
----------------------------|---------------------------|--------------------|
---------12-12-12--11----9--|---------------------------|--------------------|
--2-------------------------|-------4----5---------7----|--9--------5--------|
--2------10-10-10---9----7--|--5----L----L--------------|--9--------5--------|
--0-------------------------|-----------------5----L----|--7--------3--------|


  H        H           H.              H        E     H.
--------------------|---------------|--------------|---------------|
--------------------|---------------|--------------|---------------|
--------------------|---------------|--------------|---------------|
--------------------|---------------|--------------|---------------|
--7--------4--------|--2------------|--L--------L--|--L------------|
--7--------4--------|--2------------|--L--------L--|--L------------|
--5--------2--------|--0------------|--L--------L--|--L------------|


  H.              H.              H        E     H.
---------------|---------------|--------------|---------------|
---------------|---------------|--------------|---------------|
---------------|---------------|--------------|---------------|
---------------|---------------|--------------|---------------|
--L------------|--L------------|--L--------L--|--L------------|
--L------------|--L------------|--L--------L--|--L------------|
--L------------|--L------------|--L--------L--|--L------------|


   H.               E  S E  E  E  S S S    E  S E  E  S E
-----------------|----------------------|------------------|
-----------------|----------------------|------------------|
--24/------------|----------------------|------------------|
--23/------------|----------------------|------------------|
-----------------|----------------------|------------------|
-----------------|----------------------|------------------|
-----------------|--9--8-7--6--3--0-0-0-|--9--8-7--6--3-0--|


  E  S E  E  E  S S S    S  S S S  S S    E  S E  E  E  S S S
----------------------|----------------|----------------------|
----------------------|----------------|----------------------|
----------------------|----------------|----------------------|
----------------------|----------------|----------------------|
----------------------|----------------|----------------------|
----------------------|----------------|----------------------|
--9--8-7--6--3--0-0-0-|--3p-0-0-3p-0-0-|--9--8-7--6--3--0-0-0-|


  E  S E  E  S E     E  S E  E  E  S S S
------------------|----------------------|
------------------|----------------------|
------------------|----------------------|
------------------|----------------------|
------------------|----------------------|
------------------|----------------------|
--9--8-7--6--3-0--|--9--8-7--6--3--0-0-0-|


  S  S S  S S S  S S  S S S  S S  S S    E  S E  E  E  S S S
--------------------------------------|----------------------|
--------------------------------------|----------------------|
--------------------------------------|----------------------|
--------------------------------------|--6--5-4--3-----------|
--------------------------------------|-------------5--2-2-2-|
--------------------------------------|----------------------|
--3p-0-6p-0-0-3p-0-6p-0-0-3p-0-6p-0-0-|----------------------|


  E  S E  E  S  S S    E  S E  E  E  S S S    S  S S S  S S E  E
--------------------|----------------------|----------------------|
--------------------|----------------------|----------------------|
--------------------|----------------------|----------------------|
--6--5-4--3---------|--6--5-4--3-----------|----------------3--4--|
-------------5p-2-2-|-------------5--2-2-2-|--5p-2-2-5p-2-2-------|
--------------------|----------------------|----------------------|
--------------------|----------------------|----------------------|


  E  S E  E  E  S S S    E  S E  E  S  S S    E  S E  E  E  S S S
----------------------|--------------------|----------------------|
----------------------|--------------------|----------------------|
----------------------|--------------------|----------------------|
--6--5-4--3-----------|--6--5-4--3---------|--6--5-4--3-----------|
-------------5--2-2-2-|-------------5p-2-2-|-------------5--2-2-2-|
----------------------|--------------------|----------------------|
----------------------|--------------------|----------------------|


  S S S S S S S S S S S S S S S S S S S S    Q    S S S Q    S Q
------------------------------------------|-------------------------|
------------------------------------------|-------------------------|
------------------------------------------|-------------------------|
------3---------3---------3---------3-----|--------------------4----|
--5-2---2-2-5-2---2-2-5-2---2-2-5-2---2-2-|-----------5------5------|
------------------------------------------|---------2---------------|
------------------------------------------|--0----L-----3-----------|


  Q    E.  E.  S S S S S    Q    S S S Q    S Q
-------------------------|-------------------------|
-------------------------|-------------------------|
-------------------------|-------------------------|
-----------9-------------|--------------------4----|
-------5-----------------|-----------5------5------|
--2------------5-2-4-----|---------2---------------|
---------------------3-0-|--0----L-----3-----------|


  Q    E.  E.  S S S S S S S S S S    Q    S S S Q    S Q
-----------------------------------|-------------------------|
-----------------------------------|-------------------------|
-----------------------------------|-------------------------|
-----------9-------------7-4-6-----|-------------------------|
-------5-----------------------5-2-|-------------------------|
--2------------5-2-4---------------|--0----L-1-2-3-----------|
---------------------3-0-----------|------------------3-2----|


  Q    E.  E.  S S S S S    Q    S S S Q    S Q
-------------------------|-------------------------|
-------------------------|-------------------------|
-----------4-------------|-------------------------|
-------------------------|-------------------------|
--4----------------------|-------------------------|
-------3-------5-2-4-----|--0----L-1-2-3-----------|
---------------------5-3-|------------------3-2----|


  Q    S S S E.  S S S S S S S S S S S S S S S    S  S S S  S S  S S  S S S S
-----------------------------------------------|------------------------------|
-----------------------------------------------|--9p-0-8-7p-0-6p-0-3p-0-0-0-0-|
-------------6---------------------------------|------------------------------|
-----------5---------------7-4-6-----6-4-------|------------------------------|
--4------5-----------------------7-5-----7-5-4-|------------------------------|
-------3---------5-2-4-------------------------|------------------------------|
-----------------------5-3---------------------|------------------------------|


  S  S S S  S S  S S  S S    S  S S S  S S  S S  S S S S
--------------------------|------------------------------|
--9p-0-8-7p-0-6p-0-3p-0-0-|--9p-0-8-7p-0-6p-0-3p-0-0-0-0-|
--------------------------|------------------------------|
--------------------------|------------------------------|
--------------------------|------------------------------|
--------------------------|------------------------------|
--------------------------|------------------------------|


  S  S S S  S S S  S S  S    S  S S S  S S  S S  S S S S
--------------------------|------------------------------|
--3p-0-0-3p-0-0-6p-0-7p-0-|--9p-0-8-7p-0-6p-0-3p-0-0-0-0-|
--------------------------|------------------------------|
--------------------------|------------------------------|
--------------------------|------------------------------|
--------------------------|------------------------------|
--------------------------|------------------------------|


  S  S S S  S S  S S  S S    S  S S S  S S  S S  S S S S
--------------------------|------------------------------|
--9p-0-8-7p-0-6p-0-3p-0-0-|--9p-0-8-7p-0-6p-0-3p-0-0-0-0-|
--------------------------|------------------------------|
--------------------------|------------------------------|
--------------------------|------------------------------|
--------------------------|------------------------------|
--------------------------|------------------------------|


  S  S S  S S S  S S  S    S E.  H                     S S S S S S S S S E  S
------------------------|-----------------|----|----|-------------------------|
--3p-0-7p-0-0-3p-0-7p-0-|--9--------------|----|----|-------------------------|
------------------------|-----------------|----|----|-------------------------|
------------------------|-----------------|----|----|-------------------------|
------------------------|-----------------|----|----|-------------------------|
------------------------|-----------------|----|----|-------------------------|
------------------------|-----------------|----|----|--3-0-0-3-0-0-3-0-0-6--7-|


  S H        Q       E  S E  E  E  S S S    E  S E  E  E  S S S
------------------|----------------------|----------------------|
------------------|----------------------|----------------------|
------------------|----------------------|----------------------|
------------------|----------------------|----------------------|
------------------|----------------------|----------------------|
------------------|----------------------|----------------------|
--L---------------|--9--8-7--6--3--0-0-0-|--9--8-7--6--3--0-0-0-|


  E  S E  E  E  S S S    S  S S S  S S S  S S  S     E   S E  E  E  S S S
----------------------|--------------------------|------------------------|
----------------------|--------------------------|------------------------|
----------------------|--------------------------|------------------------|
----------------------|--------------------------|------------------------|
----------------------|--------------------------|------------------------|
----------------------|--------------------------|--11--10-9--8--5--2-2-2-|
--9--8-7--6--3--0-0-0-|--3p-0-0-3p-0-0-6p-0-7p-0-|---9---8-7--6--3--0-0-0-|


   E   S E  E  E  S S S     E   S E  E  E  S S S
------------------------|------------------------|
------------------------|------------------------|
------------------------|------------------------|
------------------------|------------------------|
------------------------|------------------------|
--11--10-9--8--5--2-2-2-|--11--10-9--8--5--2-2-2-|
---9---8-7--6--3--0-0-0-|---9---8-7--6--3--0-0-0-|


  S  S S  S S S  S S  S S  S S    S  S S  S S S  S S  S  S  S S
-------------------------------|--------------------------------|
-------------------------------|--------------------------------|
-------------------------------|--------------------------------|
-------------------------------|--------------------------------|
-------------------------------|--------------------------------|
-------------------------------|--------------------------------|
--6p-0-7p-0-0-6p-0-7p-0-9p-0-0-|--7p-0-9p-0-0-7p-0-9p-0-10p-0-0-|


  S   E   E  S E.   E  S    S S E  E.   S S S E     E   S S S S S
-------------------------|-----------------------|----------------|
--9h-10~--9--7-9~---7----|--6-7------------------|--7--10-7-9-----|
-----------------------7-|------7--6~-------6-7--|------------7---|
-------------------------|--------------9--------|--------------9-|
-------------------------|-----------------------|----------------|
-------------------------|-----------------------|----------------|
-------------------------|-----------------------|----------------|


  S   E   E  S E.   E  S    S S E  E.   S S S E     E   S S S S S  S S S S S
-------------------------|-----------------------|---------------------------|
--9h-10~--9--7-9~---7----|--6-7------------------|--7--10-7-9-----10-7-9-----|
-----------------------7-|------7--6~-------6-7--|------------7----------7---|
-------------------------|--------------9--------|--------------9----------9-|
-------------------------|-----------------------|---------------------------|
-------------------------|-----------------------|---------------------------|
-------------------------|-----------------------|---------------------------|


   E   S  E   E   E  S S S     E   S  E   E   E   S  S  S
--16--15-14--13--10--7-7-7-|--19--18-17--16--13--10-10-10-|
---------------------------|------------------------------|
---------------------------|------------------------------|
---------------------------|------------------------------|
---------------------------|------------------------------|
---------------------------|------------------------------|
---------------------------|------------------------------|


   E   S  E   E   E   S  S  S     S S  S S S  S S  S S S  S S  S S S
--22--21-20--19--16--13-13-13-|--------------------------------------|
------------------------------|--15-0-18-0-0-15-0-18-0-0-15-0-18-0-0-|
------------------------------|--------------------------------------|
------------------------------|--------------------------------------|
------------------------------|--------------------------------------|
------------------------------|--------------------------------------|
------------------------------|--------------------------------------|


   E   S  E   E   E  S S S     E   S  E   E   E   S  S  S
--16--15-14--13--10--7-7-7-|--19--18-17--16--13--10-10-10-|
---------------------------|------------------------------|
---------------------------|------------------------------|
---------------------------|------------------------------|
---------------------------|------------------------------|
---------------------------|------------------------------|
---------------------------|------------------------------|


   E   S  E   E   E   S  S  S     S  S  S  S  S  S  S  S  S  S  S  S  S  S  S
--22--21-20--19--16--13-13-13-|--16-13----13-16-19-16----16-19-22-19----19-22-|
------------------------------|--------15-------------18-------------21-------|
------------------------------|-----------------------------------------------|
------------------------------|-----------------------------------------------|
------------------------------|-----------------------------------------------|
------------------------------|-----------------------------------------------|
------------------------------|-----------------------------------------------|


  PM PM PM   PM   PM PM PM PM PM PM PM   PM   PM PM PM PM
  S  S  S  S S  S S  S  S  S  S  S  S  S S  S S  S  S  S
----------------------------------------------------------|
----------------------------------------------------------|
----------------------------------------------------------|
----------------------------------------------------------|
----------------------------------------------------------|
--------1--2----1-------------------1--2----1-------------|
--3--4-------4----3--4--3--0--3--4-------4----3--4--3--0--|


  PM PM PM   PM   PM PM PM PM PM PM PM   PM   PM PM PM PM
  S  S  S  S S  S S  S  S  S  S  S  S  S S  S S  S  S  S
----------------------------------------------------------|
----------------------------------------------------------|
----------------------------------------------------------|
----------------------------------------------------------|
----------------------------------------------------------|
--------4--5----4-------------------4--5----4-------------|
--6--7-------7----6--7--6--0--6--7-------7----6--7--6--0--|


  PM PM PM   PM   PM PM PM PM PM PM PM   PM   PM PM PM PM
  S  S  S  S S  S S  S  S  S  S  S  S  S S  S S  S  S  S
----------------------------------------------------------|
----------------------------------------------------------|
----------------------------------------------------------|
----------------------------------------------------------|
----------------------------------------------------------|
--------1--2----1-------------------1--2----1-------------|
--3--4-------4----3--4--3--0--3--4-------4----3--4--3--0--|


  PM PM PM   PM   PM PM PM PM PM PM
  S  S  S  S S  S S  S  S  S  S  S  S S S S S S S S    E  E  E.  E.
----------------------------------------------------|----------------|
----------------------------------------------------|----------------|
----------------------------------------------------|----------------|
----------------------------------------------------|----------------|
----------------------------------------------------|----------------|
--------4--5----4-------------------4-5---4---------|--2--1----------|
--6--7-------7----6--7--6--0--6--7------7---6-7-6-0-|--------3---0---|


  E  E  E.  E  E  E     E  E  E.  E.     E  E  E.  E  E  E     E  E  E.  E.
---------------------|----------------|---------------------|----------------|
---------------------|----------------|---------------------|----------------|
---------------------|----------------|---------------------|----------------|
---------------------|----------------|---------------------|----------------|
---------------------|----------------|---------------------|----------------|
--2--1---------------|--2--1----------|--2--1---------------|--5--4----------|
--------3---4--3--0--|--------3---0---|--------3---4--3--0--|--------6---0---|


  E  E  E.  E  E  E     E  E  E.  E.     E  E  E.  E  E  E     E  E  E.  E.
---------------------|----------------|---------------------|----------------|
---------------------|----------------|---------------------|----------------|
---------------------|----------------|---------------------|----------------|
---------------------|----------------|---------------------|----------------|
---------------------|----------------|---------------------|----------------|
--5--4---------------|--5--4----------|--5--4---------------|--7--5----------|
--------6---7--6--0--|--------6---0---|--------6---7--6--0--|--------6---0---|


  E  E  E.  E  E  E     E  E   E.  E.     E  E   E.  E  E  E
---------------------|-----------------|----------------------|
---------------------|-----------------|----------------------|
---------------------|-----------------|----------------------|
---------------------|-----------------|----------------------|
---------------------|--6--------------|--6-------------------|
--7--5---------------|-----7-----------|-----7----------------|
--------6---3--4--0--|--------10---0---|--------10---6--7--0--|


  S S S S S S S S S S    S S S  S S S  S  S  S  S
----------------------|---------------------------|
----------------------|------------------10-12----|
----------------------|------8-10---8-10-------10-|
----------------7-9---|--7-9------9---------------|
------6-8---6-8-----8-|---------------------------|
----------7-----------|---------------------------|
--4-6-----------------|---------------------------|


   S S  S S S S S S S S S S S S S S    S S S S S S S S S S S S S S S S
------------------------------------|----------------------------------|
--10--------------------------------|----------------------------------|
-----8-10---8-----------------------|----------------------------------|
----------9---7-9---7---------------|----------------------------------|
------------------8---6-8---6-------|----------------------------------|
--------------------------7---5-7---|------4---4-------4---4-------5---|
----------------------------------6-|--0-3---3---3-0-3---3---3-0-6---6-|


  S S S S S S S S S S S S S S S S    S S S S S S S S S S S S S S S S
----------------------------------|----------------------------------|
----------------------------------|----------------------------------|
----------------------------------|----------------------------------|
----------------------------------|----------------------------------|
----------------------------------|----------------------------------|
------4---4-------4---4-------7---|------4---4-------4---4-------5---|
--0-3---3---3-0-3---3---3-0-6---6-|--0-3---3---3-0-3---3---3-0-6---6-|


  S S S S S S S S S S S S S S S S
----------------------------------|
----------------------------------|
----------------------------------|
----------------------------------|
----------------------------------|
------4---4-------4---4-------7---|
--0-3---3---3-0-3---3---3-0-6---6-|


  PM PM PM PM PM PM PM PM PM PM PM PM PM PM PM PM  PMPM PM PM PM PM PM PM
  S  S  S  S  S  S  S  S  S  S  S  S  S  S  S  S   S S  S  S  S  S  S  S
--------------------------------------------------------------------------|
--------------------------------------------------------------------------|
--------------------------------------------------------------------------|
--------------------------------------------------------------------------|
--------------------------------------------------------------------------|
--------------------------7--5--------------------------------------------|
--0--0--0--0--9--7--6--4--------9--7--6--4--7--9--12-0--0--0--0--0--0--0--|


  PM PM PM PM PM PM PM PM PM PM PM PM PM PM PM PM PM PM PM PM PM PM PM PM
  S  S  S  S  S  S  S  S  S  S  S  S  S  S  S  S  S  S  S  S  S  S  S  S
--------------------------------------------------------------------------|
--------------------------------------------------------------------------|
--------------------------------------------------------------------------|
--------------------------------------------------------------------------|
-----------------------4--2-----------------------------------------------|
--------4--5--4--------------5--4--2--1--2--4--5--4--2--1--2--4--2--4--2--|
--6--7-----------7--6-----------------------------------------------------|


  PM PM PM PM PM PM PM PM PM PM PM PM PM PM PM PM  PMPM PM PM PM PM PM PM
  S  S  S  S  S  S  S  S  S  S  S  S  S  S  S  S   S S  S  S  S  S  S  S
--------------------------------------------------------------------------|
--------------------------------------------------------------------------|
--------------------------------------------------------------------------|
--------------------------------------------------------------------------|
--------------------------------------------------------------------------|
--------------------------7--5--------------------------------------------|
--0--0--0--0--9--7--6--4--------9--7--6--4--7--9--12-0--0--0--0--0--0--0--|


  PM PM PM PM PM PM PM PM PM PM PM PM PM PM PM PM PM PM PM PM PM PM PM PM
  S  S  S  S  S  S  S  S  S  S  S  S  S  S  S  S  S  S  S  S  S  S  S  S
--------------------------------------------------------------------------|
--------------------------------------------------------------------------|
--------------------------------------------------------------------------|
--------------------------------------------------------------------------|
-----------------------4--2-----------------------------------------------|
--------4--5--4--------------5--4--2--1--2--4--5--4--2--1--2--4--2--4--2--|
--6--7-----------7--6-----------------------------------------------------|


  PM PM PM PM PM PM PM PM PM PM PM PM PM PM PM PM PM PM PM PM PM PM PM PM
  S  S  S  S  S  S  S  S  S  S  S  S  S  S  S  S  S  S  S  S  S  S  S  S
--------------------------------------------------------------------------|
--------------------------------------------------------------------------|
--------------------------------------------------------------------------|
--------------------------------------------------------------------------|
--------------------------------------------------------------------------|
--4--------4--5--4-----------4--5--4-----------4--------------------------|
-----6--7-----------7--6--5-----------7--6--7-----7--6--0--0--0--0--0--0--|


  PM PM PM PM PM PM PM PM PM PM PM PM PM PM PM PM PM PM PM PM PM PM PM PM
  S  S  S  S  S  S  S  S  S  S  S  S  S  S  S  S  S  S  S  S  S  S  S  S
--------------------------------------------------------------------------|
--------------------------------------------------------------------------|
--------------------------------------------------------------------------|
--------------------------------------------------------------------------|
-----------------------------4--------------------------------------------|
-----------4--5--4--------------7--5--4-----------4-----4--------------4--|
--7--6--7-----------7--6--7--------------7--6--7-----7-----7--6--6--7-----|


  PM PM PM PM PM PM PM PM PM PM PM PM PM PM PM PM PM PM PM PM PM PM PM PM
  S  S  S  S  S  S  S  S  S  S  S  S  S  S  S  S  S  S  S  S  S  S  S  S
--------------------------------------------------------------------------|
--------------------------------------------------------------------------|
--------------------------------------------------------------------------|
--------------------------------------------------------------------------|
--------------------------------------------------------------------------|
--4--------4--5--4-----------4--5--4-----------4--------------------------|
-----6--7-----------7--6--5-----------7--6--7-----7--6--0--0--0--0--0--0--|


  PM PM PM PM PM PM PM PM PM PM PM PM PM PM PM PM PM PM PM PM PM PM PM PM
  S  S  S  S  S  S  S  S  S  S  S  S  S  S  S  S  S  S  S  S  S  S  S  S
--------------------------------------------------------------------------|
--------------------------------------------------------------------------|
--------------------------------------------------------------------------|
--------------------------------------------------------------------------|
-----------------------------4--------------------------------------------|
-----------4--5--4--------------7--5--4-----------4-----4--------------4--|
--7--6--7-----------7--6--7--------------7--6--7-----7-----7--6--6--7-----|


  PM PM PM PM PM PM PM PM PM PM PM PM PM PM PM PM PM PM PM PM PM PM PM PM
  S  S  S  S  S  S  S  S  S  S  S  S  S  S  S  S  S  S  S  S  S  S  S  S
--------------------------------------------------------------------------|
--------------------------------------------------------------------------|
--------------------------------------------------------------------------|
--------------------------------------------------------------------------|
--------------------------------------------------------------------------|
--4--------4--5--4-----------4--5--4-----------4--------------------------|
-----6--7-----------7--6--5-----------7--6--7-----7--6--0--0--0--0--0--0--|


  PM PM PM PM PM PM PM PM PM PM PM PM PM PM PM PM PM PM PM PM PM PM PM PM
  S  S  S  S  S  S  S  S  S  S  S  S  S  S  S  S  S  S  S  S  S  S  S  S
--------------------------------------------------------------------------|
--------------------------------------------------------------------------|
--------------------------------------------------------------------------|
--------------------------------------------------------------------------|
-----------------------------4--------------------------------------------|
-----------4--5--4--------------7--5--4-----------4-----4--------------4--|
--7--6--7-----------7--6--7--------------7--6--7-----7-----7--6--6--7-----|


  PM PM PM PM PM PM PM PM PM PM PM PM PM PM PM PM PM PM PM PM PM PM PM PM
  S  S  S  S  S  S  S  S  S  S  S  S  S  S  S  S  S  S  S  S  S  S  S  S
--------------------------------------------------------------------------|
--------------------------------------------------------------------------|
--------------------------------------------------------------------------|
--------------------------------------------------------------------------|
--------------------------------------------------------------------------|
--4--------4--5--4-----------4--5--4-----------4--------------------------|
-----6--7-----------7--6--5-----------7--6--7-----7--6--0--0--0--0--0--0--|


  PM PM PM PM PM PM PM PM PM PM PM PM PM PM PM PM PM PM PM PM PM PM PM PM
  S  S  S  S  S  S  S  S  S  S  S  S  S  S  S  S  S  S  S  S  S  S  S  S
--------------------------------------------------------------------------|
--------------------------------------------------------------------------|
--------------------------------------------------------------------------|
--------------------------------------------------------------------------|
-----------------------------4--------------------------------------------|
-----------4--5--4--------------7--5--4-----------4-----4--------------4--|
--7--6--7-----------7--6--7--------------7--6--7-----7-----7--6--6--7-----|


  S. S. S. S. S. S. S. S. S. S. S. S. S. S. S. S.
--------------------------------------------------|
--------------------------------------------------|
--------------------------------------------------|
--------------------------------------------------|
--------------------------------------------------|
--------4-----4-----------4-----4-----------5-----|
--0--3-----3-----3--0--3-----3-----3--0--3-----6--|


  S. S. S. S. S. S. S. S. S. S. S. S. S. S. S. S.
--------------------------------------------------|
--------------------------------------------------|
--------------------------------------------------|
--------------------------------------------------|
--------------------------------------------------|
--------4-----4-----------4-----4-----------7-----|
--0--3-----3-----3--0--3-----3-----3--0--3-----6--|


  PM PM PM PM PM PM PM PM PM PM PM PM PM PM PM PM PM PM PM PM PM PM PM PM
  S  S  S  S  S  S  S  S  S  S  S  S  S  S  S  S  S  S  S  S  S  S  S  S
--------------------------------------------------------------------------|
--------------------------------------------------------------------------|
--------------------------------------------------------------------------|
--------------------------------------------------------------------------|
--------------------------------------------------------------------------|
--4--------4--5--4-----------4--5--4-----------4--------------------------|
-----6--7-----------7--6--5-----------7--6--7-----7--6--0--0--0--0--0--0--|


  PM PM PM PM PM PM PM PM PM PM PM PM PM PM PM PM PM PM PM PM PM PM PM PM
  S  S  S  S  S  S  S  S  S  S  S  S  S  S  S  S  S  S  S  S  S  S  S  S
--------------------------------------------------------------------------|
--------------------------------------------------------------------------|
--------------------------------------------------------------------------|
--------------------------------------------------------------------------|
-----------------------------4--------------------------------------------|
-----------4--5--4--------------7--5--4-----------4-----4--------------4--|
--7--6--7-----------7--6--7--------------7--6--7-----7-----7--6--6--7-----|


  PM PM PM PM PM PM PM PM PM PM PM PM PM PM PM PM PM PM PM PM PM PM PM PM
  S  S  S  S  S  S  S  S  S  S  S  S  S  S  S  S  S  S  S  S  S  S  S  S
--------------------------------------------------------------------------|
--------------------------------------------------------------------------|
--------------------------------------------------------------------------|
--------------------------------------------------------------------------|
--------------------------------------------------------------------------|
--4--------4--5--4-----------4--5--4-----------4--------------------------|
-----6--7-----------7--6--5-----------7--6--7-----7--6--0--0--0--0--0--0--|


  PM PM PM PM PM PM PM PM PM PM PM PM PM PM PM PM PM PM PM PM PM PM PM PM
  S  S  S  S  S  S  S  S  S  S  S  S  S  S  S  S  S  S  S  S  S  S  S  S
--------------------------------------------------------------------------|
--------------------------------------------------------------------------|
--------------------------------------------------------------------------|
--------------------------------------------------------------------------|
-----------------------------4--------------------------------------------|
-----------4--5--4--------------7--5--4-----------4-----4--------------4--|
--7--6--7-----------7--6--7--------------7--6--7-----7-----7--6--6--7-----|


  S. S. S. S. S. S. S. S. S. S. S. S. S. S. S. S.
--------------------------------------------------|
--------------------------------------------------|
--------------------------------------------------|
--------------------------------------------------|
--------------------------------------------------|
--------4-----4-----------4-----4-----------5-----|
--0--3-----3-----3--0--3-----3-----3--0--3-----6--|


  S. S. S. S. S. S. S. S. S. S. S. S. S. S. S. S.
--------------------------------------------------|
--------------------------------------------------|
--------------------------------------------------|
--------------------------------------------------|
--------------------------------------------------|
--------4-----4-----------4-----4-----------7-----|
--0--3-----3-----3--0--3-----3-----3--0--3-----6--|


  S. S. S. S. S. S. S. S. S. S. S. S. S. S. S. S.
--------------------------------------------------|
--------------------------------------------------|
--------------------------------------------------|
--------------------------------------------------|
--------------------------------------------------|
--------4-----4-----------4-----4-----------5-----|
--0--3-----3-----3--0--3-----3-----3--0--3-----6--|


  S. S. S. S. S. S. S. S. S. S. S. S. S. S. S. S.    H
--------------------------------------------------|-----------|
--------------------------------------------------|-----------|
--------------------------------------------------|-----------|
--------------------------------------------------|-----------|
--------------------------------------------------|--2--------|
--------4-----4-----------4-----4-----------7-----|--2--------|
--0--3-----3-----3--0--3-----3-----3--0--3-----6--|--0--------|


                                             PM PM PM PM PM PM
                                             |--3--|  |--3--|
  S S E  E  S S S S S S S S S S    S S E  E  S  S  S  E  E  E  Q
--------------------------------|-----------------------------------|
--------------------------------|-----------------------------------|
--------------------------------|-----------------------------------|
--------------------------------|------------------------------6----|
--------------------------------|------------------------------5----|
--------------------4-5---4-----|------------------------------4----|
--7-6-0-----0-0-6-7-----7---6-0-|--7-6-0-----0--0--0--0--0--0-------|


                                             PM PM PM PM    PM
  S S E  E  S S S S S S S S S S    S S E  E  S  S  S  S  E  S  S S S
--------------------------------|------------------------------------|
--------------------------------|------------------------------------|
--------------------------------|------------------------------------|
--------------------------------|------------------------7-----------|
--------------------------------|------------------------6-----------|
--------------------4-5---4-----|------------------------5-----4-----|
--7-6-0-----0-0-6-7-----7---6-0-|--7-6-0-----0--0--0--0-----0----2-0-|


  S S E  E  S S S S S S S S S S
--------------------------------|
--------------------------------|
--------------------------------|
--------------------------------|
--------------------------------|
--------------------1-2---1-----|
--7-6-0-----0-0-3-4-----4---3-0-|


            PM PM PM PM PM PM    PM PM PM
            |--3--|  |--3--|     |--3--|
  S S E  E  S  S  S  E  E  E  E  S  S  S  E.  S     Q.      S  S  E   Q    E
-------------------------------------------------|----------------------------|
-------------------------------------------------|----------------------------|
-------------------------------------------------|----------------------------|
------------------------------6-----------7---L\-|---------12-12-12--11----9--|
------------------------------5-----------6---L\-|--2-------------------------|
------------------------------4-----------5---L\-|--2------10-10-10---9----7--|
--4-3-0-----0--0--0--0--0--0-----0--0--0---------|--0-------------------------|


  |----3----|
  Q    Q    Q    Q    Q       Q.      S  S  E   Q    E
---------------------------|----------------------------|
---------------------------|----------------------------|
---------------------------|----------------------------|
---------------------------|---------12-12-12--11--
23 comments total. Showing first comments.
-1 reply
HULK BLOOD wrote on June 9 2007, 06:32 am

PLEASE DO NOT COPY THIS TAB TO ANOTHER SITE
WITHOUT AUTHORS' PERMISSION. THANK YOU.
tar.

0 reply
moliver777 wrote on June 11 2007, 10:11 am

One or two wrong notes and a few parts that could be placed better on the fingerboard for actual playing but in essence a great tab. The best Dark Eternal Night tab I've seen yet. 5*

0 reply
dale-banez wrote on June 11 2007, 09:50 pm

THANK YOU! I can never figure out these songs with such a low tuning

I want to post or [tab]
guest
You may want to rate the tab now too:
select rating
Please do not post tabs as comments. Select "correction" instead!