Oops, an error
Loading. Please wait.

Disappear Tab

ver2
ver2

Whole song

More versions @911Tabs.com
6,527 views 15 this week
no commentswrite comment
1 2 3 4 5
excellent!
x 5
Autoscroll
+/-
esc
set tempo
stop
Contributor
WARNING: You are trying to view
                                    content from Ultimate-Guitar.com
                                    in an unauthorized application,
                                    which is prohibited.

                                    Please use an official Ultimate
                                    Guitar Tabs application for iPhone,
                                    iPad or Android to access legitimate
                                    chords, guitar, bass, and drum tabs
                                    from Ultimate-Guitar.com database.

                                    Type "ultimate guitar tabs" in Apple
                                    App Store's or Android Market's
                                    search to find the application.
This is not my work, I took most of this from a power tab file.

Three guitars

Gtr. 1 (Acoustic)
Gtr. 2 (Distorted)
Gtr. 3 (Lead)

All in EADBGE

(00:00-00:34)- Intro--------------------------

Keyboard only

(00:35-00:57)

Gtr. 1 (Acoustic)---------------------------------

Dm | G/B | Am | Am/G

Dm | G/B | Am | C

(00:58-2:05)-Verse 1----------------------------------

Vocals come in
Guitar 1 (Acoustic)
(3x)

Dm | G/B | Am | Am/G

Dm | G/B | Am | C

(2:06-2:36)-Interlude-----------------------------------

"A day like today.."
Interlude, Keyboard only

(2:37-2:48)---------------------------------------------------

Intro is repeated with guitar
Gtr. 3 (Lead)
E|-------------|----------------|-------------------|------------------|
B|---5--6/17---|--14\5--6--8----|--5--6/17--20--18--|--10--11--8----6--|
G|-------------|----------------|-------------------|------------------|
D|-------------|----------------|-------------------|------------------|
A|-------------|----------------|-------------------|------------------|
E|-------------|----------------|-------------------|------------------|

(2:48-3:55)-Verse 2----------------------------------

Vocals come back in
(3x)
Gtr. 1 (Acoustic)

Dm | G/B | Am | Am/G

Dm | G/B | Am | C

(3:56-4:26)Interlude-----------------------------------

Two guitars here

    "Days disappear.."                "and my"
Gtr. 2 (Distorted)
 | F5          |                | E5                |                  |
Gtr. 3 (Lead)  |                |                   |                  |
E|-------------|----------------|-------------------|------------------|
B|-------------|----------------|-------------------|------------------|
G|-10----------|----------------|-9-----------------|------------------|
D|-------------|----------------|-------------------|------------------|
A|-------------|----------------|-------------------|------------------|
E|-------------|----------------|-------------------|------------------|

   "world keeps"                         "changing.."

 |  Am         |                | Em                |                  |
 |             |                |                   |                  |
E|-------------|----------------|-------------------|------------------|
B|-------------|----------------|-------------------|------------------|
G|-/14---------|----------------|-12----------------|------------------|
D|-------------|----------------|-------------------|------------------|
A|-------------|----------------|-------------------|------------------|
E|-------------|----------------|-------------------|------------------|

                   "I feel you      here" 

 | F5          |                | Bb                |                  |
 |             |                |                   |                  |
E|-------------|----------------|-------------------|------------------|
B|-------------|----------------|-------------------|------------------|
G|-10----------|----------------|-------------------|------------------|
D|-------------|----------------|-------------------|------------------|
A|-------------|----------------|-------------------|------------------|
E|-------------|----------------|-------------------|------------------|

   "keeps           me            sane"

 | E5          |                | F5                |                  | 
 |             |                |                   |                  |
E|-------------|----------------|-------------------|------------------|
B|-------------|----------------|-------------------|------------------|
G|-9-----------|-/1-------------|-2-----------------|------------------|
D|-------------|----------------|-------------------|------------------|
A|-------------|----------------|-------------------|------------------|
E|-------------|----------------|-------------------|------------------|

 | B           | F7             |
 |                              |
E|-------------|----------------|
B|-------------|----------------|
G|-4-----------|-5--------------|
D|-------------|----------------|
A|-------------|----------------|
E|-------------|----------------|

(4:26-5:42)------------------------------------------

Band enters, All 3 guitars here

 1.          "so I'm moving       on"                  "I'll never for-
 2.              "accepting the   end.."               "I knew you were
 3.            "I gave you my     hand,           I     said it's o-"
Gtr. 1 
 | Bbm         |                | Gbmaj7            |                  |
Gtr. 2
E|-------------|----------------|-------------------|------------------|
B|-------------|----------------|-------------------|------------------|
G|.-6----------|-/10-\-8--6-----|--/10--------------|--/10-\-8--6------|
D|.------------|----------------|-------------------|------------------|
A|-------------|----------------|-------------------|------------------|
E|-------------|----------------|-------------------|------------------|
Gtr. 3                                                                 |
E|-------------|----------------|-------------------|------------------|
B|-------------|----------------|-------------------|------------------|
G|.------------|----------------|-------------------|------------------|
D|.3-----------|----------------|-------------------|------------------|
A|-1-----------|----------------|--4----------------|------------------|
E|-------------|----------------|--2----------------|------------------|

  1. -get"               "As you   laid there,         watching.."
  2. "scared           You were   strong, I was trying.."
  3. "kay, letting go, time to    leave               here"
 | Db          |                | Fm/C              | Ab               |
 |                                                                     |
E|-------------|----------------|-------------------|------------------|
B|-------------|----------------|-------------------|------------------|
G|-/10---------|--/10--11--10---|-/10---------------|--8--------------.|
D|-------------|----------------|-------------------|-----------------.|
A|-------------|----------------|-------------------|------------------|
E|-------------|----------------|-------------------|------------------|
 |                                                                     |
 |                                                                     |
E|-------------|----------------|-------------------|------------------|
B|-------------|----------------|-------------------|------------------|
G|-------------|----------------|-------------------|-----------------.|
D|-6-----------|----------------|-------------------|-----------------.|
A|-4-----------|----------------|-3-----------------|--6---------------|
E|-------------|----------------|-1-----------------|--4---------------|

^^^(repeat 3x)^^^^

             "And I'll carry        on"       "the best that I

 | Bbm         |                | Gbmaj7            |                  |
 |                                                                     |
E|-------------|----------------|-------------------|------------------|
B|-------------|----------------|-------------------|------------------|
G|--6----------|-/10-\-8--6-----|--/10--------------|--/10-\-8--6------|
D|-------------|----------------|-------------------|------------------|
A|-------------|----------------|-------------------|------------------|
E|-------------|----------------|-------------------|------------------|
 |                                                                     |
 |                                                                     |
E|-------------|----------------|-------------------|------------------|
B|-------------|----------------|-------------------|------------------|
G|-------------|----------------|-------------------|------------------|
D|-3-----------|----------------|-------------------|------------------|
A|-1-----------|----------------|--4----------------|------------------|
E|-------------|----------------|--2----------------|------------------|

   "can, without you here be-      side              me"

 | Db          |                | F7/A              |                  |
 |             |                |                   |                  |
E|-------------|----------------|-------------------|------------------|
B|-------------|----------------|-------------------|------------------|
G|--/10--------|-/10--11--10----|--\2~~~~-----------|------------------|
D|-------------|----------------|-------------------|------------------|
A|-------------|----------------|-------------------|------------------|
E|-------------|----------------|-------------------|------------------|
 |                                                                     |
 |                                                                     |
E|-------------|----------------|-------------------|------------------|
B|-------------|----------------|-------------------|------------------|
G|-------------|----------------|--/10--------------|-8----------------|
D|-6-----------|----------------|-------------------|------------------|
A|-4-----------|----------------|-------------------|------------------|
E|-------------|----------------|-------------------|------------------|

                  "let him come   take..              you
 
 | Db/Ab       |                | Gb                |                  |
 |                                                                     |
E|-------------|----------------|-------------------|------------------|
B|-------------|----------------|-------------------|------------------|
G|-------------|----------------|-------------------|------------------|
D|-------------|----------------|-------------------|-------------1----|
A|-------------|----------------|-------------------|------1-----------|
E|-------------|----------------|-------------------|------------------|
 |                                                                     |
 |                                                                     |
E|-------------|----------------|-------------------|------------------|
B|-------------|----------------|-------------------|------------------|
G|-6-----------|----------------|-------------------|------------------|
D|-6-----------|----------------|-------------------|--4~~~------------|
A|-4-----------|----------------|--4----------------|------------------|
E|-4-----------|----------------|--2----------------|------------------|


    "home"

 | F7          |                | Bbm               | Cm7b5            |
 |             |                |                   |                  |
E|-------------|----------------|-------------------|------------------|
B|-------------|----------------|-------------------|------------------|
G|-------------|----------------|-6-----------------|-8----------------|
D|-3-----------|----------------|-------------------|------------------|
A|-------------|----------------|-------------------|------------------|
E|-------------|----------------|-------------------|------------------|
 |                                                                     |
 |                                                                     |
E|-------------|----------------|-------------------|------------------|
B|-------------|----------------|-------------------|------------------|
G|-------------|----------------|-6-----------------|-8----------------|
D|-3-----------|----------------|-------------------|------------------|
A|-3-----------|----------------|-------------------|------------------|
E|-1-----------|----------------|-------------------|------------------|



 | F7          |
 |             |
E|-------------|
B|-------------|
G|-10----------|
D|-------------|
A|-------------|
E|-------------|
 |             |
 |             |
E|-------------|
B|-------------|
G|-5-----------|
D|-------------|
A|-------------|
E|-------------|



(5:43-6:47)-----------------------------------------------------------

Gtr. 3 (Lead)
E|-------------|----------------|-------------------|------------------|
B|---5--6/17---|--14\5--6--8----|--5--6/17--20--18--|--10--11--8----6--|
G|-------------|----------------|-------------------|------------------|
D|-------------|----------------|-------------------|------------------|
A|-------------|----------------|-------------------|------------------|
E|-------------|----------------|-------------------|------------------|

(repeat 3x)


E|-------------|----------------|-------------------|------------------|
B|---5--6/17---|--14\5--6--8----|--5--6/17--20--18--|--10--11--8----6--|
G|-------------|----------------|-------------------|------------------|
D|-------------|----------------|-------------------|------------------|
A|-------------|----------------|-------------------|------------------|
E|-------------|----------------|-------------------|------------------|


E|-------------|
B|-------------|
G|-\3----------|
D|-------------|
A|-------------|
E|-------------|

-------------------------------------------------------------------

Chord voicings:

   Dm   Bbm   G/B  Am  Am/G  C   F5  E5  Em  Bb  B  F7  Gbmaj7  Db
E|-1----1-----3----0----0----0---x---x---0---x---x---1---x------x--|
B|-3----2-----3----1----1----1---x---x---0---3---4---1---2------6--|
G|-2----3-----0----2----2----0---x---x---0---3---4---2---3------6--|
D|-0----3-----0----2----2----2---3---2---2---3---4---1---3------6--|
A|-x----1-----2----0----x----3---3---2---2---1---2---3---x------4--|
E|-x----x-----x----x----3----x---1---0---0---x---x---1---2------x--|

   Fm/C  Ab  F7/A  Db/Ab  Gb    Cm7b5
E|-1----(4)---x------x----2------x--------------|
B|-1----(4)---6------6----2------4--------------|
G|-1-----5----8------6----3------3--------------|
D|-3-----6----7------6----4------4--------------|
A|-3-----6----0------4----4------3--------------|
E|-x-----4----x------4----2------x--------------|
I want to post or [tab]
guest
You may want to rate the tab now too:
select rating
Please do not post tabs as comments. Select "correction" instead!