Oops, an error
Loading. Please wait.

Dont Look Past Me Tab

ver1
ver1

Intro

Whole song

Interactive

More versions @911Tabs.com
443 views 3 this week
no commentswrite comment
1 2 3 4 5
please rate
Autoscroll
+/-
esc
set tempo
stop
Contributor
Hey! There's an official Ultimate Guitar app which is ideal
for learning songs when you're away from computer. Get the app
WARNING: You are trying to view
                                    content from Ultimate-Guitar.com
                                    in an unauthorized application,
                                    which is prohibited.

                                    Please use an official Ultimate
                                    Guitar Tabs application for iPhone,
                                    iPad or Android to access legitimate
                                    chords, guitar, bass, and drum tabs
                                    from Ultimate-Guitar.com database.

                                    Type "ultimate guitar tabs" in Apple
                                    App Store's or Android Market's
                                    search to find the application.
Band- Dream Theater
Song- Don't Look Past Me

E||------|-------------------|------------------|-------------------|
B||------|-------------------|------------------|-------------------|
G||------|--2----------------|------------------|-------------------|
D||------|--2----------------|------------------|--6----------------|
A||------|--0----------------|------------------|--7----------------|
E||------|-------------------|------------------|--4----------------|


                                                                              
------------------|-------------------|------------------|-------------------|
------------------|-------------------|------------------|-------------------|
------------------|-------------------|------------------|-------------------|
------------------|--5----------------|------------------|--8----------------|
------------------|--5----------------|------------------|--8----------------|
------------------|--3----------------|------------------|--6----------------|


                                                                               
-------------------|-------------------|------------------|-------------------|
-------------------|--3----------------|------------------|-------------------|
--5----------------|--2----------------|------------------|--5----------------|
--5----------------|--0----------------|------------------|--5----------------|
--3----------------|-------------------|------------------|--3----------------|
-------------------|-------------------|------------------|-------------------|


                                                                              
------------------|--3----------------|------------------|-------------------|
------------------|--3----------------|------------------|--6----------------|
------------------|--0----------------|------------------|--5----------------|
------------------|-------------------|------------------|--3----------------|
------------------|-------------------|------------------|-------------------|
------------------|-------------------|------------------|-------------------|


                                                       
------------------|-----------------------------------|
------------------|--5--------------------------------|
------------------|--6--------------------------------|
------------------|--7--------------------------------|
------------------|-----------------------------------|
------------------|-----------------------------------|


                                                                        
-----------------------------------|-----------------------------------|
--5--------------------------------|--3--------------------------------|
--4--------------------------------|--4--------------------------------|
--6--------------------------------|--5--------------------------------|
-----------------------------------|-----------------------------------|
-----------------------------------|-----------------------------------|


                                                                            
-------------------|-------------------|-----------------------------------|
--3----------------|--5----------------|--7--------------------------------|
--3----------------|--5----------------|--7--------------------------------|
--3----------------|--5----------------|--7--------------------------------|
-------------------|-------------------|-----------------------------------|
-------------------|-------------------|-----------------------------------|


                                                                        
-----------------------------------|-----------------------------------|
--5--------------------------------|--3--------------------------------|
--5--------------------------------|--4--------------------------------|
--5--------------------------------|--5--------------------------------|
-----------------------------------|-----------------------------------|
-----------------------------------|-----------------------------------|


                                    
-----------------------------------|
--1--------------------------------|
--2--------------------------------|
--3--------------------------------|
-----------------------------------|
-----------------------------------|


                                                   
--------------------------------------------------|
-----------------------------------------2--------|
--2--------7-----6-----------4--------4--2--------|
--2--------7-----7-----------7--------7-----2-----|
--0--0--0--0--0--0--0--0--0--0--0--0--0-----0--0--|
--------------------------------------------------|


                                                  
-------------------------------------------------|
-------------------------------------------------|
-------------------------------------------------|
--6--------6-----6-----------6--------7--6-------|
--7--------7-----7-----------7--------7-----7----|
--4--4--4--4--4--4--4--4--4--4--4--4--4----------|


                                                   
--------------------------------------------------|
------------8-----7-----------5--------5--7-------|
--7---------7-----7-----------7--------7-----7----|
--0---------0-----0-----------0--------0-----7----|
--10--5--5-----5-----5--5--5-----5--5-------------|
--------------------------------------------------|


                                                        
-------------------------------------------------------|
-------------------------------------------------------|
-------------------------------------------------------|
--8--------10------8------------10---------10----10----|
--8--------8-------8------------10--10-----10----10----|
--6--6--6--6---6-6-6--6-6-6--8----------8--8-----8-----|


                                                      
-----------------------------------------------------|
--7---------8------7------------5--------5--7--------|
--x---------7------7------------7--------5-----7-----|
--7---7--7--7--7-7-7--7--7--7-7-7--7--7--7--------7--|
--9--------------------------------------------------|
--10-------------------------------------------------|


                                                             
------------------------------------------------------------|
------------------------------------------8-----------------|
--11--9-------9------11--------9---11-----0-------11--------|
--10--10------10-----10--------10--10-----10------10--------|
--10--10------10-----10--------10--10-----x-------10--------|
--8---8---8-8-8---8--8---8--8--8---8---8--8---8-8-8---8--8--|


                                             
------------------5-----------3----2--------|
----------8----------------3----------5--3--|
---------------7----------------------------|
--12----------------------------------------|
--12----------------------------------------|
--10----------------------------------------|


                                                                          
--3----------3------3----------------|-----------------------------------|
--x----------x------x----------------|-----------------------------------|
--5----------5------5----------------|--4--------------------------------|
--5----------5------5----------------|--4--------------------------------|
--3----------3------3----------------|--2--------------------------------|
-------------------------------------|-----------------------------------|


                                                                            
------------------|------------------|------------------|------------------|
------------------|------------------|------------------|------------------|
------------------|------------------|------------------|------------------|
------------------|------------------|------------------|------------------|
------------------|------------------|------------------|------------------|
------------------|------------------|------------------|------------------|


                                                                            
------------------|------------------|------------------|------------------|
------------------|------------------|------------------|------------------|
------------------|------------------|------------------|------------------|
------------------|------------------|------------------|------------------|
------------------|------------------|------------------|------------------|
------------------|------------------|------------------|------------------|


                                                                            
------------------|------------------|------------------|------------------|
------------------|------------------|------------------|------------------|
------------------|------------------|------------------|------------------|
------------------|------------------|------------------|------------------|
------------------|------------------|------------------|------------------|
------------------|------------------|------------------|------------------|


                                                                            
------------------|------------------|------------------|------------------|
------------------|------------------|------------------|------------------|
------------------|------------------|------------------|------------------|
------------------|------------------|------------------|------------------|
------------------|------------------|------------------|------------------|
------------------|------------------|------------------|------------------|


                                                                            
------------------|------------------|------------------|------------------|
------------------|------------------|------------------|------------------|
------------------|------------------|------------------|------------------|
------------------|------------------|------------------|------------------|
------------------|------------------|------------------|------------------|
------------------|------------------|------------------|------------------|


                                                         
------------------|------------------|------------------|
------------------|------------------|------------------|
------------------|------------------|------------------|
------------------|------------------|------------------|
------------------|------------------|------------------|
------------------|------------------|------------------|


                                                         
--2--------0------2--------|--3--2------0------2--------|
--3--------3------3--------|--3--3------3------3--5--3--|
--2----2-2-2--2-2-2--2--2--|--2--2--2-2-2--2-2-2--2-----|
---------------------------|----------------------------|
---------------------------|----------------------------|
---------------------------|----------------------------|


                                                                              
--2---------------2--------|-----2-----3------2--------|---------------------|
--x--5------5-----x--------|--5--x-----x------x--------|--3--------------3-3-|
--5--5------5-----5--------|--5--5-----5------5--------|--2------------------|
--5--5------5-----5--------|--5--5-----5------5--------|---------------------|
--3--3--3-3-3--3--3--3--3--|--3--3--3--3--3-3-3--3--3--|---------------------|
---------------------------|---------------------------|--3------------------|


                                                                            
--3-3-----3-3-----5-5-----3-3-----|--3----------5------|--3----------------|
------3-3-----3-3-----3-3-----3-3-|--x----------x------|--x----------------|
----------------------------------|--5----------5------|--5----------------|
----------------------------------|--5----------5------|--5----------------|
----------------------------------|--3----------3------|--3----------------|
----------------------------------|--------------------|-------------------|


                                                                                
--------------|--------------|--------------|--------------|-------------------|
--------3-----|--------3-----|--------3-----|--------3-----|-------------------|
-----2-----2--|--0--2-----2--|-----2-----2--|--0--2-----2--|-------------------|
--4-----------|--------------|--2-----------|--------------|--0----------------|
--------------|--------------|--------------|--------------|--0----------------|
--------------|--------------|--------------|--------------|-------------------|


                                                                            
------------------|------------------|------------------|------------------|
------------------|------------------|------------------|------------------|
------------------|------------------|------------------|------------------|
------------------|------------------|------------------|------------------|
------------------|------------------|------------------|------------------|
------------------|------------------|------------------|------------------|


                                                         
------------------|------------------|------------------|
------------------|------------------|------------------|
------------------|------------------|------------------|
------------------|------------------|------------------|
------------------|------------------|------------------|
------------------|------------------|------------------|


                                                                             
-----------------------------------|--19------------------------------------|
--3--------------------------------|----------20----------------------------|
--2--------------------------------|----------------------------------------|
--0--------------------------------|------------------19--------------------|
-----------------------------------|----------------------------------------|
-----------------------------------|----------------------------------------|


                                                                              
----------------------------------------|-------------------7----------------|
----------------------20----------------|--3---------------------------------|
----------------------------------------|--2---------------------------------|
--21------------------------------------|--0---------------------------------|
----------22----------------------------|------------------------------------|
----------------------------------------|------------------------------------|


                                                         
----------------------------|---------------------------|
---------------7------5--3--|---------------8--7--5--3--|
--------7-------------------|--------7------------------|
--5--7-----7-7----7-7-------|--5--7-----7-7-------------|
----------------------------|---------------------------|
----------------------------|---------------------------|


                                                        
--------0-----3------2-----|--------------3------2-----|
-----1-----1-----1-1----5--|--------5--------1-1----5--|
--2------------------------|-----5-----5---------------|
---------------------------|--7------------------------|
---------------------------|---------------------------|
---------------------------|---------------------------|


                                                        
--------------3------2-----|--------------3------2-----|
--------3---------------5--|--------3--------3-3----5--|
-----4-----4-----4-4-------|-----3-----3---------------|
--5------------------------|--5------------------------|
---------------------------|---------------------------|
---------------------------|---------------------------|


                                                            
--------------5-------------|--------5-----10------14------|
---------------------8------|--7--------7------10------15--|
--------7-------------------|-----7------------------------|
--5--7-----7-----7-7----7-7-|------------------------------|
----------------------------|------------------------------|
----------------------------|------------------------------|


                                                                              
--------------------------------------|--------------------------------------|
--------------------------------------|--------------------------------------|
--------------------------------------|--------------------------------------|
--------------------16----------------|--------------------16----------------|
----------17------------------19--17--|----------17------------------19--17--|
--15--17------17-17-----17-17---------|--15--17------17-17-----17-17---------|


                                                                          
------------------------------------|------------------------------------|
------------------------------------|------------------------------------|
------------------------------------|------------------------------------|
----------14------16--------14------|----------14------16--------14------|
------14------14------14-14-----14--|------14------14------14-14-----14--|
--16--------------------------------|--16--------------------------------|


                                                                          
------------------------------------|------------------------------------|
------------------------------------|------------------------------------|
------------------------------------|------------------------------------|
----------14------17--------16--14--|----------14------17--------16--14--|
------15------15------15-15---------|------15------15------15-15---------|
--15--------------------------------|--15--------------------------------|


                                                                      
------------------------------------|--------------------------------|
----------------------------12------|--------------------12----------|
------------------12------------12--|----------12------------12------|
----------12----------12-12---------|--12----------12-12-------------|
------14------14--------------------|------14------------------------|
--15--------------------------------|--------------------------------|


                                                      
--------------------------|--------------------------|
--------------------------|-----------------2--------|
--2--------7-----6--------|-----4--------4--2--------|
--2--------7-----7--------|-----7--------7-----2-----|
--0--0--0--0--0--0--0--0--|--0--0--0--0--0-----0--0--|
--------------------------|--------------------------|


                                                                                
--------------------------|-------------------------|--------------------------|
--------------------------|-------------------------|--3--------8-----7--------|
--------------------------|-------------------------|--0--------7-----7--------|
--6--------6-----6--------|-----6--------7--6--2----|--0--------0-----0--------|
--7--------7-----7--------|-----7--------7-----2----|-----5--5-----5-----5--5--|
--4--4--4--4--4--4--4--4--|--4--4--4--4--4-----4----|--------------------------|


                                                        
-------------------------|-----------------------------|
-----5--------5--7-------|-----------------------------|
-----7--------7-----7----|-----------------------------|
-----0--------0-----7----|--8--------10------8---------|
--5-----5--5-------------|--8--------8-------8---------|
-------------------------|--6--6--6--6---6-6-6--6-6-6--|


                                                          
----------------------------|----------------------------|
----------------------------|--7---------8------7--------|
----------------------------|--x---------7------7--------|
-----10---------10----10----|--7---7--7--7--7-7-7--7--7--|
-----10--10-----10----10----|--9-------------------------|
--8----------8--8-----8-----|--10------------------------|


                                                            
---------------------------|-------------------------------|
------5--------5--7--------|-------------------------------|
------7--------7-----7-----|--11--9-------9------11--------|
--7-7-7--7--7--7--------7--|--10--10------10-----10--------|
---------------------------|--10--10------10-----10--------|
---------------------------|--8---8---8-8-8---8--8---8--8--|


                                                                                
-------------------------------|-----------------------|---------3----2--------|
-------------8-----------------|----------8-------5----|------3----------5--3--|
--9---11-----0-------11--------|--7------------7-------|-----------------------|
--10--10-----10------10--------|--7--------------------|-----------------------|
--10--10-----x-------10--------|--x--------------------|-----------------------|
--8---8---8--8---8-8-8---8--8--|--10-------------------|-----------------------|


                                                                               
-------------------|-------------------|-------------------|------------------|
--4----------------|--6----------------|-------------------|------------------|
--3----------------|--5----------------|--3----------------|------------------|
--1----------------|--3----------------|--3----------------|------------------|
-------------------|-------------------|--1----------------|------------------|
-------------------|-------------------|-------------------|------------------|


                                                                    
----------|------------------|------------------|------------------|
----------|------------------|------------------|------------------|
----------|------------------|------------------|------------------|
----------|------------------|------------------|------------------|
----------|------------------|------------------|------------------|
----------|------------------|------------------|------------------|


                                                                 
------------------|------------------|--------------------------|
------------------|------------------|--6--------6-----6--------|
------------------|------------------|--5--------5-----5--------|
------------------|------------------|--3--3--3--3--3--3--3--3--|
------------------|------------------|--------------------------|
------------------|------------------|--------------------------|


                                                                                
-----------------1--------|-------------------------|--------------------------|
-----6--------8-----1-----|--4-------3-----4--------|-----4--------3--4--------|
-----5--------5-----------|--3-------3-----3--------|-----3--------3-----3-----|
--3--3--3--3--3--------3--|--1----1--1--1--1--1--1--|--1--1--1--1--1--------1--|
--------------------------|-------------------------|--------------------------|
--------------------------|-------------------------|--------------------------|


                                                                              
-------------------------|--------6--10--------------|-----------------------|
--6-------4-----3--------|--3--3---------11----------|-----------------------|
--3-------3-----3--3-----|--3----------------10------|--10------8----7-------|
--3----3--3--3--3-----3--|--3------------------------|--------------------8--|
-------------------------|---------------------------|-----------------------|
-------------------------|---------------------------|-----------------------|


                                                               
----------------------|-------------------|-------------------|
----------------------|-------------------|-------------------|
----------------------|-------------------|-------------------|
----------------8-----|--8----------------|--7----------------|
----------10----8-----|--8----------------|--8----------------|
----------11----11----|--6----------------|--5----------------|


                                                                            
------------------|------------------|------------------|------------------|
------------------|------------------|------------------|------------------|
------------------|------------------|------------------|------------------|
------------------|------------------|------------------|------------------|
------------------|------------------|------------------|------------------|
------------------|------------------|------------------|------------------|


                                                                            
------------------|------------------|------------------|------------------|
------------------|------------------|------------------|------------------|
------------------|------------------|------------------|------------------|
------------------|------------------|------------------|------------------|
------------------|------------------|------------------|------------------|
------------------|------------------|------------------|------------------|


                                                                            
------------------|------------------|------------------|------------------|
------------------|------------------|------------------|------------------|
------------------|------------------|------------------|------------------|
------------------|------------------|------------------|------------------|
------------------|------------------|------------------|------------------|
------------------|------------------|------------------|------------------|


                                                                            
------------------|------------------|------------------|------------------|
------------------|------------------|------------------|------------------|
------------------|------------------|------------------|------------------|
------------------|------------------|------------------|------------------|
------------------|------------------|------------------|------------------|
------------------|------------------|------------------|------------------|


                                                                            
------------------|------------------|------------------|------------------|
------------------|------------------|------------------|------------------|
------------------|------------------|------------------|------------------|
------------------|------------------|------------------|------------------|
------------------|------------------|------------------|------------------|
------------------|------------------|------------------|------------------|


                                                                            
------------------|------------------|------------------|------------------|
------------------|------------------|------------------|------------------|
------------------|------------------|------------------|------------------|
------------------|------------------|------------------|------------------|
------------------|------------------|------------------|------------------|
------------------|------------------|------------------|------------------|


                                                                            
------------------|------------------|------------------|------------------|
------------------|------------------|------------------|------------------|
------------------|------------------|------------------|------------------|
------------------|------------------|------------------|------------------|
------------------|------------------|------------------|------------------|
------------------|------------------|------------------|------------------|


                                                                            
------------------|------------------|------------------|------------------|
------------------|------------------|------------------|------------------|
------------------|------------------|------------------|------------------|
------------------|------------------|------------------|------------------|
------------------|------------------|------------------|------------------|
------------------|------------------|------------------|------------------|


                                                      
--------------------------|--------------------------|
--------------------------|-----------------2--------|
-----------7-----6--------|-----4--------4--2--------|
--7--------7-----7--------|-----7--------7-----2-----|
--7--------0-----0--------|-----0--------0-----0--0--|
--5--5--5-----5-----5--5--|--5-----5--5--------------|


                                                                                
--------------------------|-------------------------|--------------------------|
--------------------------|-------------------------|--3--------8-----7--------|
--------------------------|-------------------------|--0--------7-----7--------|
--6--------6-----6--------|-----6--------7--2--2----|--0--------0-----0--------|
--7--------7-----7--------|-----7--------7-----2----|-----5--5-----5-----5--5--|
--4--4--4--4--4--4--4--4--|--4--4--4--4--4-----4----|--------------------------|


                                                        
-------------------------|-----------------------------|
-----5--------5--7-------|-----------------------------|
-----7--------7-----7----|-----------------------------|
-----0--------0-----7----|--8--------10------8---------|
--5-----5--5-------------|--8--------8-------8---------|
-------------------------|--6--6--6--6---6-6-6--6-6-6--|


                                                          
----------------------------|----------------------------|
----------------------------|--7---------8------7--------|
----------------------------|--x---------7------7--------|
-----10---------10----10----|--7---7--7--7--7-7-7--7--7--|
-----10--10-----10----10----|--9-------------------------|
--8----------8--8-----8-----|--10------------------------|


                                                            
---------------------------|-------------------------------|
------5--------5--7--------|-------------------------------|
------7--------7-----7-----|--11--9-------9------11--------|
--7-7-7--7--7--7--------7--|--10--10------10-----10--------|
---------------------------|--10--10------10-----10--------|
---------------------------|--8---8---8-8-8---8--8---8--8--|


                                                                                
-------------------------------|------------------5----|---------3----2--------|
-------------8-----------------|----------8------------|------3----------5--3--|
--11--9------0-------11--------|--7------------7-------|-----------------------|
--10--10-----10------10--------|--7--------------------|-----------------------|
--10--10-----x-------10--------|--x--------------------|-----------------------|
--8---8---8--8---8-8-8---8--8--|--10-------------------|-----------------------|


                                                                     
--3----------5------|--3----------------|--2--------3------2--------|
--x----------x------|--x----------------|--x--------3------3--------|
--5----------5------|--5----------------|--2--2--2--2--2-2-2--2--2--|
--5----------5------|--5----------------|--4------------------------|
--3----------3------|--3----------------|--5------------------------|
--------------------|-------------------|---------------------------|


                                                        
------0--------0--2--------|---------------------------|
------3--------3-----3-----|--7--5------5-----7--------|
--2-2-2--2--2--2--------2--|--5--5------5-----5--------|
---------------------------|--5--5------5-----5--------|
---------------------------|--3--3--3-3-3--3--3--3--3--|
---------------------------|---------------------------|


                                                                           
---------------------------|---------3-------5----|---------3----2--------|
--5--7-----7------7--------|--3-----------3-------|------3----------5--3--|
--5--5-----5------5--------|--2-------------------|-----------------------|
--5--5-----5------5--------|--0-------------------|-----------------------|
--3--3--3--3--3-3-3--3--3--|----------------------|-----------------------|
---------------------------|----------------------|-----------------------|


                                                                    
--3----------5------|--3----------------|--------------------------|
--x----------x------|--x----------------|--------------------------|
--5----------5------|--5----------------|--2--------7-----6--------|
--5----------5------|--5----------------|--2--------7-----7--------|
--3----------3------|--3----------------|--0--0--0--0--0--0--0--0--|
--------------------|-------------------|--------------------------|


                                                                                
--------------------------|--------------------------|-------------------------|
-----------------2--------|--------------------------|-------------------------|
-----4--------4--2--------|--------------------------|-------------------------|
-----7--------7-----2-----|--6--------6-----6--------|-----6--------7--6--2----|
--0--0--0--0--0-----0--0--|--7--------7-----7--------|-----7--------7-----2----|
--------------------------|--4--4--4--4--4--4--4--4--|--4--4--4--4--4-----4----|


                                                     
--------------------------|-------------------------|
--3--------8-----7--------|-----5--------5--7-------|
--0--------7-----7--------|-----7--------7-----7----|
--0--------0-----0--------|-----0--------0-----7----|
-----5--5-----5-----5--5--|--5-----5--5-------------|
--------------------------|-------------------------|


                                                           
-----------------------------|----------------------------|
-----------------------------|----------------------------|
-----------------------------|----------------------------|
--8--------10------8---------|-----10---------10----10----|
--8--------8-------8---------|-----10--10-----10----10----|
--6--6--6--6---6-6-6--6-6-6--|--8----------8--8-----8-----|


                                                         
----------------------------|---------------------------|
--7---------8------7--------|------5--------5--7--------|
--x---------7------7--------|------7--------7-----7-----|
--7---7--7--7--7-7-7--7--7--|--7-7-7--7--7--7--------7--|
--9-------------------------|---------------------------|
--10------------------------|---------------------------|


                                                                
-------------------------------|-------------------------------|
-------------------------------|-------------8-----------------|
--11--9-------9------11--------|--11--9------0-------11--------|
--10--10------10-----10--------|--10--10-----10------10--------|
--10--10------10-----10--------|--10--10-----x-------10--------|
--8---8---8-8-8---8--8---8--8--|--8---8---8--8---8-8-8---8--8--|


                                                                    
------------------5----|---------3----2--------|--1----------------|
----------8------------|------3----------5--3--|--1----------------|
--7------------7-------|-----------------------|--2----------------|
--7--------------------|-----------------------|-------------------|
--x--------------------|-----------------------|-------------------|
--10-------------------|-----------------------|-------------------|


                                                                         
------------------|--------------------------|--------------------------|
------------------|--------------------------|-----------------2--------|
------------------|--2--------7-----6--------|-----4--------4--2--------|
------------------|--2--------7-----7--------|-----7--------7-----2-----|
------------------|--0--0--0--0--0--0--0--0--|--0--0--0--0--0-----0--0--|
------------------|--------------------------|--------------------------|


                                                                                
--------------------------|-------------------------|--------------------------|
--------------------------|-------------------------|--3--------8-----7--------|
--------------------------|-------------------------|--0--------7-----7--------|
--6--------6-----6--------|-----6--------7--2--2----|--0--------0-----0--------|
--7--------7-----7--------|-----7--------7-----2----|-----5--5-----5-----5--5--|
--4--4--4--4--4--4--4--4--|--4--4--4--4--4-----4----|--------------------------|


                                                        
-------------------------|-----------------------------|
-----5--------5--7-------|-----------------------------|
-----7--------7-----7----|-----------------------------|
-----0--------0-----7----|--8--------10------8---------|
--5-----5--5-------------|--8--------8-------8---------|
-------------------------|--6--6--6--6---6-6-6--6-6-6--|


                                                          
----------------------------|----------------------------|
----------------------------|--7---------8------7--------|
----------------------------|--x---------7------7--------|
-----10---------10----10----|--7---7--7--7--7-7-7--7--7--|
-----10--10-----10----10----|--9-------------------------|
--8----------8--8-----8-----|--10------------------------|


                                                            
---------------------------|-------------------------------|
------5--------5--7--------|-------------------------------|
------7--------7-----7-----|--11--9-------9------11--------|
--7-7-7--7--7--7--------7--|--10--10------10-----10--------|
---------------------------|--10--10------10-----10--------|
---------------------------|--8---8---8-8-8---8--8---8--8--|


                                                                                
-------------------------------|------------------5----|---------3----2--------|
-------------8-----------------|----------8------------|------3----------5--3--|
--11--9------0-------11--------|--7------------7-------|-----------------------|
--10--10-----10------10--------|--7--------------------|-----------------------|
--10--10-----x-------10--------|--x--------------------|-----------------------|
--8---8---8--8---8-8-8---8--8--|--10-------------------|-----------------------|


                                                                               
--1----------------|------------------|--2----------------|------------------||
--1----------------|------------------|--3----------------|------------------||
--2----------------|------------------|--2----------------|------------------||
-------------------|------------------|--0----------------|------------------||
-------------------|------------------|-------------------|------------------||
-------------------|------------------|-------------------|------------------||
comments
We did not receive enough feedback on this tab! Please rate:
print report bad tab
1 2 3 4 5
I want to post or [tab]
guest
You may want to rate the tab now too:
select rating
Please do not post tabs as comments. Select "correction" instead!