Oops, an error
Loading. Please wait.

I Walk Beside You Tab

ver2
ver2

Whole song

More versions @911Tabs.com
467 views 3 this week
no commentswrite comment
1 2 3 4 5
please rate
Autoscroll
+/-
esc
set tempo
stop
Contributor
Tuning
D G C F A D
WARNING: You are trying to view
                                    content from Ultimate-Guitar.com
                                    in an unauthorized application,
                                    which is prohibited.

                                    Please use an official Ultimate
                                    Guitar Tabs application for iPhone,
                                    iPad or Android to access legitimate
                                    chords, guitar, bass, and drum tabs
                                    from Ultimate-Guitar.com database.

                                    Type "ultimate guitar tabs" in Apple
                                    App Store's or Android Market's
                                    search to find the application.
Dream Theater
I Walk Beside You

D|--------------------------|--------------------------|
A|--------------------------|--------------------------|
F|--9--9--9--9--9--9--9--9--|--9--8--8--8--8--8--8--8--|
C|--11-11-11-11-11-11-11-11-|--11-11-11-11-11-11-11-11-|
G|--------------------------|--------------------------|
D|--------------------------|--------------------------|



--------------------------|--------------------------||-----------4----------4--|
--------------------------|--------------------------||--------2-------2--2-----|
--9--9--9--9--9--9--9--9--|--9--8--8--8--8--8--8--8--||o------------------------|
--11-11-11-11-11-11-11-11-|--11-11-11-11-11-11-11-11-||o------------------------|
--------------------------|--------------------------||---4---------------------|
--------------------------|--------------------------||-------------------------|



----------4----------4--|----------4----------4--|----------4----------4---||
-------2----------2-----|-------2-------2--2-----|-------2----------2------||
------------------------|------------------------|------------------------o||
----1----------2--------|------------------------|------------------------o||
------------------------|--4---------------------|---------------0---------||
------------------------|------------------------|----4--------------------||



--------------------------|--------------------------|
--------------------------|--------------------------|
--9--9--9--9--9--9--9--9--|--9--8--8--8--8--8--8--8--|
--11-11-11-11-11-11-11-11-|--11-11-11-11-11-11-11-11-|
--------------------------|--------------------------|
--------------------------|--------------------------|


8x
||---------------------------|---------------------------||
||---------------------------|---------------------------||
||o--9--9--9--9--9--9--9--9--|--9--8--8--8--8--8--8--8--o||
||o--11-11-11-11-11-11-11-11-|--11-11-11-11-11-11-11-11-o||
||---------------------------|---------------------------||
||---------------------------|---------------------------||



  
--------------------------|--------------------------|
--5--------5--------5-----|--4--------4--------4-----|
--------6--------6--------|--------6--------6--------|
-----7--------7--------7--|-----7--------7--------7--|
--------------------------|--------------------------|
--------------------------|--------------------------|



--------------------------|--------------------------|
--4--------4--------4-----|--5--------5--------5-----|
--------6--------6--------|--------6--------6--------|
-----6--------6--------6--|-----6--------6--------6--|
--------------------------|--------------------------|
--------------------------|--------------------------|



--------------------------|--------------------------|
--5--------5--------5-----|--4--------4--------4-----|
--------6--------6--------|--------4--------4--------|
-----7--------7--------7--|-----6--------6--------6--|
--------------------------|--------------------------|
--------------------------|--------------------------|


                                                      
--------------------------|--------------------------|--4--0-0-4--5--|
--5--------5--------5-----|--7--------7--------7-----|--5--5-5-5--5--|
-----4--------4--------4--|-----4--------4--------4--|---------------|
--------4--------4--------|--------4--------4--------|---------------|
--------------------------|--------------------------|---------------|
--------------------------|--------------------------|---------------|


3x
||---4--0-0-4--5--4--0-0-4--5---||
||---5--5-5-5--5--5--5-5-5--5---||
||o----------------------------o||
||o----------------------------o||
||------------------------------||
||------------------------------||



|--7-7-7-7----------4--------|-----4--5--4--------|-----4--5--4--------|
|--5-5-5-5-----5-------5-----|--------------5-----|--------------5-----|
|-----------4-------------4--|--4--------------5--|--5--------------6--|
|----------------------------|--------------------|--------------------|
|----------------------------|--------------------|--------------------|
|----------------------------|--------------------|--------------------|



-----4---------------9--------12-------------|--4--|
--------5--------10----10---------10-----10--|--5--|
--6--------6--9-----------9-----------9------|--6--|
---------------------------------------------|--6--|
---------------------------------------------|--4--|
---------------------------------------------|-----|



6x
||---------------------------|---------------------------||
||---------------------------|---------------------------||
||o--9--9--9--9--9--9--9--9--|--9--8--8--8--8--8--8--8--o||
||o--11-11-11-11-11-11-11-11-|--11-11-11-11-11-11-11-11-o||
||---------------------------|---------------------------||
||---------------------------|---------------------------||


2x
||---9-----7-----11--|--9-----7-----0----||
||------9-----9------|-----9-----9-------||
||o------------------|------------------o||
||o------------------|------------------o||
||-------------------|-------------------||
||-------------------|-------------------||




--------------------------|--------------------------|
--5--------5--------5-----|--4--------4--------4-----|
--------6--------6--------|--------6--------6--------|
-----7--------7--------7--|-----7--------7--------7--|
--------------------------|--------------------------|
--------------------------|--------------------------|



--------------------------|--------------------------|
--4--------4--------4-----|--5--------5--------5-----|
--------6--------6--------|--------6--------6--------|
-----6--------6--------6--|-----6--------6--------6--|
--------------------------|--------------------------|
--------------------------|--------------------------|



--------------------------|--------------------------|
--5--------5--------5-----|--4--------4--------4-----|
--------6--------6--------|--------4--------4--------|
-----7--------7--------7--|-----6--------6--------6--|
--------------------------|--------------------------|
--------------------------|--------------------------|


                                                      
--------------------------|--------------------------|--4--0-0-4--5--|
--5--------5--------5-----|--7--------7--------7-----|--5--5-5-5--5--|
-----4--------4--------4--|-----4--------4--------4--|---------------|
--------4--------4--------|--------4--------4--------|---------------|
--------------------------|--------------------------|---------------|
--------------------------|--------------------------|---------------|


3x
||---4--0-0-4--5--4--0-0-4--5---||
||---5--5-5-5--5--5--5-5-5--5---||
||o----------------------------o||
||o----------------------------o||
||------------------------------||
||------------------------------||



|--7-7-7-7----------4--------|-----4--5--4--------|-----4--5--4--------|
|--5-5-5-5-----5-------5-----|--------------5-----|--------------5-----|
|-----------4-------------4--|--4--------------5--|--5--------------6--|
|----------------------------|--------------------|--------------------|
|----------------------------|--------------------|--------------------|
|----------------------------|--------------------|--------------------|



-----4---------------9--------12-------------|
--------5--------10----10---------10-----10--|
--6--------6--9-----------9-----------9------|
---------------------------------------------|
---------------------------------------------|
---------------------------------------------|



||---------------------------------|--------------------------------|
||---------------------------------|--------------------------------|
||o----------4------------4-----4--|----------4------------4-----4--|
||o------4-------4-----4-----------|------4-------4-----4-----------|
||---2--------------2--------2-----|--0--------------0--------0-----|
||---------------------------------|--------------------------------|


1.===============================|2.===============================|
---------------------------------||--------------------------------|--------------------------------|
---------------------------------||--------------------------------|--------------------------------|
----------4------------4-----4--o||----------4------------4-----4--|----------4----------4-------4--|
------4-------4-----4-----------o||------4-------4-----4-----------|------4-------4----4-------4----|
---------------------------------||--------------------------------|--------------------------------|
--4--------------4--------4------||--0--------------0--------0-----|--3--------------2------0-------|



--------------------------|--------------------------|
--------------------------|--------------------------|
--2--2--2--2--2--2--2--2--|--2--2--2--2--2--2--2--2--|
--2--2--2--2--2--2--2--2--|--2--2--2--2--2--2--2--2--|
--0--0--0--0--0--0--0--0--|--0--0--0--0--0--0--0--0--|
--------------------------|--------------------------|



--------------------------|--------------------------|--7------6--7--|
--------------------------|--------------------------|--7--7-7-7--7--|
--2--2--2--2--2--2--2--2--|--2--2--2--2--2--2--2--2--|---------------|
--2--2--2--2--2--2--2--2--|--2--2--2--2--2--2--2--2--|---------------|
--0--0--0--0--0--0--0--0--|--0--0--0--0--0--0--0--0--|---------------|
--------------------------|--------------------------|---------------|



3x
||---6------6--7--6------6--7---||
||---7--7-7-7--7--7--7-7-7--7---||
||o----------------------------o||
||o----------------------------o||
||------------------------------||
||------------------------------||



|--9-9-9-9----------6--------|-----6--7--6--------|-----6--7--6--------|
|--7-7-7-7-----7-------7-----|--------------7-----|--------------7-----|
|-----------6-------------6--|--6--------------7--|--7--------------8--|
|----------------------------|--------------------|--------------------|
|----------------------------|--------------------|--------------------|
|----------------------------|--------------------|--------------------|


                                                                        
-----6---------------11-------14-------------||-------------------------|
--------7--------12----12---------12-----12--||-----------11---------11-|
--8--------8--11----------11----------11-----||o-------8-------8--8-----|
---------------------------------------------||o------------------------|
---------------------------------------------||---6---------------------|
---------------------------------------------||-------------------------|



------------------------|------------------------|-------------------------||--6--|
----------11---------11-|----------11---------11-|----------11---------11--||--7--|
-------8----------8-----|-------8-------8--8-----|-------8----------8-----o||--8--|
------------------------|------------------------|------------------------o||--8--|
--8------------9--------|--6---------------------|-------------------------||--6--|
------------------------|------------------------|--6------------7---------||-----|
comments
We did not receive enough feedback on this tab! Please rate:
1 2 3 4 5
I want to post or [tab]
guest
You may want to rate the tab now too:
select rating
Please do not post tabs as comments. Select "correction" instead!