Oops, an error
Loading. Please wait.

Images And Words Tab

ver1
ver1

Album

Interactive

More versions @911Tabs.com
23,612 views 39 this week
3 commentsread comments
1 2 3 4 5
excellent!
x 5
add to favorites launch autoscroll
font size
0
reset
Autoscroll
+/-
esc
set tempo
stop
Contributor
Difficulty
advanced
WARNING: You are trying to view
                                    content from Ultimate-Guitar.com
                                    in an unauthorized application,
                                    which is prohibited.

                                    Please use an official Ultimate
                                    Guitar Tabs application for iPhone,
                                    iPad or Android to access legitimate
                                    chords, guitar, bass, and drum tabs
                                    from Ultimate-Guitar.com database.

                                    Type "ultimate guitar tabs" in Apple
                                    App Store's or Android Market's
                                    search to find the application.
Band - Dream Theater
Album - Images And Words

Track Listings:
1. Pull Me Under...................unregistered
2. Another Day.....................unregistered
3. Take The Time...................unregistered
4. Surrounded......................unregistered
5. Metropolis Part 1...............unregistered
6. Under A Glass Moon..............unregistered
7. Wait For Sleep..................unregistered
8. Learning To Live................scotty_6677

-----------------------------------------------------------

1. PULL ME UNDER
Tuning - E,A,D,G,B,E

Intro

                             ~~~~~~~~~                        ~~~~~~~~~~
E||---------------------------------|---------------------------------||
B||---------------------------------|---------------------------------||
G||-----------------0-------0-------|----------------0-------0--------||
D||-----------7---------------------|---------4-----------------------||
A||---------------------------------|---------------------------------||
e||---0-----------------------------|---0-----------------------------||

                             ~~~~~~~~~
E||---------------------------------|---------------------------------||
B||---------------------------------|-----------------------------0---||
G||----------------0--------0-------|-----------0------------2--------||
D||---------4-----------------------|-------------------0-------------||
A||---------------------------------|-------3-------------------------||
e||---0-----------------------------|--0------------------------------||

                             ~~~~~~~~~                        ~~~~~~~~~~
E||---------------------------------|---------------------------------||
B||---------------------------------|---------------------------------||
G||-----------------0-------0-------|----------------0-------0--------||
D||-----------7---------------------|---------4-----------------------||
A||---------------------------------|---------------------------------||
e||---0-----------------------------|---0-----------------------------||

                             ~~~~~~~~~
E||---------------------------------|---------------------------------||
B||---------------------------------|-----------------------------0---||
G||----------------0--------0-------|-----------0------------2--------||
D||---------4-----------------------|---------------------------------||
A||---------------------------------|-------3-------------------------||
e||---0-----------------------------|--0-----------------1------------||

                             ~~~~~~~~~                        ~~~~~~~~~~
E||---------------------------------|---------------------------------||
B||---------------------------------|---------------------------------||
G||-----------------0-------0-------|----------------0-------0--------||
D||-----------7---------------------|---------4-----------------------||
A||---------------------------------|---------------------------------||
e||---0-----------------------------|---0-----------------------------||

                             ~~~~~~~~~
E||---------------------------------|---------------------------------||
B||---------------------------------|-----------------------------0---||
G||----------------0--------0-------|-----------0------------2--------||
D||---------4-----------------------|-------------------0-------------||
A||---------------------------------|-------3-------------------------||
e||---0-----------------------------|--0------------------------------||

                             ~~~~~~~~~                        ~~~~~~~~~~
E||---------------------------------|---------------------------------||
B||---------------------------------|---------------------------------||
G||-----------------0-------0-------|----------------0-------0--------||
D||-----------7---------------------|---------4-----------------------||
A||---------------------------------|---------------------------------||
e||---0-----------------------------|---0-----------------------------||

                             ~~~~~~~~~
E||---------------------------------|---------------------------------||
B||---------------------------------|-----------------------------0---||
G||----------------0--------0-------|-----------0------------2--------||
D||---------4-----------------------|---------------------------------||
A||---------------------------------|-------3-------------------------||
e||---0-----------------------------|--0-----------------1------------||

E||-----------------------0---------|----------------------0----------||
B||----------------------------0----|----------------------------0----||
G||-------------0-------------------|------------0--------------------||
D||---------7-----------------------|--------4------------------------||
A||---------------------------------|---------------------------------||
e||---0--------------0--------------|---0-------------0---------------||

E||-----------------------0---------|---------------------------------||
B||----------------------------0----|------------------------------0--||
G||-------------0-------------------|-------------0------------2------||
D||---------4-----------------------|----------------------0----------||
A||---------------------------------|---------3-----------------------||
e||---0--------------0--------------|--0------------------------------||

E||-----------------------0---------|----------------------0----------||
B||----------------------------0----|----------------------------0----||
G||-------------0-------------------|------------0--------------------||
D||---------7-----------------------|--------4------------------------||
A||---------------------------------|---------------------------------||
e||---0--------------0--------------|---0-------------0---------------||

E||-----------------------0---------|---------------------------------||
B||----------------------------0----|------------------------------0--||
G||-------------0-------------------|-------------0------------2------||
D||---------4-----------------------|---------------------------------||
A||---------------------------------|---------3-----------------------||
e||---0--------------0--------------|--0--------------------1---------||

E||-----------------------0---------|----------------------0----------||
B||----------------------------0----|----------------------------0----||
G||-------------0-------------------|------------0--------------------||
D||---------7-----------------------|--------4------------------------||
A||---------------------------------|---------------------------------||
e||---0--------------0--------------|---0-------------0---------------||

E||-----------------------0---------|---------------------------------||
B||----------------------------0----|------------------------------0--||
G||-------------0-------------------|-------------0------------2------||
D||---------4-----------------------|----------------------0----------||
A||---------------------------------|---------3-----------------------||
e||---0--------------0--------------|--0------------------------------||

E||-----------------------0---------|----------------------0----------||
B||----------------------------0----|----------------------------0----||
G||-------------0-------------------|------------0--------------------||
D||---------7-----------------------|--------4------------------------||
A||---------------------------------|---------------------------------||
e||---0--------------0--------------|---0-------------0---------------||

E||-----------------------0---------|---------------------------------||
B||----------------------------0----|------------------------------0--||
G||-------------0-------------------|-------------0------------2------||
D||---------4-----------------------|---------------------------------||
A||---------------------------------|---------3-----------------------||
e||---0--------------0--------------|--0--------------------1---------||

E||---------------------------------|---------------------------------||
B||---------------------------------|---------------------------------||
G||-------__------------------------|------__-------------------------||
D||------7--9-----------------------|-----7--9------------------------||
A||------7--------------------------|-----7---------------------------||
e||------0--------------------------|-----0---------------------------||

E||---------------------------------|---------------------------------||
B||---------------------------------|---------------------------------||
G||-------__------------------------|----__---------------------------||
D||------7--9-----------------------|---7--9\---5----5--------7---7---||
A||------7--------------------------|---7--7\---3----3--------5---5---||
e||------0--------------------------|---0-----------------------------||

E||---------------------------------|---------------------------------||
B||---------------------------------|---------------------------------||
G||-------__------------------------|------__-------------------------||
D||------7--9-----------------------|-----7--9------------------------||
A||------7--------------------------|-----7---------------------------||
e||------0--------------------------|-----0---------------------------||

E||---------------------------------|---------------------------------||
B||---------------------------------|---------------------------------||
G||-------__------------------------|----__---------------------------||
D||------7--9-----------------------|---7--9\---5----5-------X--------||
A||------7--------------------------|---7--7\---3----3-------X--3--3--||
e||------0--------------------------|---0-----------------------1--1--||

E||---------------------------------|---------------------------------||
B||---------------------------------|---------------------------------||
G||---------------------------------|---------------------------------||
D||-------------7--5----------------|-------------4--5----------------||
A||---2--2--2---7--5---2--2--2--2---|---X--X------4--5---2--2--2--2---||
e||---0--0--0----------0--0--0--0---|---X--X--0----------0--0--0--0---||

E||---------------------------------|---------------------------------||
B||---------------------------------|---------------------------------||
G||---------------------------------|---------------------------------||
D||-------------6--5----------------|-----------------------------0---||
A||---X--X------4--5---2--2--2--2---|---X--X-------2--3----X--X---0---||
e||---X--X--0----------0--0--0--0---|---X--X--0----2--3----X--X-------||

E||---------------------------------|---------------------------------||
B||---------------------------------|---------------------------------||
G||---------------------------------|---------------------------------||
D||-------------7--5----------------|-------------4--5----------------||
A||---2--2--2---7--5---2--2--2--2---|---X--X------4--5---2--2--2--2---||
e||---0--0--0----------0--0--0--0---|---X--X--0----------0--0--0--0---||

E||---------------------------------|---------------------------------||
B||---------------------------------|---------------------------------||
G||---------------------------------|---------------------------------||
D||-------------6--5----------------|---------------------------------||
A||---X--X------4--5---2--2--2--2---|---X--X-------2--3----X--X---3---||
e||---X--X--0----------0--0--0--0---|---X--X--0----2--3----X--X---1---||

E||---------------------------------|---------------------------------||
B||---------------------------------|---------------------------------||
G||---------------------------------|---------------------------------||
D||----------7--7-------------------|----------4--5-------------------||
A||--2-2-2---5--5---X-X-2---X-X-2---|--X-X-----4--5---X-X-2---X-X-2---||
e||--0-0-0----------X-X-0---X-X-0---|--X-X-0----------X-X-0---X-X-0---||

E||---------------------------------|---------------------------------||
B||---------------------------------|---------------------------------||
G||---------------------------------|---------------------------------||
D||----------6--5-------------------|-----------------------------0---||
A||--X-X-----4--5---X-X-2---X-X-2---|---X--X-------2--3----X--X---0---||
e||--X-X-0----------X-X-0---X-X-0---|---X--X--0----2--3----X--X-------||

E||---------------------------------|---------------------------------||
B||---------------------------------|---------------------------------||
G||---------------------------------|---------------------------------||
D||----------7--7-------------------|----------4--5-------------------||
A||--2-2-2---5--5---X-X-2---X-X-2---|--X-X-----4--5---X-X-2---X-X-2---||
e||--0-0-0----------X-X-0---X-X-0---|--X-X-0----------X-X-0---X-X-0---||

E||---------------------------------|---------------------------------||
B||---------------------------------|---------------------------------||
G||---------------------------------|---------------------------------||
D||----------6--5-------------------|---------------------------------||
A||--X-X-----4--5---X-X-2---X-X-2---|---X--X-------2--3----X--X---3---||
e||--X-X-0----------X-X-0---X-X-0---|---X--X--0----2--3----X--X---1---||

    Mute all 6 strings with left hand for percussive effect
E||X-X---X-X---X-X---X-X-|-X-X---X-X---X-X---X-X-|-X-X---X-X---X-X---X-X--X-||
B||X-X---X-X---X-X---X-X-|-X-X---X-X---X-X---X-X-|-X-X---X-X---X-X---X-X--X-||
G||X-X---X-X---X-X---X-X-|-X-X---X-X---X-X---X-X-|-X-X---X-X---X-X---X-X--X-||
D||X-X---X-X---X-X---X-X-|-X-X---X-X---X-X---X-X-|-X-X---X-X---X-X---X-X--X-||
A||X-X---X-X---X-X---X-X-|-X-X---X-X---X-X---X-X-|-X-X---X-X---X-X---X-X--X-||
e||X-X---X-X---X-X---X-X-|-X-X---X-X---X-X---X-X-|-X-X---X-X---X-X---X-X--X-||

First Verse

   Esus2
E||--7---7---X---X---7---7---X---X---7---7---X---X---7---7---X---X--||
B||--7---7---X---X---7---7---X---X---7---7---X---X---7---7---X---X--||
G||--9---9---X---X---9---9---X---X---9---9---X---X---9---9---X---X--||
D||--9---9---X---X---9---9---X---X---9---9---X---X---9---9---X---X--||
A||--7---7---X---X---7---7---X---X---7---7---X---X---7---7---X---X--||
e||-----------------------------------------------------------------||

   C(add#4)
e||-----------------------------------------------------------------||
B||--8---8---X---X---8---8---X---X---8---8---X---X---8---8---X---X--||
G||--9---9---X---X---9---9---X---X---9---9---X---X---9---9---X---X--||
D||--X---X---X---X---X---X---X---X---X---X---X---X---X---X---X---X--||
A||--9---9---X---X---9---9---X---X---9---9---X---X---9---9---X---X--||
E||--8---8---X---X---8---8---X---X---8---8---X---X---8---8---X---X--||

     A5
E||-----------------------------------------------------------------||
B||--10--10--X---X---10--10--X---X---10--10--X---X---10--10--X---X--||
G||--9---9---X---X---9---9---X---X---9---9---X---X---9---9---X---X--||
D||--7---7---X---X---7---7---X---X---7---7---X---X---7---7---X---X--||
A||-----------------------------------------------------------------||
e||-----------------------------------------------------------------||

     C5                              Cb5
E||--8---8---X---X---8---8---X---X---8---8---X---X---8---8---X---X--||
B||--8---8---X---X---8---8---X---X---7---7---X---X---7---7---X---X--||
G||--5---5---X---X---5---5---X---X---5---5---X---X---5---5---X---X--||
D||-----------------------------------------------------------------||
A||-----------------------------------------------------------------||
e||-----------------------------------------------------------------||

   Esus2
E||--7---7---X---X---7---7---X---X---7---7---X---X---7---7---X---X--||
B||--7---7---X---X---7---7---X---X---7---7---X---X---7---7---X---X--||
G||--9---9---X---X---9---9---X---X---9---9---X---X---9---9---X---X--||
D||--9---9---X---X---9---9---X---X---9---9---X---X---9---9---X---X--||
A||--7---7---X---X---7---7---X---X---7---7---X---X---7---7---X---X--||
e||-----------------------------------------------------------------||

   C(add#4)
e||-----------------------------------------------------------------||
B||--8---8---X---X---8---8---X---X---8---8---X---X---8---8---X---X--||
G||--9---9---X---X---9---9---X---X---9---9---X---X---9---9---X---X--||
D||--X---X---X---X---X---X---X---X---X---X---X---X---X---X---X---X--||
A||--9---9---X---X---9---9---X---X---9---9---X---X---9---9---X---X--||
E||--8---8---X---X---8---8---X---X---8---8---X---X---8---8---X---X--||

     A5
E||-----------------------------------------------------------------||
B||--10--10--X---X---10--10--X---X---10--10--X---X---10--10--X---X--||
G||--9---9---X---X---9---9---X---X---9---9---X---X---9---9---X---X--||
D||--7---7---X---X---7---7---X---X---7---7---X---X---7---7---X---X--||
A||-----------------------------------------------------------------||
e||-----------------------------------------------------------------||

     C5                              F5
E||--8---8---X---X---8---8---X---X---8---8---X---X------------------||
B||--8---8---X---X---8---8---X---X---6---6---X---X---6---6---X---X--||
G||--5---5---X---X---5---5---X---X---5---5---X---X---5---5---X---X--||
D||-----------------------------------------------------------------||
A||-----------------------------------------------------------------||
e||-----------------------------------------------------------------||

Pre-Chorus

    Guitar 1
E||-----------2---|--------3-------|---4------------|----3----2-----||
B||---------------|------------3---|-----5--4h5p4---|----3----0-----||
G||-------4-------|-----5----------|-6------------6-|---------------||
D||---------------|----------------|----------------|---------------||
A||---------------|----------------|----------------|---------------||
e||---------------|----------------|----------------|---------------||
 ||Guitar 2       |                |                |               ||
 || Esus2         | Csus2          | C#m(add9)      |    G   B5     ||
E||---------------|----------------|----------------|---------------||
B||---------------|----------------|----------------|----0----------||
G||---9-----------|---5------------|-6--------------|----0----4-----||
D||---9-----------|---5------------|-6--------------|----0----4-----||
A||---7-----------|---3------------|-4--------------|---------2-----||
e||---0-----------|----------------|----------------|----3----------||

    Guitar 1
E||------2---3--2-|------2----3--2-|---4------------|----3----2-----||
B||---------------|----------------|-----5--4h5p4---|----3----0-----||
G||---4-----------|---5------------|-6------------6-|---------------||
D||---------------|----------------|----------------|---------------||
A||---------------|----------------|----------------|---------------||
e||---------------|----------------|----------------|---------------||
 ||Guitar 2       |                |                |               ||
 || Esus2         | Csus2          | C#m(add9)      |    G   B5     ||
E||---------------|----------------|----------------|---------------||
B||---------------|----------------|----------------|----0----------||
G||---9-----------|---5------------|-6--------------|----0----4-----||
D||---9-----------|---5------------|-6--------------|----0----4-----||
A||---7-----------|---3------------|-4--------------|---------2-----||
e||---0-----------|----------------|----------------|----3----------||

Synth Solo #1

    E5    Play with heavy palm muting next 8 bars     D/F#
E||---------------------------------|---------------------------------||
B||---------------------------------|---------------------------------||
G||---------------------------------|---------------------------------||
D||---------------------------------|---------------------------------||
A||-2-2-2-2-2-2-2-2-2-2-2-2-2-2-2-2-|-5-5-5-5-5-5-5-5-5-5-5-5-5-5-5-5-||
e||-0-0-0-0-0-0-0-0-0-0-0-0-0-0-0-0-|-2-2-2-2-2-2-2-2-2-2-2-2-2-2-2-2-||

    C#dim(no 3rd)                     C5
E||---------------------------------|---------------------------------||
B||---------------------------------|---------------------------------||
G||---------------------------------|---------------------------------||
D||-5-5-5-5-5-5-5-5-5-5-5-5-5-5-5-5-|-5-5-5-5-5-5-5-5-5-5-5-5-5-5-5-5-||
A||-4-4-4-4-4-4-4-4-4-4-4-4-4-4-4-4-|-3-3-3-3-3-3-3-3-3-3-3-3-3-3-3-3-||
e||---------------------------------|---------------------------------||

    E5                                F#5
E||---------------------------------|---------------------------------||
B||---------------------------------|---------------------------------||
G||---------------------------------|---------------------------------||
D||---------------------------------|---------------------------------||
A||-2-2-2-2-2-2-2-2-2-2-2-2-2-2-2-2-|-4-4-4-4-4-4-4-4-4-4-4-4-4-4-4-4-||
e||-0-0-0-0-0-0-0-0-0-0-0-0-0-0-0-0-|-2-2-2-2-2-2-2-2-2-2-2-2-2-2-2-2-||

    C#dim(no 3rd)                     C5              F5
E||---------------------------------|---------------------------------||
B||---------------------------------|---------------------------------||
G||---------------------------------|---------------------------------||
D||-5-5-5-5-5-5-5-5-5-5-5-5-5-5-5-5-|-5-5-5-5-5-5-5-5-----------------||
A||-4-4-4-4-4-4-4-4-4-4-4-4-4-4-4-4-|-3-3-3-3-3-3-3-3-3-3-3-3-3-3-3-3-||
e||---------------------------------|-----------------1-1-1-1-1-1-1-1-||

Second Verse

     E5                       G5       Palm mute next 3 bars
E||---------------------------------|---------------------------------||
B||---------------------------------|---------------------------------||
G||---------------------------------|---------------------------------||
D||---------------------------5-----|---------------------------------||
A||--2---2--------------------5-----|---------------------------------||
e||--0---0--------------------3-----|-0-0-2-0-3-0-0-6-0-5-0-0-3-0-1-0-||

E||---------------------------------|---------------------------------||
B||---------------------------------|---------------------------------||
G||---------------------------------|---------------------------------||
D||---------------------------------|---------------------------------||
A||---------------------------------|---------------------------------||
e||-0-0-2-0-3-0-0-6-0-5-0-0-3-0-1-0-|-0-0-2-0-3-0-0-6-0-5-0-0-3-0-1-0-||

E||---------------------------------|---------------------------------||
B||---------------------------------|---------------------------------||
G||---------------------------------|---------------------------------||
D||---------------------------------|---------------------------------||
A||---------------------------------|---------------------------------||
e||-0-0-2p0-3p0-0-6p0-5p0-0-3p0-1p0-|-0-0-2p0-3p0-0-6p0-5p0-0-3p0-1p0-||

                                     PM...................\     PM......
E||---------------------------------|---------------------------------||
B||---------------------------------|---------------------------------||
G||---------------------------------|-----------------------5p4-2-----||
D||---------------------------------|-----------------5-4-2-----------||
A||---------------------------------|-----------3-2-0-----------------||
e||-0-0-2p0-3p0-0-6p0-5p0-0-3p0-1p0-|-0-2-3-2-0-------------------3-2-||

                                          Pre-Chorus #2

   PM.......\         PM......................\        PM..................
E||----------------------------------|-----------------------------------||
B||----------------------------------|-----------------------------------||
G||----------------------------------|-----------------------------------||
D||----------------------------------|-----------------------------------||
A||-------0-2-3-3p2p0---2---0---0----|-------2-3-5-5p3p2---3---2---2-----||
e||-0-2-3-------------5---2---2--3-2-|-0-3-5-------------5---5---3---5-3-||

   PM......\          PM..................\            PM....\
E||-------------------------------|----------------------------------------||
B||-------------------------------|----------------------------------------||
G||-------------------------------|----------------------------------------||
D||-------------------------------|---------2h5p2h5p2p0--------4h7p4h7p4p0-||
A||------4-5-7-7p5p4--4-5-4-4-----|---2-3-5---------------3-5-7------------||
e||-0-5-7----------------7-5-7-5--|-0--------------------0-----------------||

   PM......\         PM.........................\         PM...............\
E||-------------------------------------|----------------------------------||
B||-------------------------------------|----------------------------------||
G||-------------------------------------|----------------------------------||
D||------4-5-7p5h7p5-4-5-4--------------|------5-7-9-9p7p5-5-7--5--5-------||
A||-7-5-7-----------------7-9-7-5-9-7-5-|-7-7-9----------------9--7--7-5---||
e||-------------------------------------|----------------------------------||

   PM...........\        PM...............\
E||---------------------------------------||
B||---------------------------------------||
G||---------------------------------------||
D||--------7-9-11-11p9p7-7-9---7---7------||
A||-9-9-11-------------------11--9---11-9-||
e||---------------------------------------||

   Guitar1
                                    ~~~~~~~~      ~~~~~~~~~~      ~~~~~~
E||------------------------------------|------------------------------||
B||------------------------------13-12-|----12-13-15--------13-12-----||
G||---------------------10-----10------|--------------------------14--||
D||----------------9-10---10-10--------|------------------------------||
A||------------------------------------|------------------------------||
e||------------------------------------|------------------------------||
 || Guitar 2                           |                              ||
 || PM.......\          PM...\         |          PM....\             ||
E||------------------------------------|------------------------------||
B||------------------------------------|------------------------------||
G||--------------------------------5---|------------------------------||
D||--------9-10-12p10p9-----3--2-3-----|------------------------------||
A||-10-10-9-------------2-3--3-------2-|------------------2--------3--||
e||----------------------------------0-|------------0--0--0--------1--||

   Guitar1                                          
                                                    ~~~~~
E||----------------------------------------16-16-17-18-||
B||----------------------------17-18-20-18-------------||
G||----16-17-18-19-17-18-19-20-------------------------||
D||-17-------------------------------------------------||
A||----------------------------------------------------||
e||----------------------------------------------------||
 || Guitar 2                                           ||
 ||                           PM........\              ||
E||----------------------------------------------------||
B||----------------------------------------------------||
G||----------------------------------------------------||
D||----------------------------------------------------||
A||----------------------------------------3-----------||
e||-----------------------------1------1---1-----------||

      B5  C5  D5   B       A5          G5   C5                  ~~~~~~~~
E||---------------------------------|---------------------------------||
B||----------------4-------10\------|--8---------------------3--------||
G||---4---5---7----4--------9\------|--7----5----4---4p2--4-----4-----||
D||---4---5---7----4--------7\------|--5----5-------------------------||
A||-------------------------7\------|--5----3-------------------------||
e||---------------------------------|---------------------------------||

Chorus #1

               A5         A5           A5      A5   F5      G5  G5
E||------|------------|----------|----------|-------------------------||
B||------|------------|----------|----------|-------6-------8---8-----||
G||------|-----2------|----2-----|-----2----|---2---5-------7---7-----||
D||------|-----2------|----2-----|-----2----|---2---3-------5---5-----||
A||------|-----0------|----0-----|-----0----|---0---3-------5---5-----||
e||------|------------|----------|----------|-------------------------||

    A5     G\B  C5     C5             D5       E5  F5    F5      Bb5
E||----------------|----------------|-----------------|---------------||
B||----------------|----------------|-----------------|---------------||
G||-2-----------5--|---5------------|-7--------9---10-|--10-------3---||
D||-2-------5---5--|---5------------|-7--------9---10-|--10-------3---||
A||-0-------2---3--|---3------------|-5--------7----8-|---8-------1---||
e||----------------|----------------|-----------------|---------------||

          PM.....................\          PM.....................\
E||---------------------------------|---------------------------------||
B||---------------------------------|---------------------------------||
G||---0h2---------------------------|---0h2---------------------------||
D||---0h2---------------------------|---0h2---------------------------||
A||---0h2--2--2--2--2--2-2-2--2-2---|---0h2--2--2--2--2--2-2-2--2-2---||
e||--------0--0--0--0--0-0-0--0-0---|--------0--0--0--0--0-0-0--0-0---||

          PM.....................\          PM.....................\
E||---------------------------------|---------------------------------||
B||---------------------------------|---------------------------------||
G||---0h2---------------------------|---0h2---------------------------||
D||---0h2---------------------------|---0h2---------------------------||
A||---0h2--2--2--2--2--2-2-2--2-2---|---0h2--2--2--2--2--2-2-2--2-2---||
e||--------0--0--0--0--0-0-0--0-0---|--------0--0--0--0--0-0-0--0-0---||

Verse #3

          ~~~~                 ~~~~~~~~      ~~~~~~~~~
E||---------------------------------|---------------------------------||
B||---------------------------------|---------------------------------||
G||---------------------------------|---------------------------------||
D||---------------------------------|---------------------------------||
A||--------------------x---x---5----|---7p5--7----------5h7p5---------||
e||--0----3----5---7----------------|--------------------------7------||

          ~~~~                 ~~~~~~~~      ~~~~~      D5         D5
E||---------------------------------|----------------------------------||
B||---------------------------------|----------------------------------||
G||---------------------------------|--------------------7----------7--||
D||---------------------------------|--------------------7----------7--||
A||--------------------x---x---5----|---7p5--------x--x--5----x--x--5--||
e||--0----3----5---7----------------|--------8-----x--x--5----x--x--5--||

          ~~~~                 ~~~~~~~~      ~~~~     ~~trill~~
E||---------------------------------|---------------------------------||
B||---------------------------------|---------------------------------||
G||---------------------------------|---------------------------------||
D||---------------------------------|---------------------------------||
A||--------------------x---x---5----|---7p5--7----------5h7p5---------||
e||--0----3----5---7----------------|---------------------------------||

          ~~~~                 ~~~~~~~~      ~~~~~    
E||---------------------------------|----------------------------------||
B||---------------------------------|----------------------------------||
G||---------------------------------|----------------------------------||
D||---------------------------------|--------------------3----------3--||
A||--------------------x---x---5----|--7p5---------3--3--3----3--3--3--||
e||--0----3----5---7----------------|-------8---8\-1--1--1----1--1--1--||

Pre-Chorus #3

    Esus2          Csus2            C#m(add9)          G      B5
E||---------------|----------------|----------------|---------------||
B||---------------|----------------|----------------|---------------||
G||---9-----------|--5-------------|--6-------------|--0------4-----||
D||---9-----------|--3-------------|--4-------------|--0------4-----||
A||---7-----------|--3-------------|--4-------------|---------2-----||
e||---0-----------|----------------|----------------|--3------------||

    Esus2          Csus2            Csus2              G      B5
E||---------------|----------------|----------------|---------------||
B||---------------|----------------|----------------|---------------||
G||---9-----------|--5-------------|--5-------------|--0------4-----||
D||---9-----------|--3-------------|--3-------------|--0------4-----||
A||---7-----------|--3-------------|--3-------------|---------2-----||
e||---0-----------|----------------|----------------|--3------------||

Synth Solo #2

    E5                                F#5
E||---------------------------------|---------------------------------||
B||---------------------------------|---------------------------------||
G||---------------------------------|---------------------------------||
D||---------------------------------|---------------------------------||
A||-2-2-2-2-2-2-2-2-2-2-2-2-2-2-2-2-|-4-4-4-4-4-4-4-4-4-4-4-4-4-4-4-4-||
e||-0-0-0-0-0-0-0-0-0-0-0-0-0-0-0-0-|-2-2-2-2-2-2-2-2-2-2-2-2-2-2-2-2-||
                                                    ___________________
    C#dim(no 3rd)                     C5            | Harmonics       |
E||---------------------------------|-----------------------------------||
B||---------------------------------|-----------------------------13-12-||
G||---------------------------------|--------------------10---9-10------||
D||-5-5-5-5-5-5-5-5-5-5-5-5-5-5-5-5-|-5-5-5-5-5-5-5-5-10---10-----------||
A||-4-4-4-4-4-4-4-4-4-4-4-4-4-4-4-4-|-3-3-3-3-3-3-3-3-------------------||
e||---------------------------------|-----------------------------------||

          ~~~~~~~~~~     ~~~~
E||------------------------|---------------------------------------15-17-18-||
B||-12-13-15------13-12-13-|--------------------------15-15-16-17-19-18-----||
G||------------------------|---------------16-17-18-19----------------------||
D||------------------------|-17-15-17-18-19---------------------------------||
A||------------------------|------------------------------------------------||
e||------------------------|------------------------------------------------||

         ~~~~~~~~~~~~~~~~~~~~~~~       G5  C5                 (1)~~~~~~~~
E||------19-------------------------|--------------------------5^------||
B||---------------------------------|--8--------------------3----------||
G||---------------------------------|--7---5-----4---4p2-4-------------||
D||---------------------------------|--5---3---------------------------||
A||---------------------------------|--5---3---------------------------||
e||---------------------------------|----------------------------------||

Chorus #2

               A5         A5           A5    
E||------|------------|----------|----------||
B||------|------------|----------|----------||
G||------|-----2------|----2-----|-----2----||
D||------|-----2------|----2-----|-----2----||
A||------|-----0------|----0-----|-----0----||
e||------|------------|----------|----------||

    A5   F5      G5  G5      A5         G\B  C5  
E||-------------------------|-------------------||
B||-------6-------8---8-----|-------------------||
G||---2---5-------7---7-----|-2--------------5--||
D||---2---3-------5---5-----|-2----------5---5--||
A||---0---3-------5---5-----|-0----------2---3--||
e||-------------------------|-------------------||

      C5             D5       E5  F5    F5        Bb5
E||----------------|-----------------|----------------------||
B||----------------|-----------------|----------------------||
G||---5------------|-7--------9---10-|--10----10\-3-----3---||
D||---5------------|-7--------9---10-|--10----10\-3-----3---||
A||---3------------|-5--------7----8-|---8-----8\-1-----1---||
e||----------------|-----------------|----------------------||

                             ~~~~~~~~~                        ~~~~~~~~~~
E||---------------------------------|---------------------------------||
B||---------------------------------|---------------------------------||
G||-----------------0-------0-------|----------------0-------0--------||
D||-----------7---------------------|---------4-----------------------||
A||---------------------------------|---------------------------------||
e||---0-----------------------------|---0-----------------------------||

                             ~~~~~~~~~
E||---------------------------------|---------------------------------||
B||---------------------------------|-----------------------------0---||
G||----------------0--------0-------|-----------0------------2--------||
D||---------4-----------------------|-------------------0-------------||
A||---------------------------------|-------3-------------------------||
e||---0-----------------------------|--0------------------------------||

                             ~~~~~~~~~                        ~~~~~~~~~~
E||---------------------------------|---------------------------------||
B||---------------------------------|---------------------------------||
G||-----------------0-------0-------|----------------0-------0--------||
D||-----------7---------------------|---------4-----------------------||
A||---------------------------------|---------------------------------||
e||---0-----------------------------|---0-----------------------------||

                             ~~~~~~~~~
E||---------------------------------|---------------------------------||
B||---------------------------------|-----------------------------0---||
G||----------------0--------0-------|-----------0------------2--------||
D||---------4-----------------------|---------------------------------||
A||---------------------------------|-------3-------------------------||
e||---0-----------------------------|--0-----------------1------------||

E||-------------------0-------------|----------------------0----------||
B||---------------------------------|---------------------------------||
G||-------------0-------------------|-------------2--------0----------||
D||---------------------------------|--------4------------------------||
A||---------------------------------|---------------------------------||
e||----0----------------------------|----0----------------------------||

E||---------------------0-----------|---------------------------------||
B||---------------------7-----------|----------------------7----------||
G||---------------0-----------------|----------------------7----------||
D||---------------------------------|-------------5-------------------||
A||----------4----------------------|--------3------------------------||
e||----0----------------------------|----0----------------------------||

E||----7----7--7--7----7--7--7------|---10----10-10-10----10-10-10----||
B||----8----8--8--8----8--8--8------|---10----10-10-10----10-10-10----||
G||----7----7--7--7----7--7--7------|---11----11-11-11----11-11-11----||
D||----9----9--9--9----9--9--9------|---12----12-12-12----12-12-12----||
A||---------------------------------|---------------------------------||
e||---------------------------------|---------------------------------||

E||----12---12-12-12----12-12-12----|---12----12-12-12----12-12-12----||
B||----12---12-12-12----12-12-12----|---10----10-10-10----10-10-10----||
G||----12---12-12-12----12-12-12----|---10----10-10-10----10-10-10----||
D||----11---11-11-11----11-11-11----|---10----10-10-10----10-10-10----||
A||---------------------------------|---------------------------------||
e||---------------------------------|---------------------------------||

---------------------------------------------------------------------------

2. ANOTHER DAY
Tuning - E,A,D,G,B,E

Intro:  (guitar + piano arranged for guitar)

E ------------------------------------------
B --0--------0-----------0--------0---------
G ------3-------3------------3-------3-3----  (repeat)
D --------4-------4------------4---------4-- 
A --------------------------------4---------
E --4--------2--------2--0-------------2----


Intro solo:

    G#m         F#     E             C#     F#      G#m        F#          C# 
E ---------------------------------------------------------------------------- 
B --12~---11--9--------------------------------------------------------11--13~
G --------------8~\--------------/8--6---------------------------------------- 
D ------------------------/6--9----------9--8---9^11^9~-----11--8~--8/9------- 
A ----------------------------------------------------------------------------
E ----------------------------------------------------------------------------

            E
E ----------14~-
B --11-12-------
G --------------
D --------------
A --------------
E --------------


	Rhythm fig. 1: (volume swells)
	E -------------------------------------------------------------
	B ---------------------------------------------7------5--------
	G --4---6---8------9------8------6------4--------------------4-
	D -------------------------------------------------------------
	A -------------------------------------------------------------
	E -------------------------------------------------------------


Verse 1:  (piano arranged for guitar)

    G#m          G#m+5                     F#sus4 F#maj   Emaj
E ------------------------------------------------2-------4-----------
B --4------4-----5-----5-----4-----4--------2-----2-------5-----5-----
G --4------4-----4-----4-----4-----4--------4-----3-------4-----4-----
D --6---6-----6-----6-----6-----6-----6-----4--4-----4-------6-----6--
A --------------------------------------------------------------------
E --4------------4-----------4--------------2-------------0-----------

    Live another day,        climb a little higher.             Find 


                                 (w/rhythm fig. 1)
    Bmaj           Amaj          F#sus4 F#maj     G#m           G#m+5
E --2--------------0-----0---------------------------------4-------------4--
B --4-----4--------2-----2--------2-----2---------4-------------5-----------
G --4-----4--------2--2-----2-----4-----3---------4------4------4------4----
D --4--4-----4--------------------4--4-----4------6---6------6--6---6------6
A --2--------------0--------------------------------------------------------
E --------------------------------2---------------4-------------4-----------

   another  reason to stay.                       Ashes in your hands,


   G#m           F#sus4 F#maj  Emaj          Bmaj            Amaj   Emaj
   mercy in your eyes.             If you're searching for a silent sky... 


Chorus:

E --------------0-------------0--------------0-----------0------
B ----------0-------------0--------------0-------------4---4----
G ------6---------------8--------------9-------------4-------4--   
D ----6---6-----------9--------------9--------------------------
A --4---------------6--------------7---------------2------------
E --------------------------------------------------------------

You won't find it   here.          Look another way. 


E --------------0-------------0--------------0------------------
B ----------0-------------0--------------0---------------0------
G ------6---------------8--------------9---------------3----3---   
D ----6---6-----------9--------------9---------------4--------4-
A --4---------------6--------------7----------------------------
E -------------------------------------------------2------------

You won't find it here.         So die another day.


Sax solo: (same as intro solo, but raised an octave + minor variations)
E -------------------------------------------------------------------------
B ---------0-----------0-----------0-----------0----------0-----------0----
G -------3---3-------3---3-------3---3-------3---3------3---3-------3---3--
D -----4-----------4-----------4-----------4----------4-----------4--------
A --------------------------------------4----------------------------------
E --4----------2-------------0---------------------4----------2------------

E -----------0--
B ---------0----
G -------6------
D -----6--------
A --------------
E --0-----------


Verse 2:
	
(pick through verse 1 chords)

The coldness of his words.  The message in his silence.
"Face the candle to the wind..."

(sax arranged for guitar)
E --/19-19-----------------------
B ----------19-19-17--17--16-----
G ---------------------------16--
D -------------------------------
A -------------------------------
E -------------------------------

This distance in my voice.  Isn't leaving you a choice.
So if you're looking for a time to run away...

(chorus)

   ah
E ----------------------------
B ----------------------------
G ----------------------------
D --4~---2-2-1----------------
A -------------4-2-4-2-1------
E -----------------------4-2--
	|<--- palm mute  -->|


(arranged for 2 guitars - E and B strings are clean, chords distorted) 
E --------------0-------------------------------0---------------------
B -----4-----------------4--------------4--------------4--------------
G --4----------------------------2------------------------------------
D --4----------------------------2------------------------------------
A --2----------------------------0------------------------------------
E --------------------------------------------------------------4~----

      They took pictures of our dreams, ran to hide behind the stairs


E ----------0----------------------------0--------------0--
B --4-------------4-------------------4--------------4----- (play twice,
G ---------------------------------4--------------4--------  with lyrics 
D ---------------------------4----------------2------------  2nd time)
A ---------------------------4----------------2------------
E ---------------------------2----------------0------------

    And said maybe when it's right for you, they'll fall.


   G                             C
E --------------------------------------------0-----------------------------
B -----------3----------------------------1--------1------------------------
G --------0-----2----0-----------------0------------------------------------
D -----0----------------------------2---------------------------------------
A -------------------------------3------------------------------------------
E --3-----------------------------------------------------------------------

    But if they don't come down, resist the need to pull them in.


    D/F#                   E             D            C
E --------------0----------------------------------------------------------
B -----------3-----3------------------------------0------------3-----------
G -------2---------------------------0---------0------------5-----5--------
D --0-----------------------------4---------4------------5-----------5-----
A -----------------------------7---------5------------3-----------------3--
E --------------------------0----------------------------------------------

         And throw them     away.        Better to    save the mystery,


    Bsus4 Bmaj
E --------------------------------------------------------------------------
B --5-----4-----------------------------------------------------------------
G --4-----4-----------------------------------------------------------------
D --4-----4----------------2---2---------------2---2--------4---4--4--4--4--
A --2-----2------------2-5---------5-2-----2-5--------5-2---4---4--4--4--4--
E -----------------0-------------------0--------------------2---2--2--2--2--

   Than surrender to the secret...


Solo:

            G#m         G#m+5          G#m                     F#sus4 
E -------- -----------------------------------------------------------------
B 11(b)12- -(b)12-11-9--11(b)12~~---9--12(b)14-(b)14-12~---11^12^11---------
G -------- ---------------------------------------------------------11------
D -------- ------------------------------------------------------------\11~-
A -------- -----------------------------------------------------------------
E -------- -----------------------------------------------------------------

                 E          B               A                      F#sus4
E --------------------------------------------------------------------------
B ---------------12~--------------------------------------------------------
G ---------8-9~-------8(b)9--8~--8-9-11---9^8-------------------------------
D --8-9-11------------------------------------11--11^9^7----7---------------
A -------------------------------------------------------11---9(b)11--9-9~--
E --------------------------------------------------------------------------

 

    G#m                 G#m+5                       G#m               F#sus4
E --21(b)23----(b)23~---(b)24~~\------------19--21--21(b)23---(b)24---21~--
B ------------------------------------/21----------------------------------
G -------------------------------------------------------------------------
D -------------------------------------------------------------------------
A -------------------------------------------------------------------------
E -------------------------------------------------------------------------

                    E                                   B  
E --19--18---19-21--19--16--------------------------------------------------
B -------------------------19-16-----19--16---------------------------------
G -------------------------------18---------18-16----18-16~~------16--------
D ------------------------------------------------18-----------16---16------
A --------------------------------------------------------------------18----
E ----------------------------------------------------------------------19--

                          A                           E  
E ------------------16-19-17~~---21-----19-----16-----14----11---9-----------
B ---------------19------------19--19\17--17\14--14\12--12\9--9\7-7t9--------
G --16--18(b)20-------------------------------------------------------8t9--6~
D ---------------------------------------------------------------------------
A ---------------------------------------------------------------------------
E ---------------------------------------------------------------------------

--------------------------------------------------------------------------

3. TAKE THE TIME
Tuning - E,A,D,G,B,E

Intro - electric guitar w/distortion
    C#m                             B/C#
E|--------------------------------|-------------------------------------|-
B|--------------------------------|-------------------------------------|-
G|5:------------------------------|6:-----------------------------------|-
D|4:------------------------------|4:-----------------------------------|-
A|--4-4-4---4---4---4---4-4-4-----|-------4-4-4---4---4---4---4-4-4-----|-
E|--------------------------------|-------------------------------------|-
    PM throughout

   A/C#                               Abm/C#            C#m
E|-----------------------------------|----------------|------------------|
B|-----------------------------------|----------------|------------------|
G|-----------------------------------|3:--------------|------------------|
D|-----------------------------------|4:--------------|------------------|
A|-----4-4-4---4---4---4---4-4-4-----|------4-4-4-4---|-4---4---4-4-4-4--|
E|-----------------------------------|----------------|------------------|

   B/C#                A/C#                B/C#
E|-------------------|-------------------|---------------------------|----
B|-------------------|-------------------|---------------------------|----
G|-------------------|-------------------|15:------------------------|----
D|-------------------|-------------------|16:------------------------|----
A|-4-4-4-4---4---4---|-4-4-4-4---4-4-4-4-|---4---4---4-4-4-4---4-4-4-|----
E|-------------------|-------------------|---------------------------|----

   C#m
E|----------------------------------------------------|-------------------
B|----------------------------------------------------|-------------------
G|12:-------------6-----------------------------------|-------------------
D|-8:-6-----------6-----2-----6-----------------------|-------------------
A|----4-----------------2-----4---------------4---2---|-------------------
E|----4-----4-4-4---------0-0-4-----0-----2-3---3---3-|-------------------
	    PM--/         PM-/            PM- - - - /

E|-------------------------------------------------|----------------------
B|-------------------------------------------------|----------------------
G|-------------6-----------------------------------|----------------------
D|-6-----------6-----2---------4---------5---4-----|----------------------
A|-4-----------------2-----7-4---7-4-7-4---4---4-7-|----------------------
E|-4-----4-4-4-------------------------------------|----------------------
	 PM--/             PM- - - - - - - - - - /

E|------------------------------------<5>-----<7>--|----------------------
B|----------------------------------<5>-----<7>-<7>|----------------------
G|-------------6-----6-x-x-7------<5>-----<7>------|----------------------
D|-6-----------6-----6-x-x-5----<5>-----<7>--------|----------------------
A|-4-----------------------5-----------------------|----------------------
E|-4-----4-4-4-------------------------------------|----------------------
	 PM--/
			    1/2 P
E|--------------------------------------------------|---------------------
B|-------------------------11b-r--------------------|---------------------
G|-------------6-----6-----11b-r^9------------------|---------------------
D|-6-----------6-----6-------------11\6-4-----------|---------------------
A|-4-----------4-----4--------------------7-4-------|---------------------
E|-4-----4-4-4--------------------------------4-----|---------------------
	 PM--/

   C#m             E		 F#      ~~~~  B
E|-----------------------------|---------------------------------------|--
B|-----------------------------|---------------------------------------|--
G|-----------------------------|---------------------------------------|--
D|-6-------6-6-x-x-6--7-----6--|-4-------------4-----------------------|--
A|-4-------4-4-x-x-7--7-----7--|-4-------------2-----------------------|--
E|-4-------4-------------------|---------------2-----0-0-0-0-0-0-0-0-0-|--
						     PM - - - - - - -/

   C#m             E		 F#      ~~~~  B
E|-----------------------------|---------------------------------------|--
B|-----------------------------|---------------------------------------|--
G|-----------------------------|---------------------------------------|--
D|-6-------6-6-x-x-6--7-----6--|-4-------------4-----------------------|--
A|-4-------4-4-x-x-7--7-----7--|-4-------------2-----------------------|--
E|-4---------------------------|---------------2-----0-0-0-0-0-0-0-0-0-|--
						     PM - - - - - - -/

   C#m                                               C#m7,9
	  \/ \/ \/ \/  \/ \/ \/ \/    \
E|-------------------|-------------------|---------|-7---------|----------
B|-------------------|-------------------|---------|-4---------|----------
G|6:-6---------------|(6)---------<2.7>--|---------|-6---------|----------
D|4:-6---------------|(6)---------x------|---------|-6---------|----------
A|---4---------------|(4)--------x-------|---------|-4---------|----------
E|-------------------|-------------------|---------|-----------|----------
						    vol. knob swell
1st Verse - clean tone
   C#m                                 F#7/C#
E|-----------------------------------|-----------------------------------|
B|-----------------------------------|-----------------------------------|
G|-----------------------------------|-----------------------------------|
D|-----------------------------------|-----------------------------------|
A|-4---4---2--2-4--4-4-4-4-4-4-------|-4---4---2--2-4--4-4-4-4-4-4-------|
E|-----------------------------0--2--|-----------------------------0--2--|
	   PM-/    PM- - - - /                 PM-/    PM- - - - /

   E2/C#			       A#m7/C#
E|-----------------------------------|-----------------------------------|
B|-----------------------------------|-------------------5----5----5-----|
G|-----------------------------------|-------------------4----4----4-----|
D|-----------------------------------|-----------------------------------|
A|-4---4---2--2-4--4-4-4-4-----------|-4---4---2--2-4---4----4----4------|
E|---------------------------x-0--2--|-----------------------------------|
	   PM-/    PM- - /                     PM-/

   C#m                                 F#7/C#
			       .   ~~		     ~~            .  ~~~
E|-----------------------------------|-----------------------------------|
B|-----------------------------------|-----------------------------------|
G|---------4--4-6--------------------|---------4--4-6--------------------|
D|-----------------------------2--4--|-----------------------------2-x4--|
A|-4---4-----------4-4-4-4-4-4-------|-4---4-----------4-4-4-4-4-4-------|
E|-----------------------------------|-----------------------------------|
	   PM-/    PM- - - - /                 PM-/    PM- - - - /

   E2/C#			          A#m7/C#
		      .   P     P                 .  .  .    .  .   .
E|--------------------------------------|---------------6----7--12--9----|
B|--------------------------------------|--------------------7--12--9----|
G|---------4-4-6--6-6-6--6^4---6^4------|--------x4--4-6--x--------------|
D|----------x---------------(6)---6-4-6-|--------------------------(x)\--|
A|-4---4--------------------------------|-4---4--------------------(x)\--|
E|--------------------------------------|--------------------------------|
	   PM-/
   C#m                                                       ~~~~
E|-----------------------------------------|-----------------------------|
B|-----------------------------------------|-----------------------------|
G|-------------4-----6----------6----------|-----------4---x-6-----------|
D|-6---6-------4---x-6----------6----------|-6--6------4---x-6---xx4--2--|
A|-4---4---4-4---4-x------4-4-4-----x2--4--|-4--4--4-4-----------xx4--2--|
E|----------------------------------x0--2--|-----------------------------|
   w/dist. PM/   PM       PM--/                    PM/

E|-----------------------------------|-----------------------------------|
B|-----------------------------------|-----------------------------------|
G|-------xx4-x6----------6-----------|------------4--x6---------6--------|
D|-6--6--xx4-x6----------6-----------|-6--6-------4--x6---------6--------|
A|-4--4------------4-4-4------x2--4--|-4--4---4-4---------4-4-4----4--2--|
E|----------------------------x0--2--|-----------------------------2--0--|
		   PM--/                      PM/         PM--/

2nd Verse - clean tone
    C#m7,9                 F#7,11/C#              E2
E|----------0------------|---------0------------|---------7------------|--
B|-------0-----0---------|------0-----0---------|------7-----7---------|--
G|7:----8---------8------|-----3---------3------|-----9---------9------|--
D|4:--6--------------6---|---4--------------4---|---9--------------9---|--
A|--4--------------------|-4--------------------|----------------------|--
E|-----------------------|----------------------|-0--------------------|--

   A#m7                   C#m7,9                 F#7,11/C#
E|---------6------------|---------0------------|---------0------------|---
B|------9-----9---------|------0-----0---------|------0-----0---------|---
G|-6---6---------6------|-----8---------8------|-----3---------3------|---
D|---6--------------6---|---6--------------6---|---4--------------4---|---
A|----------------------|-4--------------------|-4--------------------|---
E|----------------------|----------------------|----------------------|---

   E2                         C#m
E|----------14-------------|----------------------------------|-----------
B|------12------12---------|----------------------------------|-----------
G|-----9------------9------|4:--------4-1-----6-4---8-4---9-4-|-----------
D|---9-----------------9---|4:------------4-2-----6-----6-----|-----------
A|-------------------------|--4---4---------------------------|-----------
E|-0-----------------------|----------------------------------|-----------
			      w/distortion          PM- - - -/

				     Chorus:
					C#m	      E
E|---------------------------------|----------------------------------|---
B|---------------------------------|----------------------------------|---
G|-8-4-6-4---6-4-------------------|12:-------------------------------|---
D|---------6-----6-4---6-4---------|-8:-6-------6-----6---7-------6-x-|---
A|-------------------7-----7-4-----|----4-------4-x-x-7---7-------7-x-|---
E|-----------------------------7-4-|----4---------x-x-----------------|---
   PM- -/

   F#  ~~~ B                         C#m           E
E|---------------------------------|-------------------------------|------
B|---------------------------------|-------------------------------|------
G|---------------------------------|-------------------------------|------
D|-4-------4-----------------------|-6-------------6---7-------6---|------
A|-4-------2-----------------------|-4---------x-x-7---7-------7---|------
E|---------2-----0-0-0-0-0-0-0-0-0-|-4-----------------------------|------
		 PM- - - - - - - -/
   F#      B                                        C#m      B A(+7)
E|------------------------------------------------|---------------------|-
B|------------------------------------------------|---------------------|-
G|------------------------------------------------|------------1--------|-
D|-4-------4--------------------------------------|-6------x-4-2------x-|-
A|-4-------2--------------------------------------|-4------x-2--------x-|-
E|---------2---<5><5><4><3><2.7><2.3><2.3><2.7><3>|-4-------------------|-

      F#          E  A    B    C#m            E             F#    B
E|---------------------------|----------------------------|-------------|-
B|-------------------10---12\|----------------------------|-------------|-
G|10:-4---3-----x-6--9----11\|----------------------------|-------4-----|-
D|-8:-4---4-----x-9--7----9-\|-6--------6-x-x-6--7-----6--|-4-----4-----|-
A|---------------------------|-4--------4-x-x-7--7-----7--|-4-----2-----|-
E|---------------------------|-4--------------------------|-------------|-

3rd Verse:
   B                       E
E|-------------------------------------------------|----------------------
B|-------------------------------------------5-----|----------------------
G|-------------------2-------------------4---------|----------------------
D|---------------4---------2-2-2---2-2-2---2---2-2-|----------------------
A|-2-2-2---2-2-2---2---2-2-------------------------|----------------------
E|-------------------------------------------------|----------------------
   PM (through out next two bars)

   F#11                    A
E|-------------------------------------------------|----------------------
B|-------------------------------------------------|----------------------
G|-------------------------------------------------|----------------------
D|-------------------4---------------------7-7-----|----------------------
A|---------------4-----------------------7-----7---|----------------------
E|-2-2-2---2-2-2---2---2-2-5-5-5---5-5-5---------5-|----------------------

   B                       C#m
E|-------------------------------------------------|----------------------
B|-------------------------------------------------|----------------------
G|-------------------4-----------------------4-----|----------------------
D|---------------4-----------------------6---------|----------------------
A|-2-2-2---2-2-2---2---2-2-4-4-4---4-4-4---4---4-4-|----------------------
E|-------------------------------------------------|----------------------
   PM- - - - - - - - - - - - - /

   A                       E
E|-------------------------------------------------|----------------------
B|-------------------------------------------------|----------------------
G|-------------------------------------------------|----------------------
D|-------------------------------------------------|----------------------
A|-0-0-0-0-0-0-0-0-0-0-0-0-------------------0-2-4-|----------------------
E|-------------------------0-0-0-0-0-0-0-2-4-------|----------------------

   B           E             F#11        A2
E|-------0-----------0-----|-------------------0-----|--------------------
B|----------0-----------0--|-------0--------------0--|--------------------
G|-----4-------------------|-----3----3------2-------|--------------------
D|---4-------------2-------|---4-----------2---------|--------------------
A|-2-------------2---------|-------------0-----------|--------------------
E|-------------0-----------|-2-----------------------|--------------------

   B           C#m           A           E
E|-------0-----------0-----|-------0-----------0-----|--------------------
B|----------0-----------0--|----------0-----------0--|--------------------
G|-----4-----------6-------|-----6-------------------|--------------------
D|---4-----------6---------|---7---------------------|--------------------
A|-2-----------4-----------|-0-----------------------|--------------------
E|-------------------------|-------------0-----------|--------------------

Chorus:
   C#m     E         F#7,11  B4        C#m     E         F#7,11  B4
E|-----------------|-----0-------0---|-----------------|-----0-------0---|
B|-----------------|-----0-------0---|-----------------|-----0-------0---|
G|-6-------9-------|-------3-4-------|-6-------9-------|---------4-------|
D|-6-------9-------|-4-------4-------|-6-------9-------|-4-------4-------|
A|-4-------7-------|-4-------2-------|-4-------7-------|-4-------2-------|
E|-----------------|-2---------------|-----------------|-2---------------|
  Rhy. Fig. 1 ->

   C#m   B A(+7)        F#    E A   B   C#m    E         F#      B
E|-----------------|------------------|----------------|-----------0-----|
B|-----------------|------------------|----------------|-------------4---|
G|-6-------1-----x-|10:-4-3--x9-9--11\|----------------|---------4-----4-|
D|-6----x4-2-----x-|-8:-4-4--x6-7--9-\|-6---6--6-7---6x|-4-------4-------|
A|-4----x2---------|------------------|-4---4xx7-7---7x|-4-------2-------|
E|-----------------|------------------|-4----xx--------|-2---------------|
					End Rhy. Fig. 1

4th Verse - piano arranged for guitar:
 (not exactly the piano part, it's modified a little to make is possible
  far guitar)
  
     C#m    B          F#2    E2         C#m2   B          F#2   E2
E|-------------------|-2------0--------|----}4-----------|-2-----0------|-
B|-------------------|-2------0--------|----}4-------4-5-|-2-----0------|-
G|4:-6------4--------|-1---------------|-6--}6--4----4---|-1------------|-
D|4:-6------4--------|--------4--------|-6--}6--4--------|-------4------|-
A|---4------2--------|-----------------|-4--}4--2--------|--------------|-
E|-------------------|-2------0--------|-----------------|-2-----0------|-
   (tempo change)                           ^reverse rake

   A                               C#m     B             C#m2 E
E|-12-11---------------------------------|-12----7--------9---12---|------
B|-------12-10---------------------------|---------7---9--9---12---|------
G|-------------11-9-8-------8-9-11-------|----------------8---13---|------
D|--------------------9-7-9--------------|-------------------------|------
A|-0-------------------------------------|-------------------------|------
E|---------------------------------9-----|-7--------------9---12---|------

Interlude:
  Guitar & bass unisono part:
      B                 P              N.C. (G#5)
E|----11-----------------------------|-----------------------------------|
B|----12-----------------------------|-----------------------------------|
G|13:-11-----------------------------|o-9:-------------------------------|
D|16:--------------7---6^4-----4-----|o16:-----6-------7---6-4-----4-----|
A|-------------------------7-------6-|-------------------------7-------6-|
E|----7------------------------------|-4-4-4-------4---------------------|
		   w/distortion        PM--/      PM

				   2x  N.C. (C#5)
E|-----------------------------------|-----------------------------------|
B|-----------------------------------|-----------------------------------|
G|----------------------------------o|---------6-------7---6-4-----4-----|
D|---------6-------7---6-4-----4----o|-------------------------7-------6-|
A|-----------------------------------|-4-4-4-------4---------------------|
E|-4-4-4-------4-----------7-------5-|-----------------------------------|
   PM--/       PM                      PM--/       PM

				       N.C. (F#5)
E|-----------------------------------|-----------------------------------|
B|-----------------------------------|-----------------------------------|
G|---------6-------7---6-4-----4-----|-----------------------------------|
D|-----------------------------------|---------4-------5---4-2-----2-----|
A|-4-4-4-------4-----------7-------5-|-------------------------5-------4-|
E|-----------------------------------|-2-2-2-------2---------------------|
   PM--/       PM                      PM--/       PM

					     F#2
E|-----------------------------------------|---------------------|--------
B|-----------------------------------------|---------------------|--------
G|5:---------------------------------------|-6---6-----6---6-----|--------
D|8:-------4-------5---4-2-----0-----------|-------6---------6---|--------
A|-----------------------------------------|---9-----9---9-----9-|--------
E|-2-2-2-------2-----------5-------3---0---|---------------------|--------
   PM--/       PM                            PM throughout next 4 bars

The palm-muted arpeggios - watch the sixteenth notes.

   G#/F#
E|---------------------------------------------------|--------------------
B|---------------------------------------------------|--------------------
G|-8------------------------8------------------------|--------------------
D|----------11---10-10---------------11---10-10------|--------------------
A|-----11--------------11-------11--------------11---|--------------------
E|---------------------------------------------------|--------------------

   B/F#
E|-----------------------------------------------------|------------------
B|-----------------------------------------------------|------------------
G|-11------------------------11------------------------|------------------
D|-----------14---13-13----------------14---13-13------|------------------
A|------14--------------14--------14--------------14---|------------------
E|-----------------------------------------------------|------------------

   D/F#
E|--------------------------------------------------|---------------------
B|--------------------------------------------------|---------------------
G|-11-------------------11-----------------13-14-16-|---------------------
D|-----------14---12--------------13-14-16----------|---------------------
A|------12-------------------12---------------------|---------------------
E|--------------------------------------------------|---------------------

   F#2                             G#
E|-------------------------------|-------------------------------------|--
B|-------------------------------|-16----------------16----------------|--
G|-18----18-------18----18-------|-------18--17-17---------18--17-17---|--
D|----16----18-16----16----18-16-|----18----------18----18----------18-|--
A|-------------------------------|-------------------------------------|--
E|-------------------------------|-------------------------------------|--

   B                                               D
E|-14---------------------14---------------------|-14---------14---------|
B|---------17---16-16------------17---16-16------|-----17-15------17-15--|
G|-----16-------------16------16-------------16--|---14-----14--14-----14|
D|-----------------------------------------------|-----------------------|
A|-----------------------------------------------|-----------------------|
E|-----------------------------------------------|-----------------------|

tempo change
    F#                G#                 B                 D      E
   w/bar:  ~~~~~          /\        ~~~      ~               ~~~(\)/
E|------------------|------------------|-----------------|---------------|
B|--9-----7---------|/11-----9---------|-9-----7---------|-9------7------|
G|4:------------6---|--------------8---|-------------6---|----------7----|
D|4:----------------|------------------|-----------------|---------------|
A|------------------|------------------|-----------------|---------------|
E|------------------|------------------|-----------------|---------------|

   F#                              G#
E|-------------------------------|------------------------------|---------
B|-9--------x-x-11--------11-----|-11-------x-x-13-------13-----|---------
G|-11-------x-x-11--------11-----|-13-------x-x-13-------13-----|---------
D|-11-------x-x-11--------11-----|-13-------x-x-13-------13-----|---------
A|-------------------------------|------------------------------|---------
E|-------------------------------|------------------------------|---------

   B                                     D          E
E|-11---------9--------11-----14-------|/14---14/16-16---16/18-|----------
B|-12-----x-x-12---x-x-12-----12---x-x-|/15---15/17-17---17/19-|----------
G|-11-----x-x-11---x-x-11-----11---x-x-|/14---14/16-16---16/18-|----------
D|-------------------------------------|-----------------------|----------
A|-------------------------------------|-----------------------|----------
E|-------------------------------------|-----------------------|----------

The wild part:

Gtr. 2:
   F#
E|-----------------------------------------16--18--14--------------|------
B|-14----------16--14------18--19----------------------------------|------
G|-----13--------------------------18------------------18--16--15--|------
D|---------16----------16--------------16--------------------------|------
A|-----------------------------------------------------------------|------
E|-----------------------------------------------------------------|------

   G#	              			 P  P
E|-------------------------------------------------------16------16--|----
B|---------11--13------14--16------14--16^14^13------16------14------|----
G|-13--------------13----------------------------13------------------|----
D|-----13----------------------13------------------------------------|----
A|-------------------------------------------------------------------|----
E|-------------------------------------------------------------------|----

   B               			 P  P
E|-------------------------------------------------------19------19--|----
B|---------14--16------17--19------17--19^17^16------19------17------|----
G|-16--------------16----------------------------16------------------|----
D|-----16----------------------16------------------------------------|----
A|-------------------------------------------------------------------|----
E|-------------------------------------------------------------------|----

   D                               E
E|-17--16------------------14--17/-19--16----------19------------\---|----
B|---------17----------15------------------17------------------------|----
G|-------------16--14--------------------------16--------------------|----
D|-------------------------------------------------------------------|----
A|-------------------------------------------------------------------|----
E|-------------------------------------------------------------------|----

   F#
E|-----------------------------------------16--18--14--------------|------
B|-14----------16--14------18--19----------------------------------|------
G|-----13--------------------------18------------------18--16--15--|------
D|---------16----------16--------------16--------------------------|------
A|-----------------------------------------------------------------|------
E|-----------------------------------------------------------------|------

   G#	              			 P  P
E|-------------------------------------------------------16------16--|----
B|---------11--13------14--16------14--16^14^13------16------14------|----
G|-13--------------13----------------------------13------------------|----
D|-----13----------------------13------------------------------------|----
A|-------------------------------------------------------------------|----
E|-------------------------------------------------------------------|----

   B               			 P  P
E|-------------------------------------------------------19------19--|----
B|---------14--16------17--19------17--19^17^16------19------17------|----
G|-16--------------16----------------------------16------------------|----
D|-----16----------------------16------------------------------------|----
A|-------------------------------------------------------------------|----
E|-------------------------------------------------------------------|----

   D                               E
E|-----19--17----------------------------------------------16--17--|------
B|-16--------------17--19--17------16--17--17--16--17--19----------|------
G|-------------16--------------16----------------------------------|------
D|-----------------------------------------------------------------|------
A|-----------------------------------------------------------------|------
E|-----------------------------------------------------------------|------

The bluesy part - tricky rhythm here.

C#m
     1~~~~~             ~~~~~~~                              P.H.
E|-----------------------|-------------------------|---------------------|
B|-19b-------------------|-------------------------|---------------------|
G|---------------------6-|(6)---4------------------|---------------------|
D|---------xx4-4---6-----|---------xx4/5\4-2-4-----|xx(2)/4--2-----------|
A|-4---7-----------------|---------------------2---|------------4-xx2----|
E|-----------------------|-------------------------|-------------------xx|
 Gtr 1.^
						    P.H.
E|-------------------|-----------------------|-------------------------|--
B|-------------------|-----------------------|-------------------------|--
G|-------------------|---------------------6-|(6)---4------------------|--
D|-------------------|---------xx4-4---6-----|---------xx4/5\4-2-4-----|--
A|--4-------------x4-|-x-x-7-----------------|---------------------2---|--
E|-0-1--2-xx3---4----|-----------------------|-------------------------|--

	   P.H.
E|---------------------|-----------------------------|-------------------|
B|---------------------|-----------------------------|-------------------|
G|---------------------|-----------------------------|-----------------6-|
D|xx(2)/4--2-----------|-----------------------------|------xx4-4---6----|
A|------------4-xx2----|--4----------------x-2---x-4-|---7---------------|
E|-------------------xx|-0-1---2---x-x-3-4-----------|-------------------|

  ~~~~ tr~~                          P.H.     P.H~~
E|--------------------------|----------------------|-------------------|--
B|----5(6)------------------|----------------------|-------------------|--
G|(6)--------6-4------------|----------------------|-------------------|--
D|---------------6---4-2----|xx(2)/4--2------------|-------------------|--
A|-----------------------4--|------------4-xx2-4---|-----4-----4-----4-|--
E|--------------------------|----------------------|-------2-----3-----|--

		  ~~~~~~             H P       ~~~~  E5      B5
E|-----------------|--------------9----------------|-----------------|----
B|-----------------|-----------7----7^8^7---7------|-----------------|----
G|-------------xx6-|(6)-/6--9-------------9---6----|-9---------------|----
D|-----xx4-x-6-----|-------------------------------|-9-------9-------|----
A|-x-7-------------|-------------------------------|-7-------9-------|----
E|-----------------|-------------------------------|---------7-------|----

				   Keyboard solo:
  N.C.                              C#m
E|--------------------------------|-------------------4-------------|-----
B|--------------------------------|---------5---------5-----5-------|-----
G|--------------------------------|o--------6---------6-x-x-6-------|-----
D|--------------------------------|o--------------------x-x---------|-----
A|--------------------------------|-4---4-----------4---------------|-----
E|-1-0-2-0-3-0-4-0-5-0-6-0-7-8----|---------------------------------|-----
   PM - - - - - - - - - -/          PM -/           PM

				    F#7
E|-------------------4-----6------|---------------------------------|-----
B|---------5---------5-----5------|-------------------9-------------|-----
G|---------6---------6-x-x-6------|---------9---------9-----9-------|-----
D|---------------------x-x--------|---------8---------8-x-x-8-------|-----
A|-4---4-----------4--------------|-9---9-----------9---x-x---------|-----
E|--------------------------------|---------------------------------|-----
   PM -/           PM               PM -/           PM

				    E2
E|--------------------------------|---------7---------------7-------|-----
B|-------------------9-----12-----|---------7---------7-----7-------|-----
G|---------9---------9-----9------|---------9---------9-x-x-9-------|-----
D|---------8-----------x-x-9------|---------------------x-x---------|-----
A|-9---9-----------9--------------|-7---7-----------7---------------|-----
E|--------------------------------|---------------------------------|-----
   PM -/           PM               PM -/           PM

	 B                             play 2x      C#5 E5    F#5 B5
E|-----|---------------------------------|-----|------------|---------|---
B|-----|---------------------------------|-----|------------|---------|---
G|--|---------6---------6-----6-------|--27757754724|12:-6---9---|-----4---|---
D|-----|---------4---------4-x-x-4-------|----o|-8:-6---9---|-4---4---|---
A|-----|-2---2-----------2---x-x---------|-----|----4---7---|-4---2---|---
E|-----|---------------------------------|-----|------------|-2-------|---

   C#5                                E5
  Gtr. 2:
E|----------14----16----------14-16-16---------------------------16-14---|
B|-14-17-14----14----14-17-14------------------------17----19-17-------19|
G|---------------------------------------16----18------------------------|
D|------------------------------------14----14----14----14---------------|
A|-----------------------------------------------------------------------|
E|-----------------------------------------------------------------------|
  Gtr 1. repeats last 2 bars


E|-----------------------------------------------------------------------|
B|----------------------17----19-17-17-19------17----16----------16-17---|
G|-15-------16----18-16----18---------------18-------------18----------16|
D|----16-14----16------------------------16-------16----16----16---------|
A|-----------------------------------------------------------------------|
E|-----------------------------------------------------------------------|

 Chorus w/Rhy. Fig. 1 (Gtr. 1)        _
   ~~~~~~~~         F#5     B5  A5   /.\ E5   Slow down a little...
E|---------|------|-----------------|-------------------------------------
B|---------|------|-----------------|------------------------|------------
G|-18------|--6---|---------4---2---|-------------------------------------
D|---------|-bars-|-4-------4---2---|-2----------------------|------------
A|---------|------|-4-------2---0---|-2-----------------------------------
E|---------|------|-2---------------|-0----------------------|------------

Piano arranged for guitar:
   A        C   (9,#11)  E            F#   (7,11)   A         C  (9,#11)
E|---------------------|-4----------------------0-|(0)--------3----------|
B|-5-----5--8----7--5--|-5------------2-------0---|-------5---5---7---5--|
G|-6--------9----7--5--|-4----4-------3-----3-----|-6-----6---5---7---5--|
D|-----7----10---5--5--|-6-------6----4---4-------|-7-----7-------5---5--|
A|-0--------10---------|----7------7--------------|----(7)--7-3-----3----|
E|---------------------|--------------2-----------|-5--------------------|

w/distortion:
   E            F#      A               C                 E        F#
    ~~~~~     1/2 ~~~~  1  P .  ~~~~   1  P      H  P     ~~~~   1/2 ~~~
E|--------------------|--------12-----------------------|----------------|
B|/9--------11b-r-----|b12r^10-------12b-r^10-----------|/9--------------|
G|------9-------------|-----------------------9--^11^9--|-----9--3b-r---\|
D|--------------------|---------------------------------|----------------|
A|--------------------|---------------------------------|----------------|
E|--------------------|---------------------------------|----------------|
					       wide vibrato (1/2 step)^

  A              C                 E      F#           A            C
	      ~~~~   .   1/2      P
E|-------------------------------|-------------------|-------------------|
B|-----------2------5-7-7b--rb-r^|^5-----------------|-------------------|
G|-------2--------5--------------|-------------------|-------------------|
D|-2-----------------------------|-------------------|-------------------|
A|-------------------------------|-------------------|-------------------|
E|-------------------------------|-------------------|-------------------|
 | Gtr. 2 (w/slide):
E|-------------------------------|-------------------|-------------------|
B|-------------------------------|/9---/-11---------/|/14---------/-17--/|
G|-------------------------------|/9---/(11)-11-----/|(14)-14-----/(17)-/|
D|-------------------------------|/9---/(11)-----11-/|(14)----14--/(17)-/|
A|-------------------------------|-------------------|-------------------|
E|-------------------------------|-------------------|-------------------|

Outro chorus:
  E                                 F#
  Gtr. 2:
E|--------------------------------------------------------------------|---
B|--(21)/--------------------------/x---------------------------------|---
G|o-(21)/--------------------------/x---------------------------------|---
D|o-(21)/2--------2-------2-------2---4---4-------4-------4-------4---|---
A|---2---2--------2-------2-------2---4---4-------4-------4-------4---|---
E|---0---0----0-0-0---0-0-0---0-0-0---2---2---2-2-2---2-2-2---2-2-2---|---
  Gtr. 1^     PM      PM      PM              PM      PM      PM

   A				   C		           play 2x
E|-----------------------------------------------------------------|------
B|-----------------------------------------------------------------|------
G|-2---2-------2-------2-------2---5---5-------5-------5-------5--o|------
D|-2---2-------2-------2-------2---5---5-------5-------5-------5--o|------
A|-0---0---0-0-0---0-0-0---0-0-0---3---3---3-3-3---3-3-3---3-3-3---|------
E|-----------------------------------------------------------------|------
	   PM      PM      PM              PM      PM      PM
Outro Solo:
   E               F#                A                C
 Gtr. 2:         1/2 ~~~~~~~~~~~~~     1 ~~~ P         1/2 P       H P  \
E|---------------------------------|------------12-----------------------|
B|/9-----------11b-r---------------|-12b----r^10------12b-r^10--\5-^7^5--|
G|-------9-------------------------|-2----------------5------------------|
D|-2---------------4---------------|-2----------------5------------------|
A|-2---------------4---------------|-0----------------3------------------|
E|-0---------------2---------------|-------------------------------------|
 Gtr. 1^

   E                       F#
 (\)/~~~~~(\)/        1/2 ~~     1/2  P   1/2 ~~T~~P
E|-------------------------------------------------------------|----------
B|-9-----------------11b-r--9-11-b11-r^9-11b---18--^11-r-9-----|----------
G|----------9--------------------------------------------------|----------
D|-------------------------------------------------------------|----------
A|-------------------------------------------------------------|----------
E|-------------------------------------------------------------|----------
 (Gtr. 1 repeats)

   A                            C
     1      1  P     ~~~~         ~~~~         ~~~~~  H  H
E|-----------------12----------------------------------------|------------
B|-12b-----rb-r^10-------/17-19-20-----19-17-15-----15^17^19-|------------
G|-----------------------------------------------------------|------------
D|-----------------------------------------------------------|------------
A|-----------------------------------------------------------|------------
E|-----------------------------------------------------------|------------

   E                             F#
     ~~~~   H                    ~~~~~
E|-----------------------16-19-18-----21--18-----18--14--------------14--|
B|-17-----------------17-------------------19----------14----------14----|
G|--------------16-18------------------------18----------15------15------|
D|--------16^18--------------------------------------------16--16--------|
A|-----------------------------------------------------------------------|
E|-----------------------------------------------------------------------|

   A                                          C
						  ~~~~~
E|-12---9------9--5--------------5------9-12--15-------14-----12---|------
B|--------10--------5----------5------10---------------------------|------
G|----------9---------6------6------9------------------------------|------
D|----------------------7--7---------------------------------------|------
A|-----------------------------------------------------------------|------
E|-----------------------------------------------------------------|------

   E                              F#
     P             P                P             P
E|-15^12--15--12-17^12--15--12-----------------------------------|--------
B|------15--15--------15--15------15^12--15--12-17^12--15--12----|--------
G|-----------------------------//------15--15--------15--15---//-|--------
D|---------------------------------------------------------------|--------
A|---------------------------------------------------------------|--------
E|---------------------------------------------------------------|--------

   A                                C
     P             P     P                                            ~~~
E|-----------------------------------------------------------------------|
B|-----------------------------------------------------------------------|
G|-14^12--14--12-15^12-14^12--12----14-12--------------------------------|
D|------14--14--------------14---//-------14-12--------------------------|
A|----------------------------------------------14-13-12-11-10----10-----|
E|-------------------------------------------------------------12----12--|
				    (begin fade)
   E
E|------------------------------------------------------------------------
B|--------------------------------------------------------------------->--
G|-------------------------------------------11-13-14--------13-14-16-->--
D|--------------------------11-13-14-11-13-14--------13-14-16---------->--
A|---------11-12-14-11-12-14------------------------------------------->--
E|-11-12-14---------------------------------------------------------------

   F#						           1
E|----------------------------------------------16-18-19-19b-----|--------
B|----------------------------16-18-19-16-18-19------------------|--------
G|----------15-16-18-15-16-18------------------------------------|--------
D|-15-16-18------------------------------------------------------|--------
A|---------------------------------------------------------------|--------
E|---------------------------------------------------------------|--------


   1~~~~~   1   1
E|(b19)---19b-19b-r-17--19-19-19\15-15/17-17\12-12/15-15\10-10/12-12\7-0-|
B|-----------------------------------------------------------------------|
G|-----------------------------------------------------------------------|
D|-----------------------------------------------------------------------|
A|-----------------------------------------------------------------------|
E|-----------------------------------------------------------------------|
							     (fade out...)

-------------------------------------------------------------------------

4. SURROUNDED
Tuning - E,A,D,G,B,E

Intro:

(keyboard arranged for guitar)
E -10----------
B ----10-------
G -------12----  (repeatedly - alternate Dsus4 and Cadd9 piano chords)
D ----------12-
A -------------
E -------------


Dsus4                           Cadd9
        Morning comes too       early, 
        and nighttime falls too late.

    Am/C      E     GaddA   G(1)  C(1)
And sometimes all I want to do is wait.

    Am/C   E         GaddA  G(1)   D(1)      D6   Am7
The shadow I've been hiding in has fled from me today.

Cmaj7             D(2)      D(1) D6                       Em7
      I know it's easier to walk away than look in in the eye.

Am                 G(2)           C(2)
And I will raise a shelter to the sky.

    Am                G(2)              C(2)
And here beneath this star tonight I'll lie.

    Am          G(2)               C(2)     Dsus4(2)
She will slowly yield the light as I awaken from the longest

 
        G                          Cadd9             D             F
E -------------------------------------------------------------------------
B -8-10-10/12-8-----------------------------------------------------------
G ---------------7/9-7~--/7-7-5-4--5-4-------9-9-7\5-7---------------------
D -------------------------------------5~--------------7~-----7--9-9/10--9-
A ----------------------------------------------------------7--------------
E -------------------------------------------------------------------------
  night.

E ----------------
B ----------------
G ----------------
D -7/9--7^8^7-----
A ------------10~-
E ----------------

E ---------------------------------------------------------------------
B ---8-10-10/12-8--8-10-8~----------------------5-^6^5^3----3-----------
G -7---------------7/9--7~--/7-7-5-4--5-4----------------5----2---/14~-
D ----------------------------------------5~---------------------------
A ---------------------------------------------------------------------
E ---------------------------------------------------------------------

E -------------------------------------
B -------------------------------------
G -14-16-16/17--16-14/16--14^16^14-12~-
D -------------------------------------
A -------------------------------------
E -------------------------------------

Keyboard/guitar duet:
(keyboard arranged for guitar)
E -------------------------------------------------
B -12-10--------12-10--------12-10--------12-10----
G -------12-12--------12-12--------12-12--------12-
D -------------------------------------------------
A -------------------------------------------------
E -------------------------------------------------
(guitar)
E -------------------------------------------------
B -8---------------------8---8--8--8--8----8--8----
G -7---------------------7---7--7--7--7----7--7----
D -5---------------------7---7--7--7--7----5--5----
A -------------------------------------------------
E -------------------------------------------------

(keyboard)
E -------------------------------------------------
B -13-12-10-----13-12-10-----13-12-10-----13-12-10-
G ----------12-----------12-----------12-----------
D -------------------------------------------------
A -------------------------------------------------
E -------------------------------------------------
(guitar)
E ------------------------------------------------- 
B ------------------------------------------------- 
G -5~---------------------0----4--4--4^5-----4-4--- 
D -5~---------------------0----5--5--5-5-----5-5--- 
A ------------------------------------------------- 
E ------------------------------------------------- 

(keyboard)
E -10-----------10-----------10-----------10-------
B ----13-12--------13-12--------13-12--------13-12-
G ----------12-----------12-----------12-----------
D -------------------------------------------------
A -------------------------------------------------
E -------------------------------------------------
(guitar)
E -------------------------------------------------
B -------------------------------------------------
G -7~---------------------7----7--7--7--7----7-7---
D -7~---------------------7----7--7--7--7----7-7---
A -------------------------------------------------
E -------------------------------------------------

(keyboard)
E -------------------------------------------------
B -13-12-10-----13-12-10-----13-12-10--------------
G ----------12-----------12-----------12-----12----
D ----------------------------------------12----12-
A -------------------------------------------------
E -------------------------------------------------
(guitar)
E -----------------------8---8---------------------
B -----------------------8---8--------------------- 
G -10~-------------------10--10--------------------
D -10~-------------------10--10--------------------
A -------------------------------------------------
E -------------------------------------------------


E ---------------------------------------------
B ----------8---8------------------------------
G ----5--7----7----7-----7-----7-5---5\4-------
D -5------------------5-----5------7-----5-----
A -----------------------------------------5-3-
E ---------------------------------------------

  Dreams are shaking set sirens waking up 
  tired eyes.                           With the 
  light the memories all rush into his
  head.


E -----------------------------------------------------------------
B -----8---------------8---------8---------------------------------
G -----7---------------7---------7---5------------------5--------5-
D -----5---------------5---------5---5------------------5--------5-
A -----------------------------------------------------------------
E -----------------------------------------------------------------
  By a candle stands a mirror of his heart and soul she dances.  She was

E -----------------------------------------------------------------
B ------------------------------------------------8----------------
G -7--------7---7------7-----------7---10-----10--10--------5------
D -7--------7---7------7-----------7---10-----10--10--------5------
A ----------------------------------------------------------3------
E -----------------------------------------------------------------
   dancing through the night above his bed.             And walking to the

E -3--------------------------------------------------------------------
B ---3----------------------3----------------------------8----8---8--8--
G -----5----------------0--------------------------------7----7---7--7--
D -----5------------4------------------------------------5----5---5--5--
A -----------5----------------------------------------------------------
E ----------------------------------------------------------------------
   window he throws the shutters out against the wall.

E -----------------------------------------------------------------3----
B -8----8---8--8----8----8---8--8----8----8---8------3---------------3--
G -5----5---5--5----7----7---7--7----7----7---7------5-----------------5
D -5----5---5--5----5----5---5--5----7----7---5------5------------------
A ---------------------------------------------------3------------------
E ----------------------------------------------------------------------
                                                 And from an ivory tower

E ---------------------------------
B --------------------3------------
G -----------------0---------------
D -5------------4------------------
A -3---------5---------------------
E ---------------------------------
   hears her call    "let light surround you".

(keyboard/guitar duet)

E ------------------------------
B ------------------------------
G ------------------------------
D -----5----5----------5----5---
A ------------5---------------5-
E -3------------3---3-----------
  It's been a long long time he's had a 
  while to think it over.
  But in the end he only sees the change, light to dark
  dark to light, light to dark, dark to light.


E ------------------------------------------------------------
B ------------------------------------------------------------
G -0-------------2---------0---------5------------4------5--4-
D -0-------------0---------0---------5------------5------5--5-
A ------------------------------------------------------------
E -3----------------------------------------------------------
   Heaven must be more than this when angels waken with a kiss.

E -------------------------------------------------------
B ----------------------------------------------------8--
G -7-------------7------7--------------7---10-----10--10-
D -7-------------7------7--------------7---10-----10--10-
A -------------------------------------------------------
E -------------------------------------------------------
   Sacred hearts won't take the pain.  But mine will never be the same.
    

E ---------------------3--------------------------
B ----3------------------3----------------------3-
G ----5--------------------5----------------0-----
D ----5--------------------5------------4---------
A ----3------------------------------5------------
E ------------------------------------------------
   He stands before the window, his shadow slowly fading from the wall. 

                                                    +     (+)
E ---------------------------------------------------------------------
B -12---12--12-12---12---12--12-12---12---12---------------------------
G -12---12--12-12---10---10--10-10---12---12-----12-19-12-12(b)14-12~\-
D -10---10--10-10---10---10--10-10---10---10---------------------------
A ---------------------------------------------------------------------
E ---------------------------------------------------------------------


E ------------------3----------------------------------------------------------
B ----3---------------3----------------------3---------------------------------
G ----5-----------------5-----------------0------------------------------------
D ----5-------------------5------------4---------------------------------------
A ----3-----------------------------5------------------------------------------
E -----------------------------------------------------------------------------
  and from an ivory tower hears her call  "let the light surround you" 


Solo:  Requires a single slap-back delay of ~200-300 ms.  My timing isn't
       good enough to get it sounding right, or indeed work out exactly 
       what is being played.  What's below is a rough idea of what I think 
       is going on.  To confuse matters even further it sounds as though 
       there are regular pull-offs onto the open G.  Knowing what John 
       Petrucci is capable of, he probably didn't even use a delay !
 
E -------------------------                ------------------------- 
B -------------------------                -------------------------
G -14-14-14\12-12-11-11/12- (repeat x 3)   -17-17-17\16-14-16-16/17-
D -------------------------                -------------------------
A -------------------------                -------------------------
E -------------------------                -------------------------

E -------------------------
B -------------------------
G -19-19-19\17-17-16-16/17- (repeat x 3)
D -------------------------
A -------------------------
E -------------------------

E -13-15-12-15----15----15----15----15----15----15-----
B -------------15----13----12--------------------------
G -------------------------------14----12--------------
D -------------------------------------------15----14~-
A -----------------------------------------------------
E -----------------------------------------------------

E -----------------------------------------------------------------------------
B ------------------------------3----------------------------------------------
G -2----------------------------2----------------------------------------------
D -2------------------------2---0----------------4-------5-------------4---5---
A -0------------------------2---0------7~----------------------5~--------------
E ---------------------2~---0--------------------------------------------------
   Once lost but I was found.   When I heard the stained glass shatter all a -

E -----------------------------------------------------------------------------
B -----------------------------------------3----------------3-----------------0
G --------------------------------------------5-------0----------0---------5---
D -----------x--x---2~-----------------5--------------------------------5------
A -4~--------x--x-------0<dive>---3----------------2-----------------0---------
E -----------------------------------------------------------------------------
   round me.                    I sent the spirits tumbling down the hill.

E -----------------------------------------------------------------------------
B ---------------------------------------------3---------------2---------------
G -------2--0--------------------0---------0-----------2---------------2-------
D ----0---------------------4----------4-------------------5---------------5---
A ---------------------2-----------5---------------4---------------0-----------
E -3--------------0------------------------------------------------------------
      But I will hold this one on high            above me still.

E -----------------------------------------------------------------------------
B --------------1----------------0---------------------------------------3-----
G ------------------2--------0-------0--------------2----0-----------0---------
D ----------2----------------------------------2-----------------4-------------
A -----0-----------------2----------------3------------------5-----------------
E -----------------------------------------------------------------------------
   She whispers words to clear my mind, I once could see but now at last I'm

E --------
B --------
G -0------
D -0------
A --------
E -3------
   blind.


Cmaj7       D(2)      D(1) D6                        Em7
I know it's easier to walk away, than look it in the eye.

    Am           G(2)             C(2)
But I have given all that I could take.

    Am            G(2)           C(2)
And now I've only habits left to break.

  Am                  G(2)          C(2)         Dsus4(2)  G(1)
Tonight I'll still be lying here, surrounded in all the    light.

--------------------------------------------------------------------

5. METROPOLIS PART 1
Tuning - E,A,D,G,B,E

Intro:

E----------------------------------------------------------------------------------------------
B----------------------------------------------------------------------------------------------
G----------------------------------------------------------------------------------------------
D----------------------------------------------------------------------------------------------
A----------------------------------------------------------------------------------------------
E--0-0-0-0-0-------0-0-0-0-0-----0---------0-0-0-0-0-----0-0----------0-0-0-0-0-----0----------


E----------------------------------------------------3-----------------------------------------
B------------------------------------------------------3-----------------------------whammy bar
G----------------------------------------------5---------5~~~~----------------------(4)\--/0\--
D-------------------------5--2--------------5--5-------------------------5--2------------------
A----------------------0--5--2-----------0--5--3----------------------0--5--2------------------
E--0-0-0-0-0-------0-0-2--3--0-------0-0-2--3---------------------0-0-2--3--0------------------


E----------------------------------------------------------------------------------------------
B-------------------------whammy bar-----------------------------------------------------------
G------------5------/5--/7--/9--/11--/12~~~----------------------------------------------------
D---------5--5----------------------------------------5--2-------------------------------------
A------0--5--3------/3--/5--/7---/9--/10~~~--------0--5--2----7-----7---------7-----7----------
E--0-0-2--3------------------------------------0-0-2--3--0------0-0---0-0-0-0---0-0---0-0-0-0--


E--------------------------------------------------------------0---0---0-0-0---0-0-0---0-0-----
B--------------------------------whammy bar--------------------0---3/5-5-5-5/7-7-7-7/8-8-8-----
G----------------------5----/12--\11---9---\7---\5---4-----------------------------------------
D-------------------5--5--------------------------------2--------------------------------------
A--7-----7\------0--5--3----/10---\9---7---\5---\3---2--0--2-----------------------------------
E----0-0-----0-0-2--3--------------------------------------0-----------------------------------


E--0----0--0--0--------------------------------------------------------------------------------
B--8/10-10-10-10/12-------------------------whammy bar-----------------------------------------
G-------------------------------5-------/5--/7--/9--/11--12^-----------------------------------
D----------------------------5--5-------------------------------------5--2---------(5)---------
A-------------------------0--5--3-------/3--/5--/7---/9--10^-------0--5--2------(5)------------
E---------------------0-0-2--3-------------------------------------2--3--0---(4)---------------


E----------------------------------------------------------------------------------------------
B---------whammy bar---------------------------------------------------------------------------
G---(5)^^^^^^^^^^^^^~~~~~---------------------------------------------------7------------------
D----------------------------------------------10----------------------7----5------------------
A----------------------------7-7-7-7-7---7-7-7--7----7-7-7-7-7P0-0-0-0-5--0--------------------
E----------------------------0-0-0-0-0---0-0-0-------------------------------------------------


E----------------------------------------------------------------------------------------------
B----------------------------------------------------------------------------------------------
G-------------------------------------------------7--------------------------------------------
D---------------------9----------------------7----5------------------------10------------------
A--7-7-7-7-7---7-7-7--7----7-7-7-7-7P0-0-0-0-5--0-------7-7-7-7-7---7-7-7---7--7-7-7-7-7---7---
E--0-0-0-0-0---0-0-0------------------------------------0-0-0-0-0---0-0-0----------------------


E----------------------------------------------------------------------------------------------
B----------------------------------------------------------------------------------------------
G----------------------------------------------------------------------------------------------
D--5-5-4-4-2-2--------------------------------------------9------------------5-5-4-4-2-2-------
A--------------5-5-3-3-2-2-------------7-7-7-7-7---7-7-7--7--7-7-7-7-7---7---------------------
E--------------------------5-5-3-3-2-2-0-0-0-0-0---0-0-0---------------------------------------


E----------------------------------------------------------------------------------------------
B----------------------------------------------------------------------------------------------
G----------------------------------------------------------------------------------------------
D----------------------------------------------------------------------------------------------
A--5-5-3-3-2-2---------------------------------------------------------------------------------
E--------------5-5-3-3-2-2---------------------------------------------------------------------



Verse 1:



E---------------------------------------------|------------------------------------------------
B---------------------------------------------|------------------------------------------------
G---------------------------------------------|------------------------------------------------
D---------------------------------------------|--Repeats.--------------------------------------
A---------------------------------------------|------------------------------------------------
E--0-0-0-0----0-0-0-0-0-0-0-----0-0-0-0-------|------------------------------------------------


The smile of dawn arrived early May
She carried a gift from her home
The night shed a tear to tell her of fear
And of sorrow and pain She'll never outgrow

Death is the first dance, eternal


E---------------2------------------------------------------------------------------------------
B-----------------2-----------------whammy bar--------------------------5-7-8-x-7-5~~~~~-------
G------------4------2----------4---/4--/6--/7--/11~~~~~~-----9-----5----5-5-5-x-5-5~~~~~-------
D---------5--4--------4~-------4-----------------------------9--7--5----5-5-5-x----------------
A------0--5--2-----------5--5--2---/2--/4--/5---/9~~~~~~-----7--7--3---------------------------
E--0-0-2--3--------------3--2-----------------------------------5------------------------------


E----------------------------------------------------------------------------------------------
B----------------------------------------------------------------------------------------------
G----------------------------------------------------------------------------------------------
D------------------------2---------------------------------------------------------------------
A--2H3P2---2-------------2---------------------------------------------------------------------
E--------5---5-3-5-3-2-3-0---------------------------------------------------------------------

There's no more fredom
The both of you will be confined
To this mind


Verse 2:

E--7----7----5------5---7----7----5------5-----7-----7-----5------5----7---7-----5----5--------
B--7---------5------5---7---------5------5-----7-----------5------5----7-----7---5----5--------
G--9---------7------7---9---------7------7-----9-----------7------7----9-------9-7----7--------
D--9---------7------7---9---------7------7-----9-----------7------7----9---------7----7--------
A----------------------------------------------9-----------7------7----9---------7----7--------
E----------------------------------------------------------------------------------------------


E----------3-------------0---------------------------------------------------------------------
B--------3---3-----------0---------------------------------------------------------------------
G------0-------0-------0-----------------------------------------------------------------------
D----0---------------4-------------------------------------------------------------------------
A------------------2---------------------------------------------------------------------------
E--3-------------0-----------------------------------------------------------------------------


I was told there's a miracle for each day that I try
I was told there's a new love that's born for each one that has died
I was told there'd be no one to call on when I feel alone and afraid
I was told if you dream of the next world
You'll find yourself swimming in a lake of fire


Verse 3:

E----------------------------------------------------------------------------------------------
B-----------------------------------------8--x-x-8---8\----------------------------------------
G--4-------4-----------4------4-----------9--x-x-9---9\---------------4-------4----------------
D--4-------4--4-x-x-4--5------5--5-x-x-5--9--x-x-9---9\------2-2--x-x-4-------4--4-x-x-4-------
A--2---2-2-2--5-x-x-5--2--2-2-2--5-x-x-5--7--x-x-7---7\--5-5-0-0--x-x-2---2-2-2--5-x-x-5-------
E--------------------------------------------------------2-3-----------------------------------


E----------------------------------------------------------------------------------------------
B----------------------------8----8\-----------------------------------------------------------
G--4------4-----------9--x-x-9----9\-----------------------------------------------------------
D--5------5--5-x-x-5--9--x-x-9----9\------2-----------------------10---------------------7-----
A--2--2-2-2--5-x-x-5--7--x-x-7----7\--5-5-0----7-7-7-7-7---7-7-7---7---7-7-7-7-7p0-0-0-0-5-----
E-------------------------------------2-3------0-0-0-0-0---0-0-0-------------------------------

As a child, I thought I could live without pain, without sorrow
As a man, I've found it's all caught up with me
I'm asleep yet I'm so afraid


Verse 4:
E----------------------------------------------------------------------------------------------
B-----------------------------0-5-7-8-7-8-7-5-0-5-7-8-7-8-7-5-0-5-7-8-7-8-7-5-0-5-7-8-7-5------
G----7-----------------------------------------------------------------------------------------
D----5---------------------9-------------------------------------------------------------------
A--0---7-7-7-7-7---7-7-7---7-------------------------------------------------------------------
E------0-0-0-0-0---0-0-0-----------------------------------------------------------------------


E----------------------------------------------------------------------------------------------
B----------------------------------------------------------------------------------------------
G--7-5-4-0-----------------------------------------------7-------------------------------------
D-----------------------------10---------------------7---5----------------------9--------------
A----------7-7-7-7-7---7-7-7---7---7-7-7-7-7p0-0-0-0-5-0----7-7-7-7-7---7-7-7---7---7-7-7-7----
E----------0-0-0-0-0---0-0-0--------------------------------0-0-0-0-0---0-0-0------------------


E----------------------------------------------------------------------------------------------
B----------------------------------------------------------------------------------------------
G----------------7-------------------------------------------------7---------------------------
D------------7---5----------------------10---------------------7---5---------------------------
A--7p0-0-0-0-5-0-----7-7-7-7-7---7-7-7---7---7-7-7-7-7p0-0-0-0-5-0-----7-7-7-7-7---7-7-7-------
E--------------------0-0-0-0-0---0-0-0---------------------------------0-0-0-0-0---0-0-0-------


E----------------------------------------------------------------------------------------------
B----------------------------------------------------------------------------------------------
G----------------------------7---------------------------------------------------4-------------
D--9---------------------7---5-----------------------10-----------------------5--4-------------
A--7---7-7-7-7-7p0-0-0-0-5-0-----7-7-7-7-7---7-7-7----7---7-7-7-7-7p0------0--5--2-------------
E--------------------------------0-0-0-0-0---0-0-0---------------------0-0-2--3----------------


E---------|------------------------------------------------------------------------------------
B--0h5h12p|-------------------------------------------------------------5-----7-----8----------
G---------|-twelve times-----------4--------------------------9-----5-----5-----5-----5--------
D---------|------------------------4--------------------------9--7--5-------5-----5-----5------
A---------|------------------5--5--2-----2---4---5~~~~~~------7--7--3--------------------------
E---------|------------------3--2------2---2---2-----------------5-----------------------------


E----------------------------------------------------------------------------------------------
B--7-----5~~~~~~-------------------------------------------------------------------------------
G----5---5~~~~~~-------------------------------------------------------------------------------
D------5---------------------------------2-----------------------------------------------------
A------------------2h3p2---2-------------2-----------------------------------------------------
E------------------------5---5-3-5-3-2-3-0-----------------------------------------------------

Somewhere like a scene from a memory there's a picture worth a thousand words
Eluding stares from faces before me
It hides away and will never be heard of again
Deceit is the second without end

The city's cold blood teaches us to survive
Just keep my heart in your eyes and we'll stay alive

The third arrives


Bridge: (instrumental)

	guitar/keyboard harmony part
E----------------------------------------------------------------------------------------------
B----------------------------------------------------------------------------------------------
G--7---------------6---4-4-------4---4-----------6---4-4-------------------------6---4-4-------
D--5-9---7-7-----4---4-----4---2---2---2-------4---4-----4-----7-----9---------4---4-----4-----
A----7---5-4---2-------------0-----------0-0-2---------------5---5/7---7-0-0-2-----------------
E----------------------------------------------------------3-----------------------------------


E----------------------------------------------------------------------------------------------
B----------------------------------------------------------------------------------------------
G------4---4-----------6---4-4-------------------------18----16-16----------16----16-----------
D----2---2---2-------4---4-----4-----7-----9--------16----16-------16----14----14----14--------
A--0-----------0-0-2---------------5---5/7---7-0-14-------------------12----------------12-----
E--------------------------------3-------------------------------------------------------------


E----------------------------------------------------------------------------------------------
B----------------------------------------------------------------------------------------------
G--------18----16-16----------14-------16----------------18----16-16----------16----16---------
D-----16----16-------16----12----12/14----14----------16----16-------16----14----14----14------
A--14-------------------10-------------------12----14-------------------12---------------------
E----------------------------------------------------------------------------------------------


E----------------------------------------------------------------------------------------------
B----------------------------------------------------------------------------------------------
G--------------18----16-16----------14-------16------------------------------------------------
D-----------16----16-------16----12----12/14----14---------------------------------------------
A-----12-14-------------------10-------------------12------------------------------------------
E----------------------------------------------------------------------------------------------

            fast run
E----------------------------------------------------------------------------------------------
B----------------------------------------------------------------------------------------------
G--------------------------------------------------------9-11-12----------11-12-14-11-12-14----
D----------------------------------------9-11-12-9-11-12---------11-12-14----------------------
A---------7-9-10---------9-10-12-9-10-12-------------------------------------------------------
E--7-9-10--------9-10-12-----------------------------------------------------------------------


E--------------------12-14-15----------14-15-17-17-15-14---------------------------------------
B--12-14-15-12-14-15----------14-15-17-------------------17-15-14------------------------------
G-----------------------------------------------------------------16-14-12---------------------
D--------------------------------------------------------------------------16-14-12------------
A-----------------------------------------------------------------------------------16-14-12---
E----------------------------------------------------------------------------------------------


E----------------------------------------------------------------------------------------------
B----------------------------------------------------------------------------------------------
G----------------------------------------------------------------------------------------------
D--------------------------------------------------------14-16-17----------16-17-19-14-16-17---
A--------------------14-16-17----------16-17-19-14-16-17----------16-17-19---------------------
E--15-14-12-14-15-17----------15-17-19---------------------------------------------------------


E----------------------------------------------------------------------------------------------
B----------------------------------------------------------------------------------------------
G--14-16-18----------16-18-19----------18-19-21----------------------------18-19-21------------
D-----------16-17-19----------17-19-21-------------------17-19-21-------------------17-19-21---
A-----------------------------------------------------------------17-19-21---------------------
E-----------------------------------------------17-19-21---------------------------------------


E-----------------------------19-22-21^----22`-------------------------------------------------
B--------------------19-20-22-----------19-----------------------------------------------------
G--18-19-21-18-19-21---------------------------------------------------------------------------
D----------------------------------------------------------------------------------------------
A----------------------------------------------------------------------------------------------
E----------------------------------------------------------------------------------------------

	fancy offtime part
E---------------------------2------------------------------------------------------------------
B------------------------------2-------------------------------------------------------10------
G--------6---4-4---------4--------4-------2-----2-------0-----------2-------5-4---------9------
D------4---4-----4----2-----------------0-----0-------4---4-------6---------5-4---------7------
A--0-2-------------0------------------2-------------2-------2---4-----4-0---3-2------0---------
E-------------------------------------------3-----0-----------2--------------------------------


E--------------------------------------------------------0--0---12-----------------0-0-0-0-0---
B--10--8-------------------------------------------------0--0------12--------------0-0-0-0-0---
G---9--7-------------------------------------------------3--3---------15~~~~~------3-3-3-3-3---
D---7--5----------------3----------------4---------------4--4----------------------4-4-4-4-4---
A--------------------2--3-------------2--4---------------4--4----------------------4-4-4-4-4---
E--------------------0--1-------------0--2------------0--2--2----------------------2-2-2-2-2---


E-----0-----7---9----------9--9--x--9--9--x--x--9--9--7--9-------------------------------------
B-----0-----7---9----------9--9--x--9--9--x--x--9--9--7--9-------------------------------------
G-----3-----9--11---------11-11--x-11-11--x--x-11-11--9-11-------------------------------------
D-----4-----9--11---------11-11--x-11-11--x--x-11-11--9-11------4-------4-4-4-------4-5--------
A-----4-----7---9----------9--9--x--9--9--x--x--9--9--7--9------4-------4-4-4-------4-5--------
E--0--2---------------------------------------------------------2-------2-2-2-------2-3--------


E-----------------------------------------------0----------------------------------------------
B---------------------------------------------------0------------------------------------------
G-------------------------------------------------------3~~~~~~~-------------------------------
D--5-5-5----------5-----7-----7-----9--------4-------------------------------------------------
A--5-5-5----------5-----7-----7-----9--------4-------------------------------------------------
E--3-3-3----------3-----5-----5-----7------0-2-------------------------------------------------

	second guitar/keyboard harmony part
E--12-----------12-14-12-11--------------------------------------------------------------------
B-----12-11-----------------14-13-12-11--------------------------------------------------------
G-----------11--------------------------13-12-11----9--8------9-11-9-8-------------------------
D---------------------------------------------------------11-----------11-10-9-8---------------
A--------------------------------------------------------------------------------11-10---------
E----------------------------------------------------------------------------------------------



E--------------------------------------------------21-------16---------------------------------
B-----------------------------------------------19----19-17-----16^----------------------------
G-----------------------------/11~~~~~------/21---------------------16----\8~~~~~-------11-----
D------------/13--11-9p11h9\8-------------------------------------------------------9-8--------
A--9---7--6------------------------------------------------------------------------------------
E----------------------------------------------------------------------------------------------



E-------9-14------9-12----------------9--------------------------------------------------------
B-------------------------10-11-12-13---10-11---------------12-9-10-11-10-9--------------------
G--9-11------9-11-----------------------------11----------------------------11-10-9-8----------
D------------------------------------------------11~~~~~------------------------------11-------
A----------------------------------------------------------------------------------------------
E----------------------------------------------------------------------------------------------



E----------------------------------------------------------------------------------------------
B----------------------------------------------------------------------------------------------
G--8-9-11-9-8---------------------------------------------11---------9-------6-------4---------
D-------------11-10-9-8----8-9-11-9-8----------------------------------------------------------
A-----------------------11------------11-10-9-8--11-12-13----9-10-11---6-7-8---4-5-6-----------
E----------------------------------------------------------------------------------------------



E------------------------------7-8-9-9^~~~-9-8-7----7-8-7------8\7-5-----5-6-------------------
B---------------------------/9-------------------10-------10-7-------7-5-----7-----------------
G--------3---------------------------------------------------------------------6-5\4-2---------
D--------------------------------------------------------------------------------------4-2-----
A--2-3-4---4~~~~~~-----------------------------------------------------------------------------
E----------------------------------------------------------------------------------------------



E----------------------------------------------------------------------------------------------
B----------------------------------------------------------------------------------------------
G--2-3-----------------------------------------------------------------------------------------
D------4-2-4-2-------------4^^------2h4p2h4p2h4p2h4p2h4p2  several times..---------------------
A--------------4-3-2-0-------------------------------------------------------------------------
E----------------------2-0---------------------------------------------------------------------



E----0-------------0---------------------------------------------------------------------------
B----0-------------0---------------------------------------------------------------------------
G----3-------------3---------------------------------------------------------------------------
D----4-------------4---------------9------------------9-----------------9----------------9-----
A--2-4-----------2-4-------------7-------8-10-------7-------8-10------7-------8-10-----7-------
E--0-2-----------0-2---------0-0-----0-8--------0-0-----0-8-------0-0-----0-8------0-0---------



E----------------------------------------------------------------------------------------------
B----------------------------------------------------------------------------------------------
G----------------------------------------------------------------------------------------------
D-------------------------------------here's the crazy keyboard part---------------------------
A------8-10------------------------------------------------------------------------------------
E--0-8-----------------------------------------------------------------------------------------



E-------12~~~-------10~~~-------------------------------------18~~~----------------------------
B-------------10~~~-------12~~~-------10~~~-------------15~~~----------------------------------
G--9~~~-------------------------12~~~-------------------------------16~~~-13~~~-9~~~-11~~~-----
D-------------------------------------------12~~~-14~~~------------------------------------8~~~
A----------------------------------------------------------------------------------------------
E----------------------------------------------------------------------------------------------


E--------------------17-15-16----------------------17-19-16----17-16--16/22--------------------
B-----17----17----------------17----17----17----------------17-----------------------17/22-----
G--------------16-14-------------------------16-14---------------------------------------------
D--14----14----------------------14----14------------------------------------13--14------------
A----------------------------------------------------------------------------------------------
E----------------------------------------------------------------------------------------------


E--------------------9---10/16-----------------------------------------------------------------
B-------------------------------------------17~~~~~~~~~----------------------------------------
G---------------------------------------16-----------------------------------------------------
D--7--8--9-----7--6-------------14--18----------------------------9-----------------9----------
A-----------7---------------------------------------------------7-------8-10------7-------8-10-
E-----------------------------------------------------------0-0-----0-8-------0-0-----0-8------


E--------------------------------|-------------------------------------------------------------
B--------------------------------|-------------------------------------------------------------
G--------------------------------|----------------------6-3-------------7---------10-7---------
D--------------------------------|--four times--------5-----4---------6---------9------8-------
A--------7-----------7-------7-8-|------------------4---------5-----5---------8----------9-----
E--0-0-0---0-0-0-0-0---0-0-7-----|----------------3-------------6-4---------7--------------10--


E------------------------------------------------------------------------------11--------------
B----------------------------------------------------------------------------------------------
G---------11---13------------14-11-------------------15-----11-10------------------------13-12-
D------10------12---------13-------12-------------14--------------13-12-11-10-----12-12--------
A----9---------11------12-------------13-------13----------------------------------------------
E--8-----------10---11-------------------14-12-------------------------------------------------


E----------------------------------------------------------------------------------------------
B----------------------------------------------------------------------------------------------
G----------------------------------------------------------------------------------------------
D--------------0--------------------------0------------------------0---------------------------
A--0-------------4-3-2-1-0----0-------------4-3-2-1-0--0-------------4-3-2-1-0--0--------------
E----4-3-2-1-0------------------4-3-2-1-0----------------4-3-2-1-0----------------4-3-2-1-0----


E----------------------------------------------------------------------------------------------
B----------------------------------------------------------------------------------------------
G----------------------------------------------------------------------------------------------
D--0-------------------------------------------------------------------------------------------
A----4-3-2-1-0---------------------------------------------------------------------------------
E----------------------------------------------------------------------------------------------

	Okay, here's the fun part...  for this part I have included which finger to use on
	which note...  The proper finger will be located above each note.  This part will
	really help with your chops...   This part is 100orrect :)

    2 1 2 3 1 1 3 1 3 1 3 1 2 1 2 3 1 1 3 1 3 1 3 1              2 1 2 3 1 1 3 1 1 
E---------------------------|----------------------------------------
B---------------------------|----------------------------------------
G---------------------------|-repeat-twice---------------------------
D---------4-----5---4---4---|------------------4-----5---------------
A-----------2-3---3---2---2-|--------------------2-3---3-2-----------
E---3-2-3-------------------|------------3-2-3-----------------------



    4 1 3 2 4 3 4 1 2 4 1 1 4 1 3 2 4 3 4 1 2 4 1 2 1 2 4 1 4 3 4 1 2 1 4
E-------------------------------------------------------------------------------------------
B-------------------------------------------------------------------------------------------
G---------------------------------------------------2---------------------------------------
D---5---4-----4---2---------5---4-----4---2-------------5-2---4-------2---------------------
A-----2---3---------3-5-2-2---2---3---------3-5-2-3---3-----5---5-2-3---5-------------------
E-----------5---5-------------------5---5---------------------------------------------------



   2 1 2 4 1 4 3 4 1 2 1 4 1 3 1 4 1 1 3 1 4 1 3 2   3   4   1 3 1 4 1 1 2 1 3 1 4
E-------------------------------------------------------------------------------------------
B-------------------------------------------------------------------------------------------
G----2--------------------------------------------------------------------------------------
D--------5-2---4-------2-----4---5-----5---7-----4---5---7-----4---5-----4---5---7----------
A--3---3-----5---5-2-3---5-------------------------0---0---0-2---2---2-3---3---3------------
E--------------------------2---2---2-3---3---3-5--------------------------------------------



   1 1 1 1 3 1 1 1 1 3 1 1 2 1 3  1 4  1 2 2 2 1 4  1 3  2  4  3  4  1 2  4
E-------------------------------------------------------------------------------------------
B-------------------------------------------------------------------------------------------
G------------------------------------------9-----12---11-------11----9----------------------
D------5---7-----7---9-----9---10---12---------9----9----10------------10-12----------------
A--3-5---5---5-7---7---7-8---8----8----8-9---9--------------12----12------------------------
E-------------------------------------------------------------------------------------------



   1 1 4  1 3  2  4  3  4  1 2  4  1 2  2  2  4  1 4  3  4  1 2  1 4  2  2  2  4  1 4  3  4
E-------------------------------------------------------------------------------------------
B---------------------------------------10-------------------------------10-----------------
G------12---11-------11----9------------------12-9----11---------9-------------12-9----11---
D--9-9----9----10------------10-12-9-10----10------12----12-9-10---12-10----10------12----12
A-----------------12----12------------------------------------------------------------------
E-------------------------------------------------------------------------------------------



   1 2  1 4  1  4  1  3  4  3  3  3  1  2  3  3  3  1  2  4  1  1  4  1  3  4
E---------------15----14-------14----12-------14----12-------------15----14-----------------
B------------12----12----15-------------13-------------13-15-12-12----12----15--------------
G-------9-------------------14----14-------14----14-----------------------------------------
D--9-10---12--------------------------------------------------------------------------------
A-------------------------------------------------------------------------------------------
E-------------------------------------------------------------------------------------------



   1  4  1  3  4  2  3  1  4  1  3  4  3  3  1  4  1  1  1  2  4  1  1  3  1  3   full bend.
E-----17----15----14-------19----17-------17-------------19-------------22----22"-----------
B--13----13----17----15-15----15----19-17-------20-17-17----20-22-19-19----19---------------
G--------------------------------------------17---------------------------------------------
D-------------------------------------------------------------------------------------------
A-------------------------------------------------------------------------------------------
E-------------------------------------------------------------------------------------------

E----------------------------------------------------------------------------------------------
B----------------------------------------------------------------------------------------------
G--2-0-------------0-2-0----------------------7------------------------------------------------
D------4-4-2-0-----------4-4-2-0--------------5-9----7-7---------------------------------------
A--------------3-2---------------3-2-0----------7----5-4---------------------------------------
E--------------------------------------3-2-0---------------------------------------------------


Verse 5:

E-------0---------------------------------0-----|----------------------------------------------
B---------3---------3-----------3-------3-------|----------------------------------------------
G-----4-----4-----4---4-------0---0---2-------4-|--play twice---------0------------------------
D---4-----------4-------4---4-------0-----------|-------------------4--------------------------
A-2-----------------------------------------0---|-----------------5-----4-0--------------------
E-------------3-----------0---------------------|----------------------------------------------


E--------0-------------------------------------------------------------------------------------
B----------3-------3-----------3---------------------3-----------3-----------3-----------3-----
G------4-----4---4---4-------0---0-----0-----------0---0-------0---0-------0---0-------0-------
D----4-----------------4---4---------4---4---------------4---4-------4---4-------4---4---------
A--2-------------------------------5-------0-----2---------------------------------5-----------
E--------------3---------0---------------------------------3-----------0-----------------------


E----------------------------------------------------------------------------------------------
B----0----------------------------8--x-x-8--8\--------------------------------------8-x-x-8----
G--4------4------4-4--4------4-4--9--x-x-9--9\--------------4------4-4--4------4-4--9-x-x-9----
D---------4------4-4--5------5-5--9--x-x-9--9\--------2--2--4------4-4--5------5-5--9-x-x-9----
A---------2--2-2-2-2--2--2-2-2-2--7--x-x-7--7\--5--5--0--0--2--2-2-2-2--2--2-2-2-2--7-x-x-7----
E-----------------------------------------------2--3-------------------------------------------


E----------------------------------------6--5--3----5----5-------------------------------------
B--8\-----------------------------------------------6-------6--------6---6-------------5-------
G--9\-------------3---------5-----------------------7----------7-----5------5---5------5-------
D--9\--------2----3---------5--------5--------------7----------------5-----------------5-------
A--7\--5--5--0----1---------3--------5--------------5----------------3-----------------3-------
E------2--3--------------------------3---------------------------------------------------------


E---------------------6----------6--------------8------8-------------------------------3-------
B--5---------------6-------6-----6-----------8---------8----------------------------3-----3----
G-----5--5-----------------------7--------------------10-----10----9----7----5---5-------------
D---------------8----------------8-------10-----------10---------------------5-----------------
A------------6-------------------8----8-----------------------8----7----5----3-----------------
E--------------------------------6-------------------------------------------------------------


E--3-----2--
B--3-----3--
G--5-----2--
D--5-----4--
A--3-----5--
E-----------

------------------------------------------------------------------

6. UNDER A GLASS MOON
Tuning - E,A,D,G,B,E

E|---------|--------|------|-----|-----|-----|-------|-------------------------
B|---------|--------|------|-----|-3---|-----|-------|-------------------------
G|o---6/11-|---/13--|--\9--|--\4-|-2---|--6--|--4/3-o|--4---3------------------
D|o--------|--------|------|-----|-0---|-----|------o|---------/5h4------------
A|----4/9--|---/11--|--\7--|--\2-|-0---|--4--|--2/1--|--2---1-----------------
E|---------|--------|------|-----|-----|-----|-------|---------/3h2------------

E-------|-------|------|------|----|-----|-------|---|-----21-|-23-|-19-|----
B-14/19-|---21--|--17--|------|-15-|--14-|-------|---|-19-----|----|----|----
G-------|-------|------|--16--|----|-----|-16/15-|---|--------|----|----|----
D-------|-------|------|------|----|-----|-------|---|--------|----|----|----
A-------|-------|------|------|----|-----|-------|---|--------|----|----|----
E-------|-------|------|------|----|-----|-------|---|--------|----|----|----

E-----|--17--|--16--|--------|--x-|-------------------|----------------------
B-17--|------|------|--15/14-|--x-|-------------------|----------------------
G-----|------|------|--------|--x-|-------------------|----------------------
D-----|------|------|--------|----|-------------------|----------------------
A-----|------|------|--------|----|--4--5--4--x--4--5-|---------4------------
E-----|------|------|--------|----|--2--3--2--x--2--3-|-2-2-3-3-2---2-2-3-3--

E---------|------------------------|------------------------------|
B---------|------------------------|------------------------------|
G---------|------------------------|------------------------------|
D---------|------------------------|------------------------------|
A---------|---------4------x-4---5-|---------4--------------------|
E-2-2-0-0-|-2-2-3-3-2------x-2---3-|-2-2-3-3-2---5-3-2-0-3--2-0-0-|

E-----------------------|------------------------------|---------------------
B-----------------------|------------------------------|---------------------
G-----------------------|------------------------------|---------------------
D-----------------------|------------------------------|---------------------
A---------4------4----5-|---------4--------------------|-4-2-4-2-----5-2-5-2-
E-2-2-3-3-2---2--2----3-|-2-2-3-3-2----2-2-3-3-2-2-0-0-|---------3-2---------

E---------------|-------------------------------------|
B---------------|-------------------------------------|
G---------------|-------------------------------------|
D---------------|-------------------------------------|
A------4-2-4-2--|-----4-5-4-2---------5------5------5-|
E--3-2----------|-3-2---------3-2-0-0-3--0-0-3--0-0-3-|

E|-----------------------|------------------------|---------------------|----
B|--13--13--x--x--13--13-|-13--13---x--x--14---14-|-13--13--x-x--13--13-|----
G|o-11--11--x--x--11--11-|-11--11---x--x--12---12-|-11--11--x-x--11--11-|----
D|o----------------------|------------------------|---------------------|---
A|--9---9---x--x--9---9--|-9---9----x--x--10---10-|-9---9---x-x--9---9--|---
E|-----------------------|------------------------|---------------------|----

E-----------8-14-17-14-8---------16-16---16--16---|
B-13-----10--------------10------15-15---15--15---|
G-11--11---------------------11--14-14---14--14--o|
D--------------------------------13-13---14--13--o|
A-9-----------------------------------------------|
E-------------------------------------------------|


Fill 1

         Tell me            remind me                  chase the water ....
E|----------------------|--------------------------|------------------------|
B|----------------------|--------------------------|------------------------|
G|o---------------------|--------------------------|------------------------|
D|o---------------------|--------------------------|------------------------|
A|----------------------|--------------------------|------------------------|
E|-2--2--0-2---2---0-2--|-2---2----0--2---2---2--0-|-2---2---2---0--2--2---0|

 racing from                       the sky                     Always
E------------------------------|----------------------------|----------------
B------------------------------|----------------------------|----------------
G-----------------------------o|----------------------------|----------------
D-----------------------------o|----------------------------|----------------
A------------------------------|-----------------------4----|-4--4---2--4--4--
E--2--0--2---2---0--2--0--2--0-|--2--0-2---2--0--2--0--2--0-|-2--2---0--2--2-

          beside me        Taste the memories running from
E-------|-----------------------|---------------------------------|
B-------|-----------------------|---------------------------------|
G-------|-----------------------|---------------------------------|
D-------|-----------------------|---------------------------------|
A-2--4--|--4--4---2--4--4--4--2-|--4---4---4---------2--4--4----2-|
E-0--2--|--2--2---0--2--2--2--0-|--2---2---2---------0--2--2----0-|

                                   Nervous flashlights
   my eyes                         I smile at the moon  chasing
E-------------------------------|-------------------------------------------|
B-------------------------------|-------------------------------------------|
G-------------------------------|o--11--11--11-----11--11----11-------11----|
D-------------------------------|o--11--11--11-----11--11----11-------11----|
A--4--2----4----4-----4----4----|---9---9---9---9--9---9--9--9---9-9--9---9-|
E--2--0----2----2--0--2--0-2--0-|-------------------------------------------|

   scan my dreams                 Liquid shadows
   water from the sky            I argue with the clouds stealing
E-------------------------------------|-------------------------------------|
B-------------------------------------|-------------------------------------|
G--9--9--9-----9--9-----9--------9----|--7--7--7-----7--7-----7--------7----|
D--9--9--9-----9--9-----9--------9----|--7--7--7-----7--7-----7--------7----|
A--7--7--7--7--7--7--7--7--7--7--7--7-|--5--5--5--5--5--5--5--5--5--5--5--5-|
E-------------------------------------|-------------------------------------|
                                                                   Beneath a
 silence their screams           beauty from my eyes               Outside
E------------------------------|-------------------------------|-------------
B------------------------------|-------------------------------|-------------
G---4-4-4---------------------o|--4--4--4----------------------|o------------
D---4-4-4---------------------o|--4--4--4----------------------|o------------
A---2-2-2--4--4-----4-----4----|--2--2--2--4---4------4------4-|---4-4-4-4---
E----------2--2--0--2--0--2--0-|-----------2---2---0--2---0--2-|-------------

   blackned                            summer sky
   the soundness                       of your mind
E------------------------------------|------------------|--------------------
B------------------------------------|--0---------------|--------------------
G---6-------6-------6------6--6------|--2---------------|--------------------
D---6-------6-------6------6--6------|--2--4-------4----|--------------------
A---4--4-4--4---4-4-4--4-4-4--4--4-4-|--0--4-------4----|--3-4---5-----------
E------------------------------------|-----2--2-2--2--0-|------3---0-0-0--0--
       praying for time                  to desapear
       bathing your                      soul in                        silver
E----|---------------------------------|---------------------------------|---
B--6-|---------------------------------|--------10--------------12-------|---
G--5-|---------------------------------|---------9--------------11-------|---
D--3-|---------------------------------|---------7--------------9--------|---
A--3-|-4-4-4-4-4-4-4-4-4-4-4-4-4-4-4-4-|-7-7-7-7----7-7-9-9-9-9----------|---
E----|---------------------------------|-----------------------------7-7-|---

  tears
E-----2------|--------------------------|------------------------------------
B-------2----|--------------------------|------------------------------------
G--4------4--|-------------------------o|------------------------------------
D--4---------|--------5--------------3-o|------------------------------------
A--2---------|--------5--------------3--|------------------------------------
E------------|--3--3--3--1--1--1--1--1--|-12--11--10--0--8--9--10--9--8--0--6


E---------------------------|------------------------------------------------
B---------------------------|------------------------------------------------
G---------------------------|------------------------------------------------
D---------------------------|------------------------------------------------
A----------------------8--5-|--------------4--4--4---5-----------4-----------
E-7--8--7--6--0--0--0--6--3-|--2--2--3--3--2--2--2---3--2-2--3-3-2--2-2-3-3--

E----------|------------------------|------------------------|---------------
B----------|------------------------|------------------------|---------------
G----------|------------------------|--------------8---5---4-|---------------
D----------|------------------------|--4-----------8---5---4-|---------------
A----------|------------4---4--4--5-|--4-----------6---3---2-|----------4----
E-2-2--0-0-|--2-2--3-3--2---2--2--3-|--2--0-0--0-0-----------|-2-2--3-3-2----

E--------------|----------------------------|---------------------|----------
B--------------|----------------------------|---------------------|----------
G--------------|----------------------------|---------------------|----------
D--------------|-----------------2---2---2--|---------------------|----------
A--4-4---4---5-|-----------------2---2---2--|---------4--4--------|-3-4-3----
E--2-2---2---3-|--2-2--3-3--2-2--0---0---0--|-2-2-3-3-2--2--2-5-2-|-------5--

                                    Beneath a     summer sky     under a
                                    Liquid      shadows crawl   silver
E-------|------------|------------|------0----|---0----------|---0-----------
B-------|------------|------------|------0----|---0----------|---0-----------
G-------|------------|------------|o-----8----|---8----------|---8-----------
D-2---2-|-1------4---|------------|o-----9----|---9----------|---9-----------
A---4---|---2-0--4---|------------|-----------|--------------|---------------
E-------|--------2---|-0-0--0-0-2-|-----------|--------------|---------------

  glass moonlight        night awaits    the lamb's     arrival
 tearsdrops fall     the bride           subsides  to her
E-----0----------|---0----------------|----0---------|--0-------|-0---------|
B-----0----------|---0----------------|----0---------|--0-------|---4-------|
G-----8----------|---8----------------|----8---------|--8-------|-----4----o|
D-----9----------|---9----------------|----9---------|--9-------|----------o|
A----------------|--------------------|--------------|----------|-----------|
E----------------|--------------------|--------------|----------|-----------|


  survival           By your     hand      I've a      wakened    Bear this
E-0--------|--0---|------------|---------|-----------|----------|----0-------
B-0--------|--0---|-----17-----|--16-----|----12-----|----------|-------0----
G-8--------|--8---|---------16-|------14-|--------13-|----------|------------
D-9--------|--9---|------------|---------|-----------|-/14--13--|------------
A----------|------|--0---------|---------|--2--------|----------|------------
E----------|------|------------|---------|-----------|----------|-2----------

   honor in my    name                     Outside the soundness          of
E--------------|--------|-----------||--------------------------------------|
B--------------|--0-----|-----------||--------------------------------------|
G-3------------|-----3--|-----------||---------6------6------6------6--6----|
D----4--2------|--------|--4--2-----||---------6------6------6------6--6----|
A--------------|--------|--------4--||-4-4-4-4-4--4-4-4--4-4-4--4-4-4--4-4-4|
E--------------|--------|-----------||--------------------------------------|

  your mind                                 bathing your
E-------------------|--------------------|---------------------------------|
B--0----------------|------------------6-|---------------------------------|
G--2----------------|------------------5-|---------------------------------|
D--2----4------4----|------------------3-|-6-6-----6-6-------------6-6-----|
A--0----4------4----|-3-4---5----------3-|-----4-4-----4-4-4-4-4-4-----4-4-|
E-------2--2-2-2--0-|-----3---0-0-0-0----|---------------------------------|

  soul in                       silver tears
E---------------------------------|-----2-----|--------------------|---------
B---------10----------------------|-------2---|--------------------|---------
G---------9-----------------------|--4------4-|--------------------|---------
D---------7-------7-7-----9-9-----|--4--------|------5-----------3-|---------
A-7-7-7-7-----7-7-----9-9-----2-2-|--2--------|------5-----------3-|---4-4-4-
E---------------------------------|-----------|-3-3--3--1-1-1-1--1-|---------

          Beneath   a                    blackned summer sky
E-------------------------------------|----------------------|---------------
B-------------------------------------|-0--------------------|---------------
G----6------6-------6-------6--6------|-2--------------------|---------------
D----6------6-------6-------6--6------|-2--4-------4---------|---------------
A-4--4--4-4-4---4-4-4---4-4-4--4--4-4-|-0--4-------4---------|-3-4---5-------
E-------------------------------------|----2--2-2--2--0------|-----3---0-0-0-

                  praying for time                    to disapear
E-------|---------------------------------------|----------------------------
B----6--|---------------------------------------|----------------------------
G----5--|---------------------------------------|-----------10---------------
D----3--|--6-6-----------4-4------6--6-6--6-----|-----------9-------7-7------
A----3--|------4-4--4-4-------4-4-----------4-4-|-----------7---7-7-----9-9--
E-0-----|---------------------------------------|--7-7--7-7------------------

E-----------|----2-----|------------------------------------------------|---|
B-----------|------2---|------------------------------------------------|---|
G-----------|-4------4-|------------------------------------------------|---|
D--9-9------|-4--------|------------------------------------------------|---|
A-------2-2-|-2--------|-------------------------------------------8--5-|---|
E-----------|----------|-12-11-10-0--8-9-10-9-8-0--6-7-8-7-6-0-0-0-6--3-|---|

E-------------|------|--------------|---------------------|------------------|
B-------------|------|--------------|---------------------|------------------|
G-o-----------|------|-------------o|o--------------------|------------------|
D-o--4-4---4--|-4----|-4--4---2----o|o---1---1-2----------|-1-----2-------1--|
A--------4----|----4-|------------4-|--4---4-----------4--|-----4-------4---4|
E-------------|------|--------------|------------2-2-2----|---2-----2-2------|

E-------------|--------------|----------------------------------------------|
B-------------|--------------|----------------------------------------------|
G------------o|o-------------|---------------------------------------------o|
D------------o|o-4--4--4--4--|-7-----6---6--7----4--4--4-----4-------------o|
A---2---0-----|--4--6--4--6--|-7--4--6-4-6--7----4--6--4-----2-----4------4-|
E-2---2---2-0-|--------------|---------------------------2-2---2-2-2--2-2-2-|

                                                          /-------\
E--12*--------|-----------------------------------------|--------------------
B--12----14-14|-14/12--12--12--12/7--7-7-7/9-9-9/5-5-5--|-4--5--4--2---------
G-------------|-----------------------------------------|-------------4/2----
D-------------|-----------------------------------------|--------------------
A-------------|-----------------------------------------|--------------------
E-------------|-----------------------------------------|--------------------
  * Full
               /-----\
E------------------------|----12--16--12------------------------------|------
B------------------------|-5/-------------14--12----------------------|------
G-6*--(6)6--4------------|------------------------13-9----------------|------
D--------------6-4-------|-----------------------------11-9-----------|------
A------------------6-4--6|-----------------------------------11-7-----|------
E------------------------|----------------------------------------9-7-|-0-5-4

                                         /-----\ /------\  /-----\     1/2            1/2       /---------\
E----|------------------------------|----------------------------------------
B----|/5--7-5--0-7--9-7-0--12*---9--|--11-----------------------9------------
G----|------------------------------|-----------------------------11-9-------
D----|------------------------------|----------------------------------11-9-8
A----|------------------------------|----------------------------------------
E--3-|------------------------------|----------------------------------------

             /---\
E----9--11--12-11-9----------------------------------------|-----------------
B-12----------------12--11--9------------------------------|-----------------
G------------------------------11-9-8----------------------|-----------------
D-------------------------------------11-9-8---------------|--------11-------
A--------------------------------------------11-9-7--------|---11------------
E---------------------------------------------------11-9-7-|-9----------9----

                                 /-----\
E-12--12--12--12-|--------------------------|----------------|---------------
B-11--11--11--11-|--------------------------|------------12*-|-14/12---------
G----------------|-----9--------------------|----------------|---------------
D----------------|-----9---11/9-------------|-------11-------|---------------
A----------------|-/11-----------9-10-9-7---|----11----------|---------------
E----------------|------------------------9-|--9-------9-----|---------------

  /---------\  /--------\   1/2
E-----------------------------------|-----------14---13--11--------|---------
B-----------------------------------|-----12----------------14--12-|---------
G-13-12-13-12--11--9--11-9---11--9--|-/11----11--------------------|---------
D-----------------------------------|------------------------------|---------
A-----------------------------------|------------------------------|---------
E-----------------------------------|------------------------------|---------


E----13-14-16-14-13-14-13----13---------|-19-----------------------------|---
B-16----------------------16----16-14-16|----16--------------------------|---
G---------------------------------------|-------16----------16--------18-|---
D---------------------------------------|----------16-13-----------16----|---
A---------------------------------------|----------------14-----14-------|---
E---------------------------------------|--------------------------------|---

                                             /------\
E-------------------------------------14-16--18-16-14------------------------
B----------------------------14-16-17----------------------------------------
G-------------------13-15-16-------------------------------------------------
D----------13-14-16----------------------------------------------------------
A-13-14-16-------------------------------------------------------------------
E----------------------------------------------------------------------------

E-19*-19*-~-----|--19-------16-------19-------16-------19-------16-|------14-
G------------12-|-----17/14----14/17----17/14----14/17----17/14----|-17*-----
G---------------|--------------------------------------------------|---------
D---------------|--------------------------------------------------|---------
A---------------|--------------------------------------------------|---------
E---------------|--------------------------------------------------|---------

E-----------14-----------14-----------14-------14-----14-----14|-------------
B-17-14-17*----17-14-17*----17-14-17*----17*------17*----17*---|-17-16-14----
G--------------------------------------------------------------|----------17-
D--------------------------------------------------------------|-------------
A--------------------------------------------------------------|-------------
E--------------------------------------------------------------|-------------
                                                        B      T
                                                     /-----\   /------\
E---------------------------------|----------------|-------------------------
B---------------------------------|----------------|-5-(5)-5---12(12)12---5--
G--16--15-14----------------------|-------------4--|-------------------------
D------------16-14----------16----|-----4---6------|-------------------------
A------------------16-15-14----14-|---2------------|-------------------------
E---------------------------------|-0--------------|-------------------------
  T
  /------\                 /----------------\
E-12(12)12---7-|-12----------------------------------------------------------
B--------------|-12--------12--14--17--14--12-------------12-----------------
G--------------|--------13----------------------13-----13--------------------
D--------------|-----14-----------------------------14-----------------------
A--------------|-------------------------------------------------------------
E--------------|-------------------------------------------------------------

  /------------------\                   /---------\  T
E-12-14-16-18-16-14-12-------|-----------12-14-16-18--21-18-16-14-12-14-16-18
B----------------------12----|--------12-------------------------------------
G-------------------------13-|-----13----------------------------------------
D----------------------------|--14-------------------------------------------
A----------------------------|-----------------------------------------------
E----------------------------|-----------------------------------------------
                                         (DIVE BACK)
  T                                       1/2            1/2       1/2
E-21-18-16-14-12--14-16-18-|------|-----------------------------------------
B--------------------------|-14*--|-11-14-11----------14-11-----14-11--------
G--------------------------|------|------------------------------------------
D--------------------------|------|------------------------------------------
A--------------------------|------|------------------------------------------
E--------------------------|------|------------------------------------------

    (RELEASE VIOLENTLY)
E-----------------------|----------------------11--12/11----14/11----16/12-|-
B--14-11~~~~------------|-12/11----11-14/11--------------12-------12-------|-
G-----------------------|-------13----------13-----------------------------|-
D-----------------------|--------------------------------------------------|-
A-----------------------|--------------------------------------------------|-
E-----------------------|--------------------------------------------------|-

                             /--------\        (RELEASE AGAIN)
E----18/14----19/16----19*-|-----------------------------------|-------------
B-14-------16-------17-----|-19*-19---16-----------------------|-------------
G--------------------------|-----------------------------------|-18*--(18)---
D--------------------------|--------------18*--(18)/8---16-----|-------------
A--------------------------|-----------------------------------|-------------
E--------------------------|-----------------------------------|-------------

E--------------------|-------------------------16-17-18--19-19-18-17-16------
B-16--18--16~~~~~~~~~|-------------16-17-18-19--------------------------19---
G--------------------|-15-16-17-18-------------------------------------------
D--------------------|-------------------------------------------------------
A--------------------|-------------------------------------------------------
E--------------------|-------------------------------------------------------

E----------------|-----------------------------------------------------------
B-18-17-16-------|-----------------------------------------------------------
G----------18-17-|-16--15-18-17-16-15----------------------------------------
D----------------|--------------------18-17--16-15---------------------------
A----------------|---------------------------------18--17-16-15--------------
E----------------|----------------------------------------------18-17-16-15--

E-------------||-----|--|------|-----|----|---|-----|----|------|----|----|--
B-------------||-----|--|------|-----|-4--|---|--6--|----|--9---|----|-5--|--
G-------------||-----|--|--4/--|-----|-6--|---|--8--|----|--11--|----|-11-|--
D-------------||--11-|--|------|-----|-6--|---|--8--|----|--11--|----|-9--|-
A-------------||--11-|--|------|-----|-4--|---|--6--|----|--9---|----|-7--|--
E-13-12-10--11||--9--|--|------|-----|----|---|-----|----|------|----|----|--

E----|---|---|-------|-----|-----|-----|-----|----|-------------------------|
B-4--|---|-6-|--11---|--5--|--4--|--6--|--9--|--5-|--4--4--4--4--4---4----4-|
G-6--|---|-8-|--13---|--11-|--6--|--8--|--11-|--11|--6--6--6--6--6---6----6-|
D-6--|---|-8-|--13---|--9--|--6--|--8--|--11-|--9-|--6--6--6--6--6---6----6-|
A-4--|---|-6-|--11---|--7--|--4--|--6--|--9--|--7-|--4--4--4--4--4---4----4-|
E----|---|---|-------|-----|-----|-----|-----|----|-------------------------|

E-------------------------|-------------------------|----------|-----------|-
B-4--4--4--4--4----4----4-|--6--6--6--6--6---6---6--|--9---9---|--5----5---|-
G-6--6--6--6--6----6----6-|--8--8--8--8--8---8---8--|--11--11--|--11---11--|
D-6--6--6--6--6----6----6-|--8--8--8--8--8---8---8--|--11--11--|--9----9---|-
A-4--4--4--4--4----4----4-|--6--6--6--6--6---6---6--|--9---9---|--7----7---|-
E-------------------------|-------------------------|----------|-----------|-

    Outside the soundness                of  your mind
E---------------------------------------------|--------|----------------|----
B---------------------------------------------|---0----|----------------|----
G----------6------6--6------6-------6--6------|---2----|----------------|----
D----------6------6--6------6-------6--6------|---2----|--4------4------|----
A--4-4-4-4-4--4-4-4--4--4-4-4---4-4-4--4--0-0-|---0----|--4------4--2-2-|----
E---------------------------------------------|--------|--2--2-2-2------|----

                 bathing your               soul in       silver tears
E--------------|--------------------------|-------------|--0------------|----
B--------------|--------------------------|-------------|----4----------|----
G--4------4--4-|-----------6------6--6--9-|--9--11---11-|------4--------|----
D--4------4--4-|-----------6------6--6--9-|--9--11---11-|--------4------|----
A--2--2-2-2--2-|---4-4-4-4-4--4-4-4--4--7-|--7--9----9--|---------------|----
E--------------|--------------------------|-------------|---------------|----

                        Beneath a blackned                          summer
E------0-------0---|----------------------------------------------|----------
B--------0-------0-|----------------------------------------------|----0-----
G------------------|------------6------6--6------6------6--6------|----2-----
D------------------|------------6------6--6------6------6--6------|----2-----
A---5--------3-----|---4-4-4-4--4--4-4-4--4--4-4-4--4-4-4--4--0-0-|----0-----
E---3--------1-----|----------------------------------------------|----------

   sky                                                        praying for
E---------|-------------------------|----------------------|-----------------
B---------|-------------------------|----------------------|-----------------
G---------|-------------------------|--4----------4------4-|----------6------6
D---------|--4-------4--4-----------|--4----------4------4-|----------6------6
A---------|--4-------4--4-----------|--2--2-2-2-2-2--2-2-2-|--4-4-4-4-4--4-4-4
E-----2-2-|--2--2-2--2--2------2-2--|----------------------|-----------------

    time    to desapear
E--------|---------------|-0-------|-----------------------------------------
B--------|---------------|---4-----|-----------------------------------------
G--6--6--|--9------11-11-|-----4---|-----------------------------------------
D--6--6--|--9------11-11-|-------4-|-----------------------------------------
A--4--4--|--7------9--9--|---------|-----------------------------------------
E--------|---------------|---------|-12-11-10-0-8-9-10-9-8-0-6-7-8-7-6-0-0-0-

E------||---------|--4--|-----|-2-----|---------0-|-2-----|------------------
B------||-------7-|-----|--5--|---5---|-3----3----|----2--|------------------
G------||--6----6-|-----|--4--|-----4-|-2---------|----2--|------------------
D------||--4----4-|-----|--2--|-------|-0--0------|----0--|------------------
A-8--5-||--4------|-----|--2--|-------|-0---------|-------|---------4----3---
E-6--3-||---------|-----|-----|-------|-----------|-------|-2-2-3-3-2--2-----

E--------|-------------------------------------------------------------------
B--------|-------------------------------------------------------------------
G--------|-------------------------------------------------------------------
D--------|-------------------------------------------------------------------
A---1----|---4--4------------------------------------------------------------
E-0---0--|---2--2------------------------------------------------------------

-----------------------------------------------------------------

7. WAIT FOR SLEEP
Tuning - E,A,D,G,B,E

Guitar 1  (Keyboard arranged for guitar; finger style)

   
E||-------------------------|-------------------------|
B||--12---------10----12p0--|--12---------10----12p0--|
G||-------------------------|-------------------------|
D||--------9----------------|--------9----------------|
A||-------------------------|-------------------------|
e||-------------------------|-------------------------|

E||-------------------------|----10p0-----8p5----|
B||--12---------10----12p0--|--------------------|
G||-------------------------|--------------------|
D||--------9----------------|--------------------|
A||-------------------------|--------------------|
e||-------------------------|--------------------|
  	
E||--7----------5----7p0-------|--7----------5----7p0-------|
B||----------------------------|----------------------------|
G||-------5-----------------5--|--------5----------------5--|
D||----------------------------|----------------------------|
A||----------------------------|----------------------------|
e||----------------------------|----------------------------|

E||--3---------2p3-------2p0-------------|
B||------------------0----|---------3p0--|
G||-------2---------------|----2---------|
D||-----------------------|--------------|
A||-----------------------|--------------|
e||-----------------------|--------------|

      o		     o		o	  o    o	
      o    o    o    o   o      o    o    o    o   o
E||-------------------------|-------------------------|
B||--12-------------12------|--12-------------12------|
G||-------------------------|-------------------------|
D||-------12----7-----------|-------12----7-----------|
A||------------------7------|------------------7------|
e||--12---------7--------7--|--12---------7--------7--|

      o	        o    o 	       o	
      o    o    o    o   o     o     o     o     o
E||-------------------------|--------------8----------|  
B||--12-------------12------|-------------------------|
G||-------------------------|--7----------------------|
D||-------12----7-----------|--------------------7----|
A||------------------7------|--------7-----7----------|
e||--12---------7--------7--|--7----------------------|

E||--7-------------7p0--------|--7-------------7p0--------|
B||-----------10--------------|-----------10--------------|
G||-------0-------------------|-------0-------------------|
D||------10---------------10--|------10---------------10--|
A||---------------------------|---------------------------|
e||--8------------------------|--8------------------------|

E||--3-------2----3---------2--|---0--------------||
B||---------------0------------|-------------3p0--||
G||----------2--------------2--|--------0---------||
D||------2-------------2-------|---4---------4h2--||
A||--0-------------------------|--(0)-------------||
e||----------------------------|------------------||

Verse 1:

E||--7---------------7---------|--7---------------7-------|
B||------------10--------------|------------10------------|
G||----------------------------|--------------------------|
D||-------9-----------------9--|-------9---------------9--|
A||------------------7---------|------------------7-------|
e||--0-------------------------|--0-----------------------|
			  Stand      -     ing   by   the

E||--7---------------7-------|--10-----------8----------|
B||------------10------------|---------------------10---|
G||--------------------------|---------9----------------|
D||-------9---------------9--|--------------------------|
A||------------------7-------|--------------------------|
e||--0-----------------------|---0----------------------|
    win   -   dow,

E||--7---------------7p0------|--7---------------7p0------|
B||------------10-------------|------------10-------------|
G||---------------------------|---------------------------|
D||------10---------------10--|------10---------------10--|
A||---------------------------|---------------------------|
e||--8------------------------|--8------------------------|
     				 eyes      up - on    the   

E||--3--------------3----------|---0--------------------|
B||-----------7----(7)p0----7--|--------------------0---|
G||----------------------------|--------------7---------|
D||-------7--------------------|--------9---------------|
A||--0-------------------------|------------------------|
e||----------------------------|---7--------------------|
     moon.

E||--7---------------7---------|--7---------------7-------|
B||------------10--------------|------------10------------|
G||----------------------------|--------------------------|
D||-------9-----------------9--|-------9---------------9--|
A||------------------7---------|------------------7-------|
e||--0-------------------------|--0-----------------------|
			          Hop  -   ing  that  the

E||--7---------------7-------|--10-----------8----------|
B||------------10------------|---------------------10---|
G||--------------------------|---------9----------------|
D||-------9---------------9--|--------------------------|
A||------------------7-------|--------------------------|
e||--0-----------------------|---0----------------------|
    mem - o -  ry

E||--7---------------7p0------|--7---------------7p0------|
B||------------10-------------|------------10-------------|
G||---------------------------|---------------------------|
D||------10---------------10--|------10---------------10--|
A||---------------------------|---------------------------|
e||--8------------------------|--8------------------------|
     		          will  leave     her  spirit	

E||--3--------------3----------|---0--------------------0---||	
B||-----------7----(7)p0----7--|-----------3-------5--------||  
G||----------------------------|-------7-------7------------||
D||-------7--------------------|----------------------------||  
A||--0-------------------------|----------------------------||
e||----------------------------|---7------------------------||
     soon.					       She

Bridge 1:

E||--0----------0----------|-------------------------|
B||--8----------8----------|--7-----------7----------|
G||--5----------5----------|--7-----------7----------|
D||--7----------7----------|--7-----------7----------|
A||--0---------------------|-------------------------|
e||------------------------|--7----------------------|
   shuts    the doors   and lights     and lays   her

E||--0----------0----------|--0-----------0------------|
B||--3----------3----------|--3-----------3------------|
G||--4----------4----------|--4-----------4------------|
D||--5----------5----------|--5-----------5------------|
A||------------------------|--3------------------------|
e||--0---------------------|---------------------------|
    bod  -  y  on  the bed,			  her

E||--0------------0-----------|--5------------5------------|
B||--8------------8-----------|--7------------7------------|
G||--5------------9-----------|--7-------------------------|
D||--7------------7-----------|--9------------9------------|
A||--0------------------------|----------------------------|
e||---------------------------|--7-------------------------|
    im - a - ges and     words		 are running deep.  

E||--7------------7---------|--7----------7----------|
B||--8------------8---------|--8----------8----------|
G||--7------------7---------|--9----------9----------|
D||-------------------------|------------10----------|
A||--7----------------------|-10---------------------|
e||-------------------------|--8---------------------|

E||--8----------7----------|------------------------|
B||--0----------0----------|-10----------8----------|
G||--9----------9----------|--7----------7----------|
D||-10---------10----------|--9----------9----------|
A||--0---------------------|------------------------|
e||------------------------|--7---------------------|
   She  has    too  much    pride  to pull      the 

E||--0----------0----------|--0----------0----------|
B||--8----------8----------|--8----------8----------|
G||--7----------7----------|--7----------7----------|
D||--9----------9----------|--9----------9----------|
A||--7---------------------|------------------------|
e||------------------------|--8---------------------|
    sheets  above her head 			 so

E||--0----------0----------|------------------------||
B||--8----------8----------|--7----------7----------||
G||--5----------5----------|--7----------7----------||
D||--7----------7----------|--7----------7----------||
A||--0---------------------|------------------------||
e||------------------------|--7---------------------||
    qui - et - ly	she  lays  and wait     for

      o		o    o		o	  o    o	
      o    o    o    o   o      o    o    o    o   o
E||-------------------------|-------------------------|
B||--12-------------12------|--12-------------12------|
G||-------------------------|-------------------------|
D||-------12----7-----------|-------12----7-----------|
A||------------------7------|------------------7------|
e||--12---------7--------7--|--12---------7--------7--|
    sleep.

      o	        o    o 	       o	
      o    o    o    o   o     o     o     o     o
E||-------------------------|--------------8----------|  
B||--12-------------12------|-------------------------|
G||-------------------------|--7----------------------|
D||-------12----7-----------|--------------------7----|
A||------------------7------|--------7-----7----------|
e||--12---------7--------7--|--7----------------------|

E||--7-------------7p0--------|--7-------------7p0--------|
B||-----------10--------------|-----------10--------------|
G||-------0-------------------|-------0-------------------|
D||------10---------------10--|------10---------------10--|
A||---------------------------|---------------------------|
e||--8------------------------|--8------------------------|

E||--3-------2----3---------2--|---0--------------||
B||---------------0------------|-------------3p0--||
G||----------2--------------2--|--------0---------||
D||------2-------------2-------|---4---------4h2--||
A||--0-------------------------|--(0)-------------||
e||----------------------------|------------------||

Verse 2:

E||--7---------------7-------------|--7-----------------7------------|
B||------------10------------------|--------------10-----------------|
G||-----------------------9--------|-------------------------9-------|
D||-------9--------------------9---|---------9--------------------9--|
A||------------------7-------------|-(7)-----------------------------|
e||--0-----------------------------|---------------------------------|
			    She      stares                at  the	

E||--7---------------7-------------|-10---------------8--------------|
B||------------10------------------|-------8---------------8---------|
G||-----------------------9--------|-------------9--------------9----|
D||-------9--------------------9---|---------------------------------|
A||------------------7-------------|-(7)-----------------------------|
e||--0-----------------------------|---------------------------------|
    ceil  -  ing   and	   tries            not       to    think.

E||--7-----------------7p0---------|--7------------------7p0---------|
B||-------------10-----------------|--------------10-----------------|
G||--------------------0-----------|-(0)-----------------------------|
D||-------10------------------10---|--------10------------------10---|
A||--------------------------------|---------------------------------|
e||--8-----------------------------|---------------------------------|

								 o	
E||--3----------------3------------|------------0-----------3--------|
B||------------7-----(7)p0----7----|--5---------------7--------------|
G||--------------------------------|-------7-------------------------|
D||-------7------------------------|-----------------------------7---|
A||--0-----------------------------|---------------------------------|
e||--------------------------------|--7------------------------------|

E||--7---------------7-------------|--7-----------------7------------|
B||------------10------------------|--------------10-----------------|
G||-----------------------9--------|-------------------------9-------|
D||-------9--------------------9---|---------9--------------------9--|
A||------------------7-------------|-(7)-----------------------------|
e||--0-----------------------------|---------------------------------|
			     And     pic    -    tures the    chain

E||--7---------------7-------------|-10---------------8--------------|
B||------------10------------------|-------8---------------8---------|
G||-----------------------9--------|-------------9--------------9----|
D||-------9--------------------9---|---------------------------------|
A||------------------7-------------|-(7)-----------------------------|
e||--0-----------------------------|---------------------------------|
               she's been     try      -      ing    to      link 

E||--7-----------------7p0---------|--7------------------7p0---------|
B||-------------10-----------------|--------------10-----------------|
G||--------------------0-----------|-(0)-----------------------------|
D||-------10------------------10---|--------10------------------10---|
A||--------------------------------|---------------------------------|
e||--8-----------------------------|---------------------------------|
     a   -   gain,					 but   the
								 o	
E||--3----------------3------------|--0---------0--------------------||
B||------------7-----(7)p0----7----|-------5----------0----------0---||
G||--------------------------------|------------------------4--------||
D||-------7------------------------|---------------------------------||
A||--0-----------------------------|--0------------------------------||
e||--------------------------------|---------------------------------||
    feel  -  ing      is   gone.				 And

Bridge 2:

E||--0----------0----------|-------------------------|
B||--8----------8----------|--7-----------7----------|
G||--5----------5----------|--7-----------7----------|
D||--7----------7----------|--7-----------7----------|
A||--0---------------------|-------------------------|
e||------------------------|--7----------------------|
     water      can't        cover		 her	

E||--0----------0----------|--0-----------0------------|
B||--3----------3----------|--3-----------3------------|
G||--4----------4----------|--4-----------4------------|
D||--5----------5----------|--5-----------5------------|
A||------------------------|--3------------------------|
e||--0---------------------|---------------------------|
     memory.					   And	

E||--0------------0-----------|--5------------5------------|
B||--8------------8-----------|--7------------7------------|
G||--5------------9-----------|--7-------------------------|
D||--7------------7-----------|--9------------9------------|
A||--0------------------------|----------------------------|
e||---------------------------|--7-------------------------|
     ashes      	 can't  answer		       her 

E||--7------------7---------|--7----------7----------|
B||--8------------8---------|--8----------8----------|
G||--7------------7---------|--9----------9----------|
D||-------------------------|------------10----------|
A||--7----------------------|-10---------------------|
e||-------------------------|--8---------------------|
     pain.

E||--8----------7----------|------------------------|
B||--0----------0----------|-10----------8----------|
G||--9----------9----------|--7----------7----------|
D||-10---------10----------|--9----------9----------|
A||--0---------------------|------------------------|
e||------------------------|--7---------------------|
     God give me	the  power	    to take

E||--0----------0----------|--0----------0----------|
B||--8----------8----------|--8----------8----------|
G||--7----------7----------|--7----------7----------|
D||--9----------9----------|--9----------9----------|
A||--7---------------------|------------------------|
e||------------------------|--8---------------------|
     breath     from    a     breeze,		And

E||--0----------0----------|------------------------||
B||--8----------8----------|--7----------7----------||
G||--5----------5----------|--7----------7----------||
D||--7----------7----------|--7----------7----------||
A||--0---------------------|------------------------||
e||------------------------|--7---------------------||
     call life from    from   a metal          fra -

E||--0--------------0---------0--|--0--------------0---------0--|
B||------------3-----------------|------------3-----------------|
G||-------4--------------4-------|-------4--------------4-------|
D||------------------------------|-(2)--------------------------|
A||---------------------------2--|------------------------------|
e||--0--------------2------------|------------------------------|
   - me.

E||--0--------------0---------0--|--0--------------0---------0--||
B||------------3-----------------|------------3-----------------||
G||-------4--------------4-------|-------4--------------4-------||
D||---------------------------2--|-(2)--------------------------||
A||------------------------------|------------------------------||
e||--0--------------2------------|------------------------------||

Chorus:

E||--0----------------|--5-------------------|--0-------------0-----|
B||-------------------|--7------8------7-----|--8-------------8-----|
G||--2----------------|--7------7------7-----|--7-------------9-----|
D||--0-------------0--|-(0)------------------|----------------------|
A||-------------------|----------------------|----------------------|
e||-------------------|----------------------|--8-------------------|
                         In     with   the      ash  -  es,
 
          o    o    o
E||-(0)------------12-----|--7-----------10------|(10)-----------------|
B||-----------12----------|--8-------------------|--------8----(8)p7---|
G||------12---------------|--7-------------------|---------------------|
D||-----------------------|----------------------|---------------------|
A||-----------------------|--0-------------------|-12*-----------------|
e||--8--------------------|----------------------|---------------------|
		       or   up    with the  smoke         from    the

E||--0------------------|--0------------------|--0---------------------|
B||--0-----------0------|--0------------------|--0---------------------|
G||--7------------------|--7-----------0------|--7---------------------|
D||--9------------------|--9------------------|--------------4---------|
A||---------------------|---------------------|------------------------|
e||---------------------|---------------------|--7----------------7----|
     fire.							  With
						
E||--5-------------------|--0------------0-----|---------12h7----------|
B||--7------8------7-----|--8------------8-----|------8---------8------|
G||--7------7------7-----|--7------------5-----|-11-----------------9--|
D||----------------------|---------------7-----|--0--------------------|
A||----------------------|--0------------------|-----------------------|
e||-(7)------------------|---------------------|-----------------------|
   wings    up     in       heav  -  en,                            or 

						  o
  						  o
						  o		 o
E||--0-------------------|---------------------|-----------------------|
B||--7-------------------|--7------8-----10----|-12--------------------|
G||--7-------------------|--7------9-----11----|-12--------------------|
D||--0-------------7-----|--0------------------|-12-------------12-----|
A||----------------------|---------------------|-----------------------|
e||----------------------|---------------------|--8--------------------|
     here,                  ly - ing     in       bed

     o
     o
     o		    o    
E||-----------------------|--7-------------10-----|(10)----------------|
B||-12--------------------|--7--------------------|--------8------7----|
G||-12--------------------|--7--------------------|--------------------|
D||----------------12-----|--0--------------------|--0-----------------|
A||-----------------------|-----------------------|--------------------|
e||-(8)-------------------|-----------------------|--------------------|
     			    palm      of  her  hand        to     my 

E||--0----------|-(0)----------|--5--------------|---------------------|
B||--3----------|-(3)----------|--7--------------|--7------8------10---|
G||--4----------|-(4)----------|-----------------|--7------9------11---|
D||--2----------|-(2)----------|--0--------7p0---|--0--------------0---|
A||--3----------|-(3)----------|--0--------------|---------7-----------|
e||-------------|--------------|-----------------|---------------------|
     head.			  Now        and    for - ev  -   er

      o
      o
      o		       o     o
      o		       o     o	       o
E||-----------------------|-----------------------|
B||--12---------------12--|-12--------------------|
G||--12---------------12--|-12--------------------|
D||--12-------------------|-----------12----------|
A||-----------------------|-----------------------|
e||--12-------------------|(12)-------------------|
     curled			          in   my

E||-----------------------|-----------------------|
B||--7--------------------|-10--------------------|
G||--7--------------------|--7--------------------|
D||--7--------------------|--9--------------------|
A||-----------------------|-----------------------|
e||--7--------------------|-(7)-------------------|
    heart   and  the    heart     of   the  world.

E||--0-----------|--------------|--0-----------|--0-----------||
B||--------------|--7-----------|--8-----------|-10-----------||
G||--0-----------|--7-----------|--------------|--7-----------||
D||--------------|--------------|--------------|--------------||
A||--------------|--------------|--------------|--------------||
e||--8-----------|-(8)----------|-(8)----------|-(8)----------||

      o		o    o		o	  o    o	
      o    o    o    o   o      o    o    o    o   o
E||-------------------------|-------------------------|
B||--12-------------12------|--12-------------12------|
G||-------------------------|-------------------------|
D||-------12----7-----------|-------12----7-----------|
A||------------------7------|------------------7------|
e||--12---------7--------7--|--12---------7--------7--|

      o	        o    o 	       o	
      o    o    o    o   o     o     o     o     o
E||-------------------------|--------------8----------|  
B||--12-------------12------|-------------------------|
G||-------------------------|--7----------------------|
D||-------12----7-----------|--------------------7----|
A||------------------7------|--------7-----7----------|
e||--12---------7--------7--|--7----------------------|

E||--7-------------7p0--------|--7-------------7p0--------|
B||-----------10--------------|-----------10--------------|
G||-------0-------------------|-------0-------------------|
D||------10---------------10--|------10---------------10--|
A||---------------------------|---------------------------|
e||--8------------------------|--8------------------------|

E||--3-------2----3---------2--|---0--------------|
B||---------------0------------|-------------3p0--|
G||----------2--------------2--|--------0---------|
D||------2-------------2-------|---4---------4h2--|
A||--0-------------------------|------------------|
e||----------------------------|------------------|

      o		o    o		o	  o    o	
      o    o    o    o   o      o    o    o    o   o
E||-------------------------|-------------------------|
B||--12-------------12------|--12-------------12------|
G||-------------------------|-------------------------|
D||-------12----7-----------|-------12----7-----------|
A||------------------7------|------------------7------|
e||--12---------7--------7--|--12---------7--------7--|

      o	        o    o 	       o	
      o    o    o    o   o     o     o     o     o
E||-------------------------|--------------8----------|  
B||--12-------------12------|-------------------------|
G||-------------------------|--7----------------------|
D||-------12----7-----------|--------------------7----|
A||------------------7------|--------7-----7----------|
e||--12---------7--------7--|--7----------------------|

E||--7-------------7p0--------|--7-------------7p0--------|
B||-----------10--------------|-----------10--------------|
G||-------0-------------------|-------0-------------------|
D||------10---------------10--|------10---------------10--|
A||---------------------------|---------------------------|
e||--8------------------------|--8------------------------|

							      o
							      o	
E||--3-------2----3-------0---|-------0-----3-----------10--------|
B||---------------0p1---------|--3----------0-----12----------7---|
G||----------2------------2---|-------0-----------------11--------|
D||------2--------------------|--4----------------12----------7---|
A||--0------------------------|-----------------------------------|
e||---------------------------|-----------------------------------|

E||--0------------------------||
B||--3------------------------||
G||--2------------------------||
D||--4------------------------||
A||--2------------------------||
e||--0------------------------||

---------------------------------------------------------

8. LEARNING TO LIVE
Tuning - E,A,D,G,B,E

Intro
  Q=140
 15/8
  Gtr I
  Wx4
|--------|
|--------|
|--------|
|--------|
|--------|
|--------|


    F#sus2/C#
    E E E E E E E E E E E E E E E   E E E E E E E E E E E E E E E
||--4---4---4---4---4---4---4---4-|---4---4---4---4---4---4---4----||
||o-7---7---7---7---7---7---7---7-|---7---7---7---7---7---7---7---o||
||--6---6---6---6---6---6---6---6-|---6---6---6---6---6---6---6----||
||--4---4---4---4---4---4---4---4-|---4---4---4---4---4---4---4----||
||o-4---4---4---4---4---4---4---4-|---4---4---4---4---4---4---4---o||
||--------------------------------|--------------------------------||


       E5/B F#5  E5   G5    F#5  E5   F#5  E5   G5
 7/4
  Q.   Q.   Q.   Q.   E E   Q.   Q.   Q.   Q.   S S E
|-4-----------------------|---------------------------|
|-7----5--------------3-3-|---------------------3-3-3-|
|-6----4--------------0-0-|---------------------0-0-0-|
|-4----2----4----2----0-0-|-4----2----4----2----0-0-0-|
|-4----2----4----2--------|-4----2----4----2----------|
|-----------2----0----3-3-|-2----0----2----0----3-3-3-|


  N.C.(F#5)           (E5)      (G5)    (F#5)               (E5)      (G5)
          PM|         PM|                       PM|         PM|
  S S E E E E S S E E E E S S E S S E   S S E E E E S S E E E E S S E S S E
|-----------------------------------|--------------------------------------|
|-----------------------------------|--------------------------------------|
|-----------------------------------|--------------------------------------|
|-4-4-4-4-----4-4-4-4----2-2-2-5-5--|-4-4-4-4-----4-4-4-4-----2-2-2-5-5----|
|-----------------------------------|--------------------------------------|
|---------2-2---------0-0---------3-|---------2-2---------0-0-----------3--|


  (C#5)                                 (B5)   (D5)   (E5)
 6/4                               4/4
  S S E E E E S S E E S S E S S E   E E S S E  S S E  S S E
|---------------------------------|-------------------------|
|---------------------------------|-------------------------|
|-6-6-6-6-----6-6-6---6-6-6-------|-6---4-4----7-7----9-9---|
|---------------------------------|-------------------------|
|---------4-4-------4-------4-4-4-|---4-----2/-----5/-----7-|
|---------------------------------|-------------------------|


  (C#5)                                 (B5)   (D5)
 6/4                               3/4
  S S E E E E S S E E S S E S S E   E E S S E  S S E
|---------------------------------|------------------|
|---------------------------------|------------------|
|-6-6-6-6-----6-6-6---6-6-6-------|-6---4-4----7-7---|
|---------------------------------|------------------|
|---------4-4-------4-------4-4-4-|---4-----2/-----5-|
|---------------------------------|------------------|


  E5
 5/8                         4/4
  PM--|   PM--------|   PM--------|   PM----------|
  S S E E E E   S S E E E E   S S E E E S S E S S E
|-------------|-------------|-----------------------|
|-------------|-------------|-----------------------|
|-------------|-------------|-----------------------|
|-------9-----|-------9-----|-------9---------------|
|-7-7-7-7-----|-7-7-7-7-----|-7-7-7-7---------------|
|---------0-0-|---------0-0-|---------0-0-0-0-0-0-0-|


 5/8           3/4
  PM|           PM--------------|
  S S E E E E   S S E S S E S S E
|-------------|-------------------||
|-------------|-------------------||
|-------------|-------------------||
|-------------|-------------------||
|---5-4---3-2-|-----2-----2-----2-||
|-0-----1-----|-0-0-0-0-0-0-0-0-0-||


  N.C.(F#m)
 14/8
  PM------------------------------------------------------|
  E E E E E E E E E E E E E E   E E E E E E E E E E E E E E
|-----------------------------|------------------------------|
|-----------------------------|------------------------------|
|-----------------------------|------------------------------|
|-----4-----4-----4-------4---|-----4-----4-----4-------4----|
|---4-----4-----4---4---4---4-|---4-----4-----4---4---4---4--|
|-2-----0-----7-------5-------|-2-----0-----7-------5--------|


                      E5      N.C.(F#m)
 13/8                        14/8
  PM----------------------------------------------------|
  E E E E E E E E E E E E E   E E E E E E E E E E E E E E
|---------------------------|-----------------------------|
|---------------------------|-----------------------------|
|---------------------------|-----------------------------|
|-----2-----4-----4-----2---|-----4-----4-----4-------4---|
|---2-----4-----4---4-----2-|---4-----4-----4---4---4---4-|
|-0-----2-----4-------0---0-|-2-----0-----7-------5-------|


                      E5      Asus2 Esus2
 13/8                        7/8
  PM----------------------|
  E E E E E E E E E E E E E   E E E E E  E E
|---------------------------|-----------------|
|---------------------------|-----------------|
|---------------------------|-----------11----|
|-----2-----4-----4-----2---|-----9---9----9\-|
|---2-----4-----4---4-----2-|---7---7---------|
|-0-----2-----4-------0---0-|-5---------------|


  F#5      E5     Gsus2
 4/4
  H    +E  Q.     W          +W
|---------------|-3--------|-(3)----||
|---------------|-3--------|-(3)----||
|---------------|-2--------|-(2)----||
|-4----(4)-2----|-0--------|-(0)----||
|-4----(4)-2----|----------|--------||
|-2----(2)-0----|-3--------|-(3)----||


    E5/B
 7/4                   6/4
              >
  a W        +H.        +H     W
|---------------------|-------------|
|-3s5--------(5)------|-(5)---------|
|-2s4--------(4)------|-(4)---------|
|---------------------|-------------|
|---------------------|-------------|
|---------------------|-------------|


   7/4              6/4
    W                W     3x
||-----------------|-------||
||o----------------|------o||
||-----------------|-------||
||-----------------|-------||
||o----------------|------o||
||-----------------|-------||


   Verse
   7/4              6/4
    W                W     4x
||-----------------|-------||
||o----------------|------o||
||-----------------|-------||
||-----------------|-------||
||o----------------|------o||
||-----------------|-------||


  Emadd9
 7/4                  6/4
  Gtr II
   W        +H.        Q  E E +E  E +E  E +E  E  Q
|-!0--------(0)------|------------------0-(0)--------|
|-!0--------(0)------|------------------------0------|
|-!0--------(0)------|------------0-(0)---------(0)--|
|-!4--------(4)------|------4-(4)--------------------|
|-!2--------(2)------|----2--------------------------|
|-!0--------(0)------|-0-----------------------------|


  Cmaj9+11
 7/4                  6/4
   W        +H.        Q  E E +E  E +E  E +E  E  Q
|--------------------|------------------0-(0)--------|
|-^3--------(3)------|------------3-(3)-------3------|
|-^0--------(0)------|------0-(0)---------------(0)--|
|-^4--------(4)------|----4--------------------------|
|-^3--------(3)------|-3-----------------------------|
|--------------------|-------------------------------|


  Amadd9
 7/4                  6/4
  Q  E Q.   W          Q  E E +E  E +E  E +E  E Q
|-----------0--------|------------------0-(0)------|
|-----------1--------|------------1-(1)-------1----|
|------4----4--------|------4-(4)---------------4--|
|----2---------------|----2------------------------|
|-0------------------|-0---------------------------|
|--------------------|-----------------------------|


  Em9
 7/4                   6/4
  Gtr I
  W                      Q.    E   +Q     Q.    E   +Q
|---------------------|-----------------------------------|
|---------------------|-<5>-------------------------------|
|---------------------|-------<5>-(<5>)-------------------|
|---------------------|------------------<4>--------------|
|---------------------|------------------------<5>-(<5>)--|
|---------------------|-----------------------------------|
|
| Gtr II
| Q  E Q.    W          +W.
|-----------^0--------|-(0)-------------------------------|
|-----------^3--------|-(3)-------------------------------|
|-----------^0--------|-(0)-------------------------------|
|------4--------------|-----------------------------------|
|----2----------------|-----------------------------------|
|-0-------------------|-----------------------------------|


  Em9
 7/4                  6/4
   ~~~~~~~~~~~~~~~~~~~~~~~~
   W        +H.        +H.             Q.        E  +Q
|--------------------|----------------14--------15-(15)--|
|--8--------(8)------|-(8)-------------------------------|
|--7--------(7)------|-(7)-------------------------------|
|--------------------|-----------------------------------|
|--------------------|-----------------------------------|
|--------------------|-----------------------------------|
|
|  W        +H.         Q   E E +E  E +E  E +E   E   Q
|-!0--------(0)------|--------------------0-(0)----------|
|-!0--------(0)------|---------------------------0-------|
|-!0--------(0)------|--------------0-(0)-----------(0)--|
|-!4--------(4)------|--------4-(4)----------------------|
|-!2--------(2)------|------2----------------------------|
|-!0--------(0)------|--0--------------------------------|


  Cmaj9+11
 7/4                   6/4
   ~~~~~~~~~~~~~~
   W         +H.        H.             Q.        E  +Q
|---------------------|---------------14--------15-(15)--|
|-13--------(13)------|----------------------------------|
|---------------------|----------------------------------|
|---------------------|----------------------------------|
|---------------------|----------------------------------|
|---------------------|----------------------------------|
|
|  W         +H.        Q   E E +E  E +E  E +E   E   Q
|---------------------|-------------------0-(0)----------|
|-^3---------(3)------|-------------3-(3)--------3-------|
|-^0---------(0)------|-------0-(0)-----------------(0)--|
|-^4---------(4)------|-----4----------------------------|
|-^3---------(3)------|-3--------------------------------|
|---------------------|----------------------------------|


  Amadd9
 7/4                            6/4
               ~~~~~~~~~~~~~~~~~~~~~~~~~~~~~~~~~~~~~
   Q.     E   +Q    +W            H.             H.
|------------------------------|-------------------------------|
|-12-----10--(10)--(10)--------|-13-------------12-------------|
|------------------------------|-------------------------------|
|------------------------------|-------------------------------|
|------------------------------|-------------------------------|
|------------------------------|-------------------------------|
|
|  Q   E  Q.         W            Q   E E +E  E +E  E +E  E Q
|--------------------0---------|--------------------0-(0)------|
|--------------------1---------|--------------1-(1)-------1----|
|---------4----------4---------|--------4-(4)---------------4--|
|------2-----------------------|------2------------------------|
|--0---------------------------|--0----------------------------|
|------------------------------|-------------------------------|


  Em9
 7/4                     6/4
                                     \1/   \1/           \7
        ~~~~~~~~~
  Q.    Q.   +W            H        +E    +E    +Q      +H
|-----------------------|-------------------------------------------||
|-7-----5----(5)--------|-------------------------------------------||
|-----------------------|-<4>------(<4>)-(<4>)-(<4>)---(<4>)--------||
|-----------------------|-------------------------------------------||
|-----------------------|-------------------------------------------||
|-----------------------|-------------------------------------------||
|
| Q   E Q.    W            Q   E E  +E     E    +E   E  +E   E  Q
|------------^0---------|----------------------------0--(0)---------||
|------------^3---------|------------------------------------3------||
|------------^0---------|------------------0----(0)------------(0)--||
|-------4---------------|--------4--(4)-----------------------------||
|-----2-----------------|------2------------------------------------||
|-0---------------------|--0----------------------------------------||


 Chorus
  Q.=120
  Am7             Bm7             Em7
 12/8
  W.              W.              W.                 +W.
|---------------|---------------|------------------|--------|
|---------------|---------------|------------------|--------|
|---------------|---------------|------------------|--------|
|-2-------------|-4-------------|-2----------------|-(2)----|
|-0-------------|-2-------------|-2----------------|-(2)----|
|---------------|---------------|-0----------------|-(0)----|
|
| W.              W.              H.       H.        +W.
|-0-------------|-2-------------|---------^7-------|-(7)----|
|-1-------------|-3-------------|---------^8-------|-(8)----|
|-0-------------|-2-------------|---------^7-------|-(7)----|
|-2-------------|-4-------------|---------^9-------|-(9)----|
|-0-------------|-2-------------|---------^7-------|-(7)----|
|---------------|---------------|------------------|--------|


    Am7             Bm7
    W.              W.
||----------------|---------------|
||o---------------|---------------|
||----------------|---------------|
||--2-------------|-4-------------|
||o-0-------------|-2-------------|
||----------------|---------------|
|
|   W.              W.
||--0-------------|-2-------------|
||o-1-------------|-3-------------|
||--0-------------|-2-------------|
||--2-------------|-4-------------|
||o-0-------------|-2-------------|
||----------------|---------------|


  Em7
 11/8                           12/8
  E  E E +E  E E  E  E E  E  E    E  E E +E  E E E E E E E E
|------------------------------|------------------------------||
|------------------------------|-----------------------------o||
|------------------------------|------------------------------||
|--------------------4-5--4----|-------------------4-5-4------||
|-7----7-(7)---5--7----------5-|--7----7-(7)---5-7-------5---o||
|------------7-----------------|-------------7-------------7--||
|
| H.              Q.     +Q      +W.
|----------------^7------(7)---|-(7)--------------------------||
|----------------^8------(8)---|-(8)-------------------------o||
|----------------^7------(7)---|-(7)--------------------------||
|----------------^9------(9)---|-(9)--------------------------||
|----------------^7------(7)---|-(7)-------------------------o||
|------------------------------|------------------------------||


  Am7             Bm7     B5
                          PM---|
  W.              H.      E  E E q.
|---------------|---------------------||
|---------------|---------------------||
|---------------|----------------4----||
|-2-------------|-4--------------4----||
|-0-------------|-2-------2--2-2-2----||
|---------------|---------------------||
|
| W.              H.      H.
|-0-------------|-2-------------------||
|-1-------------|-3-------------------||
|-0-------------|-2-------------------||
|-2-------------|-4-------------------||
|-0-------------|-2-------------------||
|---------------|---------------------||


    Q=156
    E5    B5   E5         Bb5  E5                  F5
   7/4                        6/4
    Gtr I
    PM--|      PM     PM|      PM----|   PM|     PM
    E E E E Q  E E Q  E E Q    E E E E E E E E E E Q
||---------------------------|-------------------------||
||o--------------------------|---------5--------------o||
||--------4---------------3--|---------4---------------||
||--------4---------------3--|---------2-----------3---||
||o-2-2-2-2----2-2----2-2-1--|-2-2-2-2-2-2-2-2---2-3--o||
||--0-0-0------0-0----0-0----|-0-0-0-0---0-0-0---0-1---||


   Verse
    E5    B5   E5         Bb5  E5                  F5
   7/4                        6/4
    PM--|      PM     PM|      PM----|   PM|     PM
    E E E E Q  E E Q  E E Q    E E E E E E E E E E Q
||---------------------------|-------------------------||
||o--------------------------|---------5--------------o||
||--------4---------------3--|---------4---------------||
||--------4---------------3--|---------2-----------3---||
||o-2-2-2-2----2-2----2-2-1--|-2-2-2-2-2-2-2-2---2-3--o||
||--0-0-0------0-0----0-0----|-0-0-0-0---0-0-0---0-1---||


  E5    B5   E5         Bb5   E5                    F5
 7/4                         6/4
  PM--|      PM     PM--------------|   PM|     PM|
  E E E E Q  E E Q  E E E E   E E E E E E E E E S S Q
|---------------------------|--------------------------|
|---------------------------|---------5----------------|
|-------4-------------------|---------4----------------|
|-------4---------------3-3-|---------2-------------3--|
|-2-2-2-2----2-2----2-2-1-1-|-2-2-2-2-2-2-2-2-------3--|
|-0-0-0------0-0----0-0-----|-0-0-0-0---0-0-0---0-0-1--|


  E5    B5   E5         BbE5                        F5
 7/4                         6/4
  PM--|      PM     PM|   PM--------|   PM|     PM|
  E E E E Q  E E Q  E E E E   E E E E E E E E E S S Q
|---------------------------|--------------------------|
|---------------------------|---------5----------------|
|-------4-------------------|---------4----------------|
|-------4---------------3---|---------2-------------3--|
|-2-2-2-2----2-2----2-2-1-2-|-2-2-2-2-2-2-2-2-------3--|
|-0-0-0------0-0----0-0---0-|-0-0-0-0---0-0-0---0-0-1--|


        B5      G5      B5Bb5        E5                    F5
 7/4                          6/4
  PM--|     PM|     PM|        PM--|     PM--------------|
  E E E E E E E E E E E E Q    E E E E E S S E S S S S S S Q
|----------------------------|--------------------------------|
|----------------------------|-------5------------------------|
|-------4--------------------|-------4------------------------|
|-------4---------------4-3--|-------2---------------------3--|
|-------2-------5-------2-1--|-------2---------------------3--|
|-0-0-0-----0-0-3---0-0------|-0-0-0-----0-0---0-0-0-0-0-0-1--|


  B5    E5                        Bb5  B5    E5                  F5
 7/4                                  6/4
    PM|     PM------------------|        PM|     PM------------|
  E E E E E S S E S S E S S E S S Q    E E E E E S S E S S E S S Q
|------------------------------------|------------------------------|
|------------------------------------|------------------------------|
|-4-------------------------------3--|-4----------------------------|
|-4-------------------------------3--|-4-------------------------3--|
|-2-----2-------------------------1--|-2-----2-------------------3--|
|---0-0-0---0-0---0-0---0-0---0-0----|---0-0-0---0-0---0-0---0-0-1--|


          B5          G5        Bb5                 F5E5
 7/4                                 6/4
  PM----|     PM----|     PM--|       PM    PM    PM  PM--------|
  S S E E E E S S E E E E S S E E E   E E E E E E E E S S E S S E
|-----------------------------------|-----------------------------|
|-----------------------------------|-----------------------------|
|---------4---------------------3-3-|-----------------------------|
|---------4---------------------3-3-|-----------------------------|
|---------2-----------5---------1-1-|---5p4---3p2---3-----2-----2-|
|-3-2-0-0-----3-2-0-0-3---3-2-0-----|-0-----0-----0-1-0-0-0-0-0-0-|


          B5            G5          Bb5                 F5E5
 7/4                                     6/4
  PM----|   PM--------|   PM------|       PM    PM    PM  PM--------|
  S S E E E S S S S E E E S S S S E E E   E E E E E E E E S S E S S E
|---------------------------------------|-----------------------------||
|---------------------------------------|-----------------------------||
|---------4-------------------------3-3-|-----------------------------||
|---------4-------------------------3-3-|-----------------------------||
|---------2-------------5-----------1-1-|---5p4---3p2---3-----2-----2-||
|-3-2-0-0---0-0-3-2-0-0-3-0-0-3-2-0-----|-0-----0-----0-1-0-0-0-0-0-0-||


    Q=146
    N.C.(F#5)           (E5)      (G5)
   7/4
            PM|         PM|
    S S E E E E S S E E E E S S E S S E
||--------------------------------------|
||o-------------------------------------|
||--------------------------------------|
||--4-4-4-4-----4-4-4-4-----2-2-2-5-5---|
||o-------------------------------------|
||----------2-2---------0-0-----------3-|


  (F#5)               (E5)      (G5)
          PM|         PM|
  S S E E E E S S E E E E S S E S S E
|---------------------------------------||
|--------------------------------------o||
|---------------------------------------||
|-4-4-4-4-----4-4-4-4-----2-2-2-5-5-----||
|--------------------------------------o||
|---------2-2---------0-0-----------3---||


   Chorus
    F#7add11
   4/4
    Gtr II
     W              +W
||--^0------------|-(0)----------------------|
||o-^0------------|-(0)----------------------|
||--^3------------|-(3)----------------------|
||--^4------------|-(4)----------------------|
||o-^4------------|-(4)----------------------|
||--^2------------|-(2)----------------------|
|
|   Gtr I
|    H    +Q.   E   +E  E +E  E +E  E E +E
||--------------0-|-(0)----------------------|
||o---------------|-----0-(0)----------------|
||----------------|-----------3-(3)----------|
||---4----(4)-----|-----------------4--------|
||o--4----(4)-----|-------------------4-(4)/-|
||---2----(2)-----|-------------------2-(2)/-|


  Badd11
   W              +W
|-^0------------|-(0)---------------------|
|-^0------------|-(0)---------------------|
|-^8------------|-(8)---------------------|
|-^9------------|-(9)---------------------|
|-^9------------|-(9)---------------------|
|-^7------------|-(7)---------------------|
|
|                                      PM
|  H    +Q.   E   +E  E +E  E +E  E E  E
|-------------0-|-(0)---------------------|
|---------------|-----0-(0)---------------|
|---------------|-----------8-(8)---------|
|--9----(9)-----|-----------------9-------|
|--9----(9)-----|-------------------9-----|
|--7----(7)-----|-------------------7-(0)-|


  Dsus2add6
   W                 +W
|-^0---------------|-(0)---------------|
|-^0---------------|-(0)---------------|
|-^7---------------|-(7)---------------|
|-^7---------------|-(7)---------------|
|-^5---------------|-(5)---------------|
|------------------|-------------------|
|
|    PM  PM  PM  PM      PM  PM  PM  PM
|  E E E E E E E E    E  E E E E E E E
|------------------|-------------------|
|------------------|-------------------|
|--7---7---7---7---|--7----7---7---7---|
|--7---7---7---7---|--7----7---7---7---|
|--5-5-5-5-5-5-5-5-|--5--5-5-5-5-5-5-5-|
|------------------|-------------------|


  1.
  E5              F#sus2/C#
   W              +W
|-^0------------|-(0)---------------------||
|-^0------------|-(0)--------------------o||
|-^9------------|-(9)---------------------||
|-^9------------|-(9)---------------------||
|-^7------------|-(7)--------------------o||
|-^0------------|-(0)---------------------||
|
|                        PM   PM
|  Q  Q  +H        E   E E  E E  E  Q
|-----0--(0)----|--9---9----9----9--9\----||
|-----0--(0)----|--9---9----9----9--9\---o||
|-----9--(9)----|-11--11---11---11-11\----||
|-----9--(9)----|-11--11---11---11-11\----||
|---------------|------------------------o||
|--0------------|--------0----0-----------||


  2.
  E5                  F#sus2/C#
   W              +W
|-^0------------|-(0)----------------------|
|-^0------------|-(0)----------------------|
|-^9------------|-(9)----------------------|
|-^9------------|-(9)----------------------|
|-^7------------|-(7)----------------------|
|-^0------------|-(0)----------------------|
|
|                           PM
|  Q  Q  +H       +E   E  E E  e S  S E  E
|-----0--(0)----|-(0)--9--9----9----9----9-|
|-----0--(0)----|-(0)--9--9----9----9----9-|
|-----9--(9)----|-(9)-11-11---11---11---11-|
|-----9--(9)----|-(9)-11-11---11---11---11-|
|---------------|--------------------------|
|--0------------|-----------0--------------|


  F#5  E5   F#5  E5   G5    F#5  E5   F#5  E5   G5
 7/4
  Gtr I
  Q.   Q.   Q.   Q.   E E   Q.   Q.   Q.   Q.   S S E
|-------------------------|---------------------------||
|---------------------3-3-|---------------------3-3-3-||
|---------------------0-0-|---------------------0-0-0-||
|-4----2----4----2----0-0-|-4----2----4----2----0-0-0-||
|-4----2----4----2--------|-4----2----4----2----------||
|-2----0----2----0----3-3-|-2----0----2----0----3-3-3-||


 Break
  N.C.(F#m)
 14/8
  Gtr III
  E E E E E E E E E E E E E E   E E E E E E E E E E E E E E
|-----------------------------|------------------------------|
|-----7-----7-----7-------7---|-----7-----7-----7-------7----|
|---6-----6-----6---6---6---6-|---6-----6-----6---6---6---6--|
|-4-----------9-------7-------|-4-----------9-------7--------|
|-------7---------------------|-------7----------------------|
|-----------------------------|------------------------------|


                            F#5      E5     Gsus2
 12/8                      4/4
                            Gtr I
  E E E E E E E E E E E E   H    +E  Q.     W
|-------------------------|---------------|-3----||
|-----5-----7-----7-------|---------------|-3----||
|---4-----6-----6---6---4-|---------------|-2----||
|-2-----4-----6-------2---|-4----(4)-2----|-0----||
|-------------------------|-4----(4)-2----|------||
|-------------------------|-2----(2)-0----|-3----||


 Interlude
  F#5   Emadd9                            F#7add11
  Gtr II
                  ~~~~~~~~~~~~~~~
  E E E E +E  E E E   +H     +E  E +Q     E E E E E E E E   E E E E E E Q
|-------------------|------------------|-------2-------0-|-----------------|
|-------------------|------------------|---------0-------|-0-----2---------|
|-----------------0-|-(0)---(0)--------|-----3-----3-----|---3-----3-------|
|-----4---------4---|------------------|---4---------4---|-----4-----4-----|
|---4---------2-----|------------------|-4---------------|-------------4---|
|-2-----0-(0)-------|-----------3-(3)--|-----------------|-----------------|


        Badd11                  A         C#m7
  Gtr II
  Q.    E +H       +W           Q.   E Q  Q    +W
|-0-----0-(0)----|-(0)--------|-0----0----0--|-(0)----||
|-0-----0-(0)----|-(0)--------|-5----4----0--|-(0)----||
|-3-----8-(8)----|-(8)--------|-6----6----6--|-(6)----||
|-4-----9-(9)----|-(9)--------|-7----7----6--|-(6)----||
|-4-----9-(9)----|-(9)--------|-0----0----4--|-(4)----||
|-2-----7-(7)----|-(7)--------|--------------|--------||
|
| Gtr I
| Q   E E +H       +W           Q.   E Q  Q    +W
|----------------|------------|--------------|--------||
|----------------|------------|--------------|--------||
|----------------|------------|-----------6--|-(6)----||
|-4-----9-(9)----|-(9)--------|-7----7----6--|-(6)----||
|-4-----9-(9)----|-(9)--------|-7----7----4--|-(4)----||
|-2-----7-(7)----|-(7)--------|-5----5-------|--------||


  Bsus4add9 C#m7  Asus2     Eadd9/G#  Asus2 Badd4/F#
 6/4
  Gtr II
  E E E E E E E E E E E E   E E E E E E E E E E E E
|-------2-----------------|-------2---------------0-|
|---------2-------------5-|---------5-----------4---|
|-----4---------4-----4---|-----4---------4---4-----|
|---2---------2-----2-----|---2---------2-----------|
|-2---------4-----0-------|-----------0-------------|
|-------------------------|-4---------------2-------|


  Eadd9                  E7sus4                 Am9/E
 2/4       4/4          2/4       4/4          2/4
  E E E E   +W           E E E E   +W           E E E E
|-------0-|-(0)--------|-------0-|-(0)--------|-------0-|
|-------0-|-(0)--------|-------0-|-(0)--------|-------0-|
|-------1-|-(1)--------|-------4-|-(4)--------|-------2-|
|-----4---|------------|-----7---|------------|-----5---|
|---2-----|------------|---5-----|------------|---3-----|
|-0-------|------------|-0-------|------------|-0-------|


               Eadd6                  Eadd9
 4/4          2/4       4/4          2/4          4/4
                                                                   >
  +W           E E E E   +W           E  E  E  E    +W            +W
|-(0)--------|-------0-|-(0)--------|----------0-|--(0)--------|--(0)----||
|-(0)--------|-------0-|-(0)--------|----------0-|--(0)--------|--(0)----||
|-(2)--------|-------6-|-(6)--------|---------13-|-(13)--------|-(13)----||
|------------|-----9---|------------|------16----|-------------|---------||
|------------|---7-----|------------|---14-------|-------------|---------||
|------------|-0-------|------------|-0----------|-------------|---------||


 Guitar Solo
  Q=128
  N.C.
  Gtr IV
         |-3--|     |3|        |--3--|   |-3-|   |-3--|
  Q.   E Q Q  Q   a Q H  +Q   +E  E  E   Q Q Q a Q  Q Q
|--------9-7-10-|-8s9------------------|-7-7-7-6s7------|
|------7--------|-----7--(7)--(7)-9-10-|-----------10-9-|
|---------------|----------------------|----------------|
|---------------|----------------------|----------------|
|---------------|----------------------|----------------|
|---------------|----------------------|----------------|


                               |-3--|             |-3--|   |-3-|   |-3-|
  a Q  +Q    H      Q.   E Q  +E  E E   E E H    +E  E E   Q Q Q a Q Q Q
|-7s9--(9)\-------|--------7--(7)-5-4-|--------------4-5-|-7-7-7-6s7-5-4--|
|-----------------|------5------------|-7-5-5----(5)-----|----------------|
|-----------------|-------------------|------------------|----------------|
|-----------------|-------------------|------------------|----------------|
|-----------------|-------------------|------------------|----------------|
|-----------------|-------------------|------------------|----------------|


                    |-3-|   |3|       |-3-|   |-3-|       |-3--|
  W          Q.   E Q Q Q   Q H  +Q   E E E   Q Q Q a Q  +E  E E
|----------|--------5-4-2-|-------------2-4-|-5-5-5-4s5--(5)-4-2--|
|-7--------|------3-------|-5-3--(3)--5-----|---------------------|
|----------|--------------|-----------------|---------------------|
|----------|--------------|-----------------|---------------------|
|----------|--------------|-----------------|---------------------|
|----------|--------------|-----------------|---------------------|


                    |-3-|
  W          Q.   E Q Q Q   H    +E  E E E   +Q.   S  S  H
|----------|--------4p2---|----------------|------------------|
|-5--------|------------5-|------------5-7-|-(7)---9h10-12----|
|----------|------4-------|-4----(4)-4-----|------------------|
|----------|--------------|----------------|------------------|
|----------|--------------|----------------|------------------|
|----------|--------------|----------------|------------------|


                     |-3--|  |-3--|  |-3--|
   +E   +T   T  T T  E  E E  E  E E  E  E E
|-----------------9-12-10p9-----------------|
|-(12)-(12)----10-----------12-10-9-12-10-9-|
|-----------11------------------------------|
|-------------------------------------------|
|-------------------------------------------|
|-------------------------------------------|
|
|   W
|-------------------------------------------|
|-------------------------------------------|
|-------------------------------------------|
|-------------------------------------------|
|-------------------------------------------|
|-------------------------------------------|


  F#sus4/C#    F#m/C#  F#7sus4/CF#sus2/C#      F#7sus4/C# E5/B  Bsus4add9
   W                     W                      W
|----------------------|---------------------|----------------------|
|----------------------|---------------------|----------------------|
|-11-------------------|---------------------|----------------------|
|----------------------|---------------------|----------------------|
|----------------------|---------------------|----------------------|
|----------------------|---------------------|----------------------|
|
| Gtr II
|  E E  E  E E  E E  E   E  E E  E  E E  E E    E E  E  E E E E E
|-------------------12-|---12----9--9----9---|--------------0---9---|
|-12---12-12---10---12-|---12----9--9----9---|-12---12-12---0---0---|
|-11---11-11---11---11-|---11---11-11---11---|-11---11-11---9---9---|
|-11---11-11---11---11-|---11---11-11---11---|-11---11-11---9---9---|
|----------------------|---------------------|----------------------|
|----------------------|---------------------|----------------------|


               Bsus2/C#   B7sus2/C#
  Gtr II
   ~~~
  +W            E E  E  E E  E E  E
|-(9)--------|-------------------12-|
|-(0)--------|-12---12-12---10---12-|
|-(9)--------|-11---11-11---11---11-|
|-(9)--------|-11---11-11---11---11-|
|------------|----------------------|
|------------|----------------------|


  Bsus2add11F#sus2/C#   B7sus2/C#    E5/B    Bsus4add9
                                              ~~~
  E  E E  E  E E  E E    E E  E  E E E E E   +W
|---12----9--9----9---|--------------0---9-|-(9)----|
|---12----9--9----9---|-12---12-12---0---0-|-(0)----|
|---11---11-11---11---|-11---11-11---9---9-|-(9)----|
|---11---11-11---11---|-11---11-11---9---9-|-(9)----|
|---------------------|--------------------|--------|
|---------------------|--------------------|--------|


  N.C.
  Gtr I
       PM         PM      PM-|          PM-|        PM-|           PM      PM
   E   E   E  E   e   E   S    S  E     S    S  E   S    S  E  E   E   E   E
|--------------------------------|-----------------------------------------|
|-12------12-10------10--------9-|-----------9-----------9-----------------|
|----(11)-------(11)-(11)-(11)---|-(11)-(11)---(11)-(11)---11------11------|
|--------------------------------|----------------------------(11)----(11)-|
|--------------------------------|-----------------------------------------|
|--------------------------------|-----------------------------------------|


       PM-|            PM      PM
                                                    |-3--|
   E   S    S   E  E   E   E   E  E    E  E E  E  E S  S S  E  E
|-----------------------------------|----12------------------------|
|-12-----------12-10------10------9h|=10----9----10-9h10p9---------|
|----(11)-(11)-------(11)----(11)---|---------11-----------11------|
|-----------------------------------|-------------------------11---|
|-----------------------------------|------------------------------|
|-----------------------------------|------------------------------|


  F#sus4/C#    F#m/C#  F#7sus4/CF#sus2/C#
   E E  E  E E  E E  E   E  E E  E  E E  E E
|-------------------12-|---12----9--9----9---|
|-12---12-12---10---12-|---12----9--9----9---|
|-11---11-11---11---11-|---11---11-11---11---|
|-11---11-11---11---11-|---11---11-11---11---|
|----------------------|---------------------|
|----------------------|---------------------|


  F#/C#     E5/B        F#5/C#        E5/B  Bsus4add9
    Q.    a E  E   E  a  Q     +E   a E E S S Q.   +E
|-------------(0)-----------|-----------0-9-9-9----------||
|-(11)------------(0)-------|-------------0-0-0----(0)---||
|--11----11s9---------9s11--|-(11)-11s9---9-9-9----------||
|--11----11s9---------9s11--|-(11)-11s9---9-9-9----(9)\--||
|---------------------------|----------------------------||
|---------------------------|----------------------------||


    Dadd2/F#                Eadd2/G#
    PM                       PM|                       PM|
    E E E E E E E E  4x      S  S S S S S S S S S S S  S  S S S  4x
||--------5----------||-||----------------7-7--------------------||
||o-----5---5-------o||-||o-----------7-7-----7-7---------------o||
||----7-------7---7--||-||--------9-9-------------9-9-------9-9--||
||-------------------||-||---------------------------------------||
||o-9-----------9---o||-||o-11-11---------------------11-11-----o||
||-------------------||-||---------------------------------------||


    Bsus2add4/F#            Esus2             E5
    Gtrs I, II
    E E E E E E E E  4x     E E E E E E E E   E E E E E E E E
||--------0----------||-||--------7---------|-------0----------||
||o---------0-------o||-||o---------7-------|---------0-------o||
||------6-----6---6--||-||------9-----9---9-|-----9-----9---9--||
||----9---------9----||-||----9---------9---|---9---------9----||
||o-9---------------o||-||o-7---------------|-7---------------o||
||-------------------||-||------------------|------------------||


  Dsus2                         N.C.
 6/4
  Gtr I
  E S S E E +E  E E E E E E E    E S S E  E +E    S  S  E  E  E  E  E  E
|---------5-(5)---5-----------|------------------------------------------|
|---------5-(5)---5-----------|------------------------------------------|
|-7-7-7-7-------7---7-7-7-7-7-|-/7-7-7-7-/9-(9)-/11-11-11-11-11-11-11-11-|
|-7-7-7-7-------7---7-7-7-7-7-|------------------------------------------|
|-5-5-5-5-------5---5-5-5-5-5-|-/5-5-5-5-/7-(7)--/9--9--9--9--9--9--9--9-|
|-----------------------------|------------------------------------------|


 4/4
    E  S  S  E   E  +E   S  S  E  E
|------------------------------------|
|------------------------------------|
|-/11-11-11-11-/13-(13)-14-14-14-16\-|
|------------------------------------|
|--/9--9--9--9-/11-(11)-12-12-12-14\-|
|------------------------------------|


  F#sus2
  Gtrs I, II
   Q.    E  +Q    Q     +E   E  +Q    Q   E  E
|--9-----9--(9)---9--|--(9)--9--(9)---9---9--9-|
|--9-----9--(9)---9--|--(9)--9--(9)---9---9--9-|
|-11----11-(11)--11--|-(11)-11-(11)--11--11-11-|
|-11----11-(11)--11--|-(11)-11-(11)--11--11-11-|
|--9-----9--(9)---9--|--(9)--9--(9)---9---9--9-|
|--------------------|-------------------------|


  Gtr V
   |------6-------|  |------6-------|   |-------6-------|  |------6-------|
   S   S  S S  S  S  S  S  S  S  S  S   S   S  S  S  S  S  S  S  S  S  S  S
|--------------------------------------------------------------------------|
|--------------------------------------------------------------------------|
|-----------------------------------------------------------------11-13-14-|
|-----------9-11-12---------11-12-14------------11-12-14-11-12-14----------|
|--9--11-12--------11-12-14-----------11--12-14----------------------------|
|--------------------------------------------------------------------------|
|
| Gtrs I, II
|  Q.                         E        +Q                  Q
|--9-------------------------9--------(9)-----------------9----------------|
|--9-------------------------9--------(9)-----------------9----------------|
|-11------------------------11-------(11)----------------11----------------|
|-11------------------------11-------(11)----------------11----------------|
|--9-------------------------9--------(9)-----------------9----------------|
|--------------------------------------------------------------------------|


   |--3--|  |--3--|  |--3--|  |--3--|
   E  E  E  E  E  E  E  E  E  E  E  E
|----------------------------12-14-16--||
|-------------------12-14-15-----------||
|----------11-13-14--------------------||
|-11-12-14-----------------------------||
|--------------------------------------||
|--------------------------------------||
|
|  W
|--9-----------------------------------||
|--9-----------------------------------||
|-11-----------------------------------||
|-11-----------------------------------||
|--9-----------------------------------||
|--------------------------------------||


 Guitar Solo
  E7sus4   E                      D5/A                D/A
  Gtr V
   ~~~~~~~~~~~~~~~~~~~~~~~~~                           ~~~~~
   H.       Q     +H      H        H         +E   +E   Q
|-17-------16--|-(16)-----------|-16b17=====(16)r(16)-16---|
|--------------|---------17-----|--------------------------|
|--------------|----------------|--------------------------|
|--------------|----------------|--------------------------|
|--------------|----------------|--------------------------|
|--------------|----------------|--------------------------|
|
| Gtr I
|  H.       Q     +H      Q  Q     H.                  E E
|-10-----------|----------------|--------------------------|
|-10--------9--|--(9)-----9--9--|----------------------7-7-|
|--9--------9--|--(9)-----9--9--|----------------------7-7-|
|--9--------9--|--(9)-----9--9--|--7-------------------7-7-|
|--7--------7--|--(7)-----7--7--|--5-----------------------|
|--0-----------|----------------|--5-----------------------|


 ~~~~~~
    |---3----|  |--3--|  |--3--|  |--3--|
   +E   +E   E  E  E  E  E  E  E  E  E  E
|-(16)-(16)-------------------------14-16--|
|-----------------------------17-15--------|
|--------------------------14--------------|
|-----------------16----16-----------------|
|--------------------17--------------------|
|-----------12s14--------------------------|
|
|   ~~~~
|  +W
|------------------------------------------|
|--(7)-------------------------------------|
|--(7)-------------------------------------|
|--(7)-------------------------------------|
|------------------------------------------|
|------------------------------------------|


  Esus4    E
   ~~~~~~~~~~~~~~~~~~~~~~~~~~~~~~~~~
   H.       Q     +Q    Q   +E   Q.
|-17-------16--|-(16)--17--(17)-19----|
|--------------|----------------------|
|--------------|----------------------|
|--------------|----------------------|
|--------------|----------------------|
|--------------|----------------------|
|
|  H.       Q     +H         H
|--------------|----------------------|
|-10--------9--|--(9)--------9--------|
|--9--------9--|--(9)--------9--------|
|--9--------9--|--(9)--------9--------|
|--7--------7--|--(7)--------7--------|
|--0-----------|----------------------|


  D5/A                 D/A
                                    ~~~~~
              |--3---|
   H         +E   E  E  Q          +H       H
|-19b21=====(19)r19p17-19b21====|=(19)r-----------|
|-------------------------------|-----------------|
|-------------------------------|-----------------|
|-------------------------------|-----------------|
|-------------------------------|----------19\----|
|-------------------------------|-----------------|
|
|                             ~~~~~~~~~~
|  H.                   E     E    +H       H
|-------------------------------|-----------------|
|-----------------------7-----7-|--(7)------------|
|-----------------------7-----7-|--(7)------------|
|--7--------------------7-----7-|--(7)------x\----|
|--5----------------------------|-----------x\----|
|--5----------------------------|-----------------|


  B5              Bm
                         ~~~
  H       +E  +E  Q     +H     Q  Q
|---------------------|--------------|
|---------------------|--------------|
|---------------------|--------------|
|-4b6=====(4)r(4)-4---|-(4)----6h=7--|
|---------------------|--------------|
|---------------------|--------------|
|
| H.              E E   +W
|-----------------2-2-|-(2)----------|
|-----------------3-3-|-(3)----------|
|-4---------------4-4-|-(4)----------|
|-4---------------4-4-|-(4)----------|
|-2---------------2-2-|-(2)----------|
|---------------------|--------------|


  C#5
             \0.5/  \0.5/
                                    ~~~~~~~~~~
         |-3-|      |------3------|
  Q     +E  +Q     +E     +S  +S  E Q     +H     +Q.   +E
|---------------------------------------|--------------------|
|---------------------------------------|--------------------|
|---------------------------------------|--------------------|
|-6b7===(6)-(6)----(6)----(6)r(6)p4-6---|-(6)----(6)---(6)/--|
|---------------------------------------|--------------------|
|---------------------------------------|--------------------|
|
| H.                                E E   +W
|---------------------------------------|--------------------|
|---------------------------------------|--------------------|
|-6---------------------------------6-6-|-(6)----------------|
|-6---------------------------------6-6-|-(6)----------------|
|-4---------------------------------4-4-|-(4)----------------|
|---------------------------------------|--------------------|


  D5
                       ~~~~~~~~~~~
                                           |--3--|
   H         +E   +E   Q      +Q.    +E    Q  Q  Q
|--------------------------|--------------17-19-21--|
|-10b12=====(10)r(10)-10---|-(10)---(10)/-----------|
|--------------------------|------------------------|
|--------------------------|------------------------|
|--------------------------|------------------------|
|--------------------------|------------------------|
|
|  H.                  E E    +H           H
|--------------------------|------------------------|
|--------------------------|------------------------|
|--7-------------------7-7-|--(7)----------7--------|
|--7-------------------7-7-|--(7)----------7--------|
|--5-------------------5-5-|--(5)----------5--------|
|--------------------------|------------------------|


  Q.=128
  E5
 12/8
   H.          +Q.    +E   +E   E    W.
|-19b21=======(19)---(19)r(19)p17-|-19-----|
|---------------------------------|--------|
|---------------------------------|--------|
|---------------------------------|--------|
|---------------------------------|--------|
|---------------------------------|--------|
|
|  W.                               +W.
|---------------------------------|--------|
|---------------------------------|--------|
|---------------------------------|--------|
|--2------------------------------|-(2)----|
|--2------------------------------|-(2)----|
|--0------------------------------|-(0)----|


  D5/A                             E5
  Gtr I
  W.              +W.              W.
|---------------|----------------|---------------|
|-3-------------|-(3)------------|---------------|
|-2-------------|-(2)------------|---------------|
|-0-------------|-(0)------------|-2-------------|
|-0-------------|-(0)------------|-2-------------|
|---------------|----------------|-0-------------|


                   D5/A
  +W.              W.              +W.
|----------------|---------------|--------||
|----------------|-3-------------|-(3)----||
|----------------|-2-------------|-(2)----||
|-(2)------------|-0-------------|-(0)----||
|-(2)------------|-0-------------|-(0)----||
|-(0)------------|---------------|--------||


    N.C.(Em)
                                 8/8
    E E E +E  E E E E E E E E  4x E E E +E  E E E E
||-----------------------------||-------------------|
||o---------------------------o||-------------------|
||-----------------------------||-------------------|
||------------------4-5-4------||-----------------4-|
||o-7---7-(7)---5-7-------5---o||-7---7-(7)---5-7---|
||------------7-------------7--||-----------7-------|


 14/8
  E E E +E  E E E E E E E E E E
|---------------------------------|
|---------------------------------|
|---------------------7-----7-----|
|-----------------4-5---5-4---4---|
|-7---7-(7)---5-7-----------------|
|-----------7---------------------|


 12/8                        6/8           14/8
  E E E +E  E E E E E E E E   E E E E E E   E E E E E E E E E E E E E E
|---------------------------|-------------|------------------------------|
|---------------------------|-------------|------------------------------|
|---------------------------|-------------|------------------------------|
|-----------------4-5---4---|-------------|---------------------7-4------|
|-7---7-(7)---5-7-----------|-7-5-------5-|-7---7-5-------7-4-5-----5----|
|-----------7---------7---7-|-----7-5-7---|---------7-3-5-------------7--|


 5/8         9/8                   4/8       9/8
                                               ~~~
  E E E E E   E E E E E E E S S E   E E E E    Q.   H.
|-----------|---------------------|---------|-------------||
|-----------|---------------------|---------|-------------||
|-----------|-------------7-7-7-7-|-4-------|-------------||
|-----------|-5-5-5-4-4-4---------|---5-----|-------------||
|-7-5-7-5---|---------------------|-----7-5-|-[7]---------||
|---------7-|---------------------|---------|-------------||


   5/8       4/8    6/8        4/8
    Wx3       W      Wx3        W
||----------|------|----------|-------||
||o---------|------|----------|------o||
||----------|------|----------|-------||
||----------|------|----------|-------||
||o---------|------|----------|------o||
||----------|------|----------|-------||


 5/8                                 4/8
  Gtr I
  PM----------------------------------------|
  E E E E E   E E E E E   E E E E E   E E E E
|-----------|-----------|-----------|---------|
|-----------|-----------|-----------|---------|
|---9-----7-|---------9-|-----7-----|-----9---|
|-----7-9---|-9-7-9-----|-7-9---9-7-|-9-----7-|
|-7---------|-------7---|-----------|---7-----|
|-----------|-----------|-----------|---------|


 6/8                                       4/8
  PM----------------------------------------------|
  E E E E E E   E E E E E E   E E E E E E   E E E E
|-------------|-------------|-------------|---------|
|-------------|-------------|-------------|---------|
|---7---------|-9-----7-----|-----9-----7-|---------|
|-9---9-7-9---|---7-9---9-7-|-9-----7-9---|-9-7-9---|
|-----------7-|-------------|---7---------|-------7-|
|-------------|-------------|-------------|---------|


 5/8                                 4/8
  PM----------------------------------------|
  E E E E E   E E E E E   E E E E E   E E E E
|-----------|-----------|-----------|---------|
|-----------|-----------|-----------|---------|
|-----------|-----------|-----------|---------|
|-----------|-----------|-----------|---------|
|---7-----5-|---7-----5-|---7-----5-|---7-----|
|-0---5-7---|-0---5-7---|-0---5-7---|-0---5-7-|


 6/8
  E E E E E E   E E E E E E   E E E E E E   E E E E E  E
|-------------|-------------|-------------|--------------||
|-------------|-------------|-------------|-------7-8-10-||
|---5-----5---|---5-----5---|-------------|---7-9--------||
|-----5-7---5-|-----5-7---5-|-7-------5-7s|=9------------||
|-------------|-------------|---0-5-7-----|--------------||
|-8-----------|-8-----------|-------------|--------------||


 Guitar Solo
 12/8
       Gtr V
                                      ~
   Q   E E E E E E E   +E  E E   Q  a E +Q   E a E E E +Q.
|-12\--------------------------|-----------------------------|
|-12\----------7---7b8r(7)-----|-----------------------------|
|----------7-9-------------9-7-|-9---------------------------|
|------7s9---------------------|----7h9-(9)----7s8s7p5-(5)---|
|------------------------------|-----------------------------|
|------------------------------|-----------------------------|


                       ~~~~~~
  +Q   E E E E a E E a E +E  E  E   Q.   +E   E  E  Q.   E  E  E
|---------------------------------|------------------------------|
|--------------6s7---6s7-(7)-8h10-|-8----(8)-10s12-10------12-13-|
|----------7-9--------------------|------------------------------|
|-(5)--7s9------------------------|------------------------------|
|---------------------------------|------------------------------|
|---------------------------------|------------------------------|


   S  S  S  S  S  S  E  E  E  E E  E     +E   E  E
|-15-15-15-15-15-15-15-14-12-14---14b15r(14)-12----|
|-----------------------------------------------15-|
|--------------------------------------------------|
|--------------------------------------------------|
|--------------------------------------------------|
|--------------------------------------------------|


                                    ~~~~~~~~~    ~~
                                                           |-3-|
   E  E E  E   E  E E E   E E E E   Q.   +E  E E Q.   +Q   S S S
|-12------10----------------------|----------------------------7--||
|----12s8----/12------8-----------|----------7-8-7----(7)----8----||
|----------------11s7---/11-----7s|=9----(9)---------------9------||
|---------------------------9s5---|-------------------------------||
|---------------------------------|-------------------------------||
|---------------------------------|-------------------------------||


 5/8                                                  4/8
  Gtr V
                                       >
   ~~~~~~~~~~~~~~~~~~~~~~~~~~~~~~~~~~~~~~~~~~~~~
   Q    +Q.         +Q    +Q.         +Q    +Q.         H
|-12---(12)------|-(12)--(12)------|-(12)--(12)------|------------|
|----------------|-----------------|-----------------|------------|
|----------------|-----------------|-----------------|------------|
|----------------|-----------------|-----------------|------------|
|----------------|-----------------|-----------------|------------|
|----------------|-----------------|-----------------|------------|
|
| Gtr I
|  E E   E   E E     E E   E   E E     E E   E   E E    E E E  E
|----------------|-----------------|-----------------|-10p0-8-----|
|-12p0--10--12p0-|--12p0--10--12p0-|--12p0--10--12p0-|--------10s=|
|----------------|-----------------|-----------------|------------|
|----------------|-----------------|-----------------|------------|
|----------------|-----------------|-----------------|------------|
|----------------|-----------------|-----------------|------------|


 6/8                                         4/8
  Gtr I
   E E E E E E    E E E E E E   E E E E E E   E E E E
|------5-7-----|------5-7-----|-------------|---------|
|-12p0-----5p0-|-12p0-----5p0-|-8p0-7-8p0-7-|-5p0-----|
|--------------|--------------|-------------|-----7---|
|--------------|--------------|-------------|-------7-|
|--------------|--------------|-------------|---------|
|--------------|--------------|-------------|---------|


 5/8                                 4/8
  E E E E E   E E E E E   E E E E E   E E E E
|-----------|-----------|-----------|-7p0-5----|
|-8p0-7-8p0-|-8p0-7-8p0-|-8p0-7-8p0-|-------7s=|
|-----------|-----------|-----------|----------|
|-----------|-----------|-----------|----------|
|-----------|-----------|-----------|----------|
|-----------|-----------|-----------|----------|


 6/8
                                                                ~
  E E E E   E E   E E E E   E E    E E  E  E  E  E   E  E  E  E Q
|---------------|---------------|------------------|---------------||
|-8p0-7-8-/12p0-|-8p0-7-8-/12p0-|-12p0-10-12----10s|=8-------------||
|---------------|---------------|------------11----|---11-11-11-9--||
|---------------|---------------|------------------|---------------||
|---------------|---------------|------------------|---------------||
|---------------|---------------|------------------|---------------||


 Keyboard Solo
  Am7     Bm7           Em7     Csus2add6  Am7     Bm7           Em7     Esus2/B
 12/8
  H.      Q.   +Q   E   H.       H.        H.      Q.   +Q   E   H.      H.
|---------------------|-7------------|---------------------|-7-------7-----|
|-5-------7----(7)----|-8------------|-5-------7----(7)----|-8-------7-----|
|-5-------7----(7)----|-7--------7---|-5-------7----(7)----|-7-------9-----|
|-5-------7----(7)----|-9--------7---|-5-------7----(7)----|-9-------9-----|
|-7-------9----(9)----|-7-------10---|-7-------9----(9)----|-7-------7-----|
|-5-------7----(7)--0-|----------8---|-5-------7----(7)--0-|---------7-----|


  Am7     Bm7           Em7     Csus2add6  Am7     Bm7
  H.      Q.   +Q   E   H.       H.        H.      H.
|---------------------|-7----------------|---------------||
|-5-------7----(7)----|-8----------------|-5-------7-----||
|-5-------7----(7)----|-7--------7-------|-5-------7-----||
|-5-------7----(7)----|-9--------7-------|-5-------7-----||
|-7-------9----(9)----|-7-------10-------|-7-------9-----||
|-5-------7----(7)--0-|----------8-------|-5-------7-----||


  E5
                              9/8
  Gtr V
   ~~~~~~~~~    ~~~~~~~~~       ~~~~~~~~~
   Q.   +E  E E Q.   +E  E E    Q.   +E  E E  E  E E
|----------------------------|-----------------------|
|----------------------------|-----------------------|
|---------------7----(7)-4---|--4----(4)-----------4-|
|-----------4-5------------7-|-----------5-4--5--7---|
|-/7----(7)------------------|-----------------------|
|----------------------------|-----------------------|
|
| Gtr I
|  W.                          +H.           +Q.
|----------------------------|-----------------------|
|----------------------------|-----------------------|
|----------------------------|-----------------------|
|--2-------------------------|-(2)-----------(2)-----|
|--2-------------------------|-(2)-----------(2)-----|
|--0-------------------------|-(0)-----------(0)-----|


  C5                                 G5               A5    F#5
 12/8
  ~~
                                               |-3--|
  Q   E +E  E E a  Q   E +E  E  E    E  E  E E E  E E Q   E +E  E E
|----------------------------------|---------------------------------|
|-------------------------------7--|-8----10---8h10p8s7---------8-7--|
|-5---------7---7s=9---------9-----|---------------------------------|
|-----5-(5)------------5-(5)-------|----------------------9-(9)------|
|----------------------------------|---------------------------------|
|----------------------------------|---------------------------------|
|
| H.              +Q.    +Q     E    H.               Q.     Q.
|----------------------------------|---------------------------------|
|----------------------------------|---------------------------------|
|-5---------------(5)----(5)-------|------------------2--------------|
|-5---------------(5)----(5)-------|-5----------------2--------------|
|-3---------------(3)----(3)---(0)-|-5----------------0------4-------|
|----------------------------------|-3-----------------------2-------|


  E5
                                 9/8
                                         \1/
  Q.   +E  E E  Q.    +E   E  E    Q    +E    +E   E  E  E   E  E
|--------------10----(10)-------|---------------------------------|
|----------7-8------------12-10-|-12---(12)--(12)--------------12-|
|-9----(9)----------------------|-----------------12-11-12--14----|
|-------------------------------|---------------------------------|
|-------------------------------|---------------------------------|
|-------------------------------|---------------------------------|
|
| W.                              +H.                   +Q.
|-------------------------------|---------------------------------|
|-------------------------------|---------------------------------|
|-------------------------------|---------------------------------|
|-2-----------------------------|-(2)-------------------(2)-------|
|-2-----------------------------|-(2)-------------------(2)-------|
|-0-----------------------------|-(0)-------------------(0)-------|


  C5                                                G5                        A5    F#5
 12/8
                                                                               ~~~
   Q    E  +E   E E  E      +E   E  +E   E     E     Q    E      +E   +Q       H.
|-----------------------------14--|-15---17b19==(17)r(17)b19--17----------||
|-13----15---15pb17r(15)---15b17--|---------------------------------------||
|------12-(12)--12-(12)-----------|---------------------------------------||
|---------------------------------|---------------------------------------||
|---------------------------------|---------------------------------------||
|---------------------------------|---------------------------------------||
|
|  H.               +Q.             +Q         E     H.                        Q.   Q.
|-------------------------------------------------|-----------------------||
|-------------------------------------------------|-----------------------||
|--5----------------(5)-------------(5)-----------|------------2----------||
|--5----------------(5)-------------(5)-----------|--5---------2----------||
|--3----------------(3)-------------(3)-------(0)-|--5---------0----4-----||
|-------------------------------------------------|--3--------------2-----||


 Chorus
  A5      Asus2     D/A
  Gtr I
                    ~~~~~~~~~~~~~~~~~~ PM
  H.      H.        H.      +Q.   +Q   E
|---------0-------|----------------------|
|---------0-------|-7-------(7)---(7)----|
|-2-------2-------|-7-------(7)---(7)----|
|-2-------2-------|-7-------(7)---(7)----|
|-0---------------|--------------------0-|
|-----------------|----------------------|


  D/F#                   Csus2G5/D
  H.      +Q.   +Q   E   Q  E +Q.   +H.
|----------------------|-------------------|
|----------------------|-------------------|
|-7-------(7)---(7)--7-|-7--7-(7)---(7)----|
|-4-------(4)---(4)----|-5--5-(5)---(5)----|
|----------------------|-3--5-(5)---(5)----|
|----------------------|-------------------|


  Csus2/G                 D/A
                          ~~~~~~~~~~~~~~~~~~
  H.      +Q.   +E  E E   H.      +Q.   +Q   +E
|-----------------------|-------------------------|
|-----------------------|-7-------(7)---(7)--(7)\-|
|-7-------(7)---(7)-7---|-7-------(7)---(7)--(7)\-|
|-5-------(5)---(5)-----|-7-------(7)---(7)--(7)\-|
|-3-------(3)---(3)-----|-------------------------|
|-3-------(3)---(3)---7-|-------------------------|


  E5                     D         G5/D    D
  H.      +Q.   +Q   E   Q.   +Q   E +Q.   Q.
|----------------------|-------------------------|
|----------------------|-------------------------|
|----------------------|-------------------------|
|-2-------(2)---(2)----|-4----(4)--5-(5)---4-----|
|-2-------(2)---(2)----|-5----(5)--5-(5)---5-----|
|-0-------(0)---(0)--0-|-------------------------|


  A5      Asus2     D/A                    D/F#
                    ~~~~~~~~~~~~~~~~~~ PM
  H.      H.        H.      +Q.   +Q   E   H.      +Q.   +Q   E
|---------0-------|----------------------|----------------------|
|---------0-------|-7-------(7)---(7)----|----------------------|
|-2-------2-------|-7-------(7)---(7)----|-7-------(7)---(7)--7-|
|-2-------2-------|-7-------(7)---(7)----|-4-------(4)---(4)----|
|-0---------------|--------------------0-|----------------------|
|-----------------|----------------------|----------------------|


  Csus2G5/D                 Csus2/G
  Q  E +Q.   +Q.   +Q   E   Q  E +Q.   +H.
|-------------------------|-------------------||
|-------------------------|-------------------||
|-7--7-(7)---(7)---(7)----|-7--7-(7)---(7)----||
|-5--5-(5)---(5)---(5)----|-5--5-(5)---(5)----||
|-3--5-(5)---(5)---(5)--3-|-3-----------------||
|-------------------------|-3-----------------||


                 Breakdown
  D5/A            E5
                                 9/8
  W.              W.              +H.      +Q.
|---------------|---------------|----------------|
|-3-------------|---------------|----------------|
|-2-------------|---------------|----------------|
|-0-------------|-2-------------|-(2)------(2)---|
|-0-------------|-2-------------|-(2)------(2)---|
|---------------|-0-------------|-(0)------(0)---|


 12/8
   >
  +W.              +H.      +Q.   Q.
|----------------|----------------------|
|----------------|----------------------|
|----------------|----------------------|
|-(2)------------|-(2)------(2)---------|
|-(2)------------|-(2)------(2)---------|
|-(0)------------|-(0)------(0)---------|


                9/8         12/8
  W              W           W              W
|--------------|-----------|--------------|------|
|--------------|-----------|--------------|------|
|--------------|-----------|--------------|------|

|--------------|-----------|--------------|------|
|--------------|-----------|--------------|------|
|--------------|-----------|--------------|------|


  (Em)
                       9/8
  Gtr II
           ~~~~~~~~~~~~~~~~~
  Q  E E E E +H.        +H.      +Q.
|---------------------|----------------|
|---------------------|----------------|
|----------0-(0)------|-(0)------(0)---|
|---------------------|----------------|
|------5h7------------|----------------|
|-0--0----------------|----------------|


  Csus2               (G5)
 12/8
                                   \0.5/     \0.5/
            ~~
  Q.   Q.   H.        Q.    Q.    +Q.       +Q.
|-------------------|---------------------------------|
|-------------------|---------------------------------|
|-----------7-------|------<5>---(<5>)-----(<5>)------|
|------5------------|------<5>---(<5>)-----(<5>)------|
|-3-----------------|---------------------------------|
|-------------------|-3-------------------------------|


  (Em)
                       9/8
           ~~~~~~~~~~~~~~~~~
  Q  E E E E +H.        +H.      +Q.
|---------------------|----------------|
|---------------------|----------------|
|----------0-(0)------|-(0)------(0)---|
|---------------------|----------------|
|------5h7------------|----------------|
|-0--0----------------|----------------|


  Csus2               G         A/E  N.C.
 12/8
            ~~
  Q.   Q.   H.        Q.   Q.   Q.   Q.
|-------------------|----------------------||
|-------------------|------0----2----------||
|-----------7-------|------0----2----------||
|------5------------|------0----2----------||
|-3-----------------|----------------------||
|-------------------|-3--------------2-----||


 Outro
  (Em)
  Gtr V
    E    E    E    E   E    E    E   E   E   E   E   E
|-<12>-<12>-<12>-<12>-----------------------------------|
|--------------------<12>-<12>-<12>-<7>-<7>-<7>---------|
|-----------------------------------------------<7>-<7>-|
|-------------------------------------------------------|
|-------------------------------------------------------|
|-------------------------------------------------------|
|
| Gtr II
|                                ~~~~
|   Q         E    E   E    E   +H.
|-------------------------------------------------------|
|-------------------------------------------------------|
|---------------------------0---(0)---------------------|
|-------------------------------------------------------|
|------------------5h==7--------------------------------|
|---0---------0-----------------------------------------|


 9/8
   E   E   E   E  E   E   E E E
|-------------------------------|
|----------------<7>-<7>-<7>0-0-|
|-<5>-<5>-<5>-<5>---------------|
|-------------------------------|
|-------------------------------|
|-------------------------------|
|
|  Q       E   E  E   E   E E E
|-------------------------------|
|-------------------------------|
|---------------------0-------0-|
|-------------------------------|
|--------------5h=7-------5h7---|
|--0-------0--------------------|


  Csus2
 12/8
    E    E    E    E    E    E    E   E   E   E   E   E
|-<12>-<12>-<12>-<12>------------------------------------|
|---------------------<12>-<12>-<12>-<7>-<7>-<7>---------|
|------------------------------------------------<7>-<7>-|
|--------------------------------------------------------|
|--------------------------------------------------------|
|--------------------------------------------------------|
|
|                                 ~~~~
|   Q.             Q.             H.
|--------------------------------------------------------|
|--------------------------------------------------------|
|---------------------------------7----------------------|
|------------------5-------------------------------------|
|---3----------------------------------------------------|
|--------------------------------------------------------|


  G                       A/E         N.C.
   E   E   E   E   E   E   E   E   E   E    E     E
|-----------------------------------------------------|
|-----------------<7>-<7>-<7>-------------------------|
|-<5>-<5>-<5>-<5>-------------<7>-<7>-<7>--<7>---<7>--|
|-----------------------------------------(<7>)-(<7>)-|
|-----------------------------------------------------|
|-----------------------------------------------------|
|
|  Q.          Q.          Q.          Q.
|-----------------------------------------------------|
|--------------0-----------2--------------------------|
|--------------0-----------2--------------------------|
|--------------0-----------2--------------------------|
|-----------------------------------------------------|
|--3-----------------------------------2--------------|


  (Em)
    E    E    E    E   E    E    E   E   E   E   E   E
|-<12>-<12>-<12>-<12>-----------------------------------|
|--------------------<12>-<12>-<12>-<7>-<7>-<7>---------|
|-----------------------------------------------<7>-<7>-|
|-------------------------------------------------------|
|-------------------------------------------------------|
|-------------------------------------------------------|
|
|                                ~~~~
|   Q         E    E   E    E   +H.
|-------------------------------------------------------|
|-------------------------------------------------------|
|---------------------------0---(0)---------------------|
|-------------------------------------------------------|
|------------------5h==7--------------------------------|
|---0---------0-----------------------------------------|


                         (D)
 9/8
   E   E   E   E  E   E   E E E
|-------------------------------|
|----------------<7>-<7>-<7>0-0-|
|-<5>-<5>-<5>-<5>---------------|
|-------------------------------|
|-------------------------------|
|-------------------------------|
|
|  Q       E   E  E   E   E E E
|-------------------------------|
|-------------------------------|
|--------------4p=0-------7---7-|
|--------------2------2---4p0---|
|-------------------------------|
|--0-------0--------------------|


  Csus2
 12/8
    E    E    E    E    E    E    E   E   E   E   E   E
|-<12>-<12>-<12>-<12>------------------------------------|
|---------------------<12>-<12>-<12>-<7>-<7>-<7>---------|
|------------------------------------------------<7>-<7>-|
|--------------------------------------------------------|
|--------------------------------------------------------|
|--------------------------------------------------------|
|
|                                 ~~~~
|   Q.             Q.             H.
|--------------------------------------------------------|
|--------------------------------------------------------|
|---------------------------------7----------------------|
|------------------5-------------------------------------|
|---3----------------------------------------------------|
|--------------------------------------------------------|


  G                       A/E         N.C.
   E   E   E   E   E   E   E   E   E   E    E     E
|-----------------------------------------------------|
|-----------------<7>-<7>-<7>-------------------------|
|-<5>-<5>-<5>-<5>-------------<7>-<7>-<7>--<7>---<7>--|
|-----------------------------------------(<7>)-(<7>)-|
|-----------------------------------------------------|
|-----------------------------------------------------|
|
|  Q.          Q.          Q.          Q.
|-----------------------------------------------------|
|--------------0-----------2--------------------------|
|--------------0-----------2--------------------------|
|--------------0-----------2--------------------------|
|-----------------------------------------------------|
|--3-----------------------------------2--------------|


    E5
    Gtr V
      E    E    E    E    E    E    E   E   E   E   E   E
||--<12>-<12>-<12>-<12>------------------------------------|
||o---------------------<12>-<12>-<12>-<7>-<7>-<7>---------|
||-------------------------------------------------<7>-<7>-|
||---------------------------------------------------------|
||o--------------------------------------------------------|
||---------------------------------------------------------|
|
|   Gtr I
|     W.
||---------------------------------------------------------|
||o--------------------------------------------------------|
||----9----------------------------------------------------|
||----9----------------------------------------------------|
||o---7----------------------------------------------------|
||----0----------------------------------------------------|


 9/8
   E   E   E   E   E   E   E  E E
|---------------------------------|
|-----------------<7>-<7>-<7>-0-0-|
|-<5>-<5>-<5>-<5>-----------------|
|---------------------------------|
|---------------------------------|
|---------------------------------|
|
| +H.                     +Q.
|---------------------------------|
|---------------------------------|
|-(9)---------------------(9)-----|
|-(9)---------------------(9)-----|
|-(7)---------------------(7)-----|
|-(0)---------------------(0)-----|


  C5
 12/8
    E    E    E    E    E    E    E   E   E   E   E   E
|-<12>-<12>-<12>-<12>------------------------------------|
|---------------------<12>-<12>-<12>-<7>-<7>-<7>---------|
|------------------------------------------------<7>-<7>-|
|--------------------------------------------------------|
|--------------------------------------------------------|
|--------------------------------------------------------|
|
|   H.                           +Q.         +Q       E
|--------------------------------------------------------|
|--------------------------------------------------------|
|---5----------------------------(5)---------(5)---------|
|---5----------------------------(5)---------(5)---------|
|---3----------------------------(3)---------(3)------0--|
|--------------------------------------------------------|


  G5                      A5
   E   E   E   E   E   E   E   E   E   E    E     E    6x
|------------------------------------------------------||
|-----------------<7>-<7>-<7>-------------------------o||
|-<5>-<5>-<5>-<5>-------------<7>-<7>-<7>--<7>---<7>---||
|-----------------------------------------(<7>)-(<7>)--||
|-----------------------------------------------------o||
|------------------------------------------------------||
|
|  H.                      Q.          Q.              6x
|------------------------------------------------------||
|--3--------------------------------------------------o||
|--0-----------------------2-----------2---------------||
|--0-----------------------2-----------2---------------||
|--------------------------0-----------0--------------o||
|--3---------------------------------------------------||
comments
print report bad tab
3 comments total.
+1 reply
Cthulhu_Calls wrote on January 22 2007, 07:41 am

how does this bit work?
E|-----------------------|
B|-19b-------------------|
G|---------------------6-|
D|---------xx4-4---6-----|
A|-4---7-----------------|
E|-----------------------|
is a squid playing it or something? how can u reach both of them at once?

0 reply
grim_necro_kvlt wrote on May 26 2007, 05:52 pm

use your index finger on your right hand to fret the 4, and with you right hand, use its index finger to get the 19 and pluck with your pinky and thumb.

0 reply
_RATM_ wrote on June 5 2007, 07:51 pm

where is the end to pull me under?there are much more difficult solos on this tab than the outro solo on that song,,,

I want to post or [tab]
guest
You may want to rate the tab now too:
select rating
Please do not post tabs as comments. Select "correction" instead!