Oops, an error
Loading. Please wait.

In The Presence Of Enemies Part 1 Tab

57,909 views 78 this week
9 commentsread comments
1 2 3 4 5
excellent!
x 14
Autoscroll
+/-
esc
set tempo
stop
Contributor
Difficulty
advanced
WARNING: You are trying to view
                                    content from Ultimate-Guitar.com
                                    in an unauthorized application,
                                    which is prohibited.

                                    Please use an official Ultimate
                                    Guitar Tabs application for iPhone,
                                    iPad or Android to access legitimate
                                    chords, guitar, bass, and drum tabs
                                    from Ultimate-Guitar.com database.

                                    Type "ultimate guitar tabs" in Apple
                                    App Store's or Android Market's
                                    search to find the application.
Dream Theater: In The Presence Of Enemies - Part I

Transcribed by: Andrew Zara (disturbedfreak0520@yahoo.com)

Date last modified: June 8, 2007

PLEASE DO NOT COPY THIS TAB TO ANOTHER SITE
WITHOUT AUTHORS' PERMISSION. THANK YOU.

Tuning: Standard (E,A,D,G,B,E)
        
Riff 1
E|-5-----------------------------------------------|
B|---6-8-5---6---5---------------------------------|
G|---------7---7---5---7-----5---------------------|
D|-------------------7---7-5---5-3-2---------------|
A|-----------------------------------5-----3-------|
E|-------------------------------------5-3---3-1-0-|

Riff 2
E|----------------------------------------------------------|
B|----------------------------------------------------------|
G|----------------------------------------------------------|
D|-0-0-0-7-0-5-0-7-0-10-9-0-5-0-7-0-14-10-0-12-0-7-0-10-9-0-|
A|----------------------------------------------------------|
E|----------------------------------------------------------|

E|--------------------------------------------------------|
B|--------------------------------------------------------|
G|--------------------------------------------------------|
D|-0-0-0-7-0-5-0-7-0-12-10-0-5-0-7-0-10-9-0-3-0-7-5-0-2-3-|
A|--------------------------------------------------------|
E|--------------------------------------------------------|

Riff 2a
E|--------------------------------------------------------------------|
B|--------------------------------------------------------------------|
G|--------------------------------------------------------------------|
D|-0-0-0-7-0-5-0-7-0-12-10-0-5-0-7-0-10-9-0-3-0-7-5-0-2-3-3-2-0-3-2---|
A|------------------------------------------------------------------3-|
E|--------------------------------------------------------------------|

Riff 3
E|-------------------(3)------------------------------------|
B|-------------------(3)------------------------------------|
G|--------------------0-------------------------------------|
D|-7------5-----------0------7------------------5----7----5-|
A|-5------3------3-----------5-------------3----3----5----3-|
E|---------------1----3-------------0------1----------------|

E|------------------------------------|
B|------------------------------------|
G|------0-----------------------------|
D|------0------7----------------------|
A|-3-----------5----------------------|
E|-1----3-------------0----1--3--5--6-|

Riff 4
E|---------------------------------------|
B|---------------------------------------|
G|---------------------------------------|
D|---------------------------------------|
A|---------------------------------------|
E|-5-3-5-6-5-3-6-5-3-5-3-5-6-5-3-0-1-3/6-|

E|-----------------------------------------|
B|-----------------------------------------|
G|-----------------------------------------|
D|-----------------------------------------|
A|-----------------------------------3-----|
E|-5-3-5-6-5-3-6-5-3-5-3-5-6-5-3-5-6---6-3-|

Riff 4a
E|-----------------------------------------------------------------------|
B|-----------------------------------------------------------------------|
G|-----------------------------------------------------------------------|
D|-----------------------------------------------------------------------|
A|-----------------------------------------------------------3-----3-----|
E|-5-3-5-6-5-3-6-5-3-5-3-5-6-5-3-6-5-3-6-5-3-5-3-5-6-5-3-5-6---6-3---6-3-|

Riff 5
E|---------------------------------------|
B|---------------------------------------|
G|---------------------------------------|
D|---------------------------------------|
A|-7-5-7-8-7-5-8-7-5-7-5-7-8-7-5-2-3-5/8-|
E|-5-3-5-6-5-3-6-5-3-5-3-5-6-5-3-0-1-3/6-|

E|-----------------------------------------|
B|-----------------------------------------|
G|-----------------------------------------|
D|-----------------------------------5-----|
A|-7-5-7-8-7-5-8-7-5-7-5-7-8-7-5-7-8-3-8-5-|
E|-5-3-5-6-5-3-6-5-3-5-3-5-6-5-3-5-6---6-3-|

Riff 5a
E|-----------------------------------------------------|
B|-----------------------------------------------------|
G|-----------------------------------------------------|
D|-----------------------------------------5-----5-----|
A|-7-5-7-8-7-5-8-7-5-8-7-5-7-5-7-8-7-5-7-8-3-8-5-3-8-5-|
E|-5-3-5-6-5-3-6-5-3-6-5-3-5-3-5-6-5-3-5-6---6-3---6-3-|

Play Riff 4
Play Riff 4a

Riff 6
E|-------------------------------------------------------------------|
B|-------------------------------------------------------------------|
G|-------------------------------------------------------------------|
D|-------------------------------------------------------------------|
A|-----------3----5---3----------------------------------------------|
E|-5----6---------------6-5----6--(6)\1-----0----1---3----0--1--3--6-|

Riff 7
E|-------------------------------------------------|
B|-------------------------------------------------|
G|-------------------------------------------------|
D|-7-8-7-8-7-5-7-8-7-5-7-8-7-8-7-5-7-8-7-5-7-8-7-5-|
A|-------------------------------------------------|
E|-------------------------------------------------|

E|-------------------------------------------------|
B|-------------------------------------------------|
G|-------------------------------------------------|
D|-7-8-7-8-7-5-7-8-7-5-7-8-7-8-7-5-7-8-7-5-7-8-7-5-|
A|-------------------------------------------------|
E|-------------------------------------------------|

E|-------------------------------------------------|
B|-------------------------------------------------|
G|-7-8-7-8-7-5-7-8-7-5-7-8-7-8-7-5-7-8-7-5-7-8-7-5-|
D|-------------------------------------------------|
A|-------------------------------------------------|
E|-------------------------------------------------|

E|--------------------------------------------------------------------|
B|--------------------------------------------------------------------|
G|-10-11-10-11-10-8-10-11-10-8-10-11-10-11-10-8-10-11-10-8-10-11-10-8-|
D|--------------------------------------------------------------------|
A|--------------------------------------------------------------------|
E|--------------------------------------------------------------------|

E|--------------------------------------------------------------------|
B|--------------------------------------------------------------------|
G|-10-11-10-11-10-8-10-11-10-8-10-11-10-11-10-8-10-11-10-8-10-11-10-8-|
D|--------------------------------------------------------------------|
A|--------------------------------------------------------------------|
E|--------------------------------------------------------------------|

E|----------------------------------------|
B|----------------------------------------|
G|-10-11-10-11-10-8-10-11-10-8-10-11-10-8-|
D|----------------------------------------|
A|----------------------------------------|
E|----------------------------------------|

E|----------------------------------------------------|
B|----------------------------------------------------|
G|-6-10-8-6-------------------------------------------|
D|----------10-8-7-10-8-7-----------------------------|
A|------------------------9-8-6-9-8-6-----------6-8-9-|
E|------------------------------------9-8-6-8-9-------|

E|-------------------------------------------------|
B|-------------------------------------------------|
G|-------------------------------------------------|
D|-----------------------------5-7-8-7-5-----5-7-8-|
A|-------4-5-7-5-4---4-5-7-4-7-----------8-7-------|
E|-3-5-6-----------6-------------------------------|

E|-------------------------------------------------------|
B|-----------------------------8-10-11-10-8------8-10-11-|
G|-------6-7-9-7-6---6-7-9-6-9--------------10-9---------|
D|-5-7-8-----------8-------------------------------------|
A|-------------------------------------------------------|
E|-------------------------------------------------------|

E|---------9-10-12-10-9----9-10-12-10-9----------------------------|
B|-8-10-11--------------11--------------11-10-8-11-10-8----8-10-11-|
G|------------------------------------------------------10---------|
D|-----------------------------------------------------------------|
A|-----------------------------------------------------------------|
E|-----------------------------------------------------------------|

Play Riff 1

Riff 8 (Solo)
E|------------------------------------------------|
B|-10----8h10----12b13------------------------5h6-|
G|----------------------12----10-12----(12)\7-----|
D|------------------------------------------------|
A|------------------------------------------------|
E|------------------------------------------------|

E|-------------------------------------------------------------------------|
B|-8-5---6--5--6p5------------10----8h10----12b13------------------------5-|
G|-----------------7----(7)\-----------------------12----12b14----(12)\7---|
D|-------------------------------------------------------------------------|
A|-------------------------------------------------------------------------|
E|-------------------------------------------------------------------------|

E|--------------------------------------------|
B|-6---8-5---6--5--6p5------------------------|
G|---------------------7------5---------------|
D|------------------------5h7---5-3b----------|
A|-----------------------------------5-5-(5)\-|
E|--------------------------------------------|

E|----------------------------------------------|
B|-17----15h17----19b20--15--13h15---(15)\---12-|
G|---------------------------------------/14----|
D|----------------------------------------------|
A|----------------------------------------------|
E|----------------------------------------------|

E|---------------------------------------------------|
B|-13--15-12--13--12--13p12----------13-15-16b-13----|
G|--------------------------14----14--------------14-|
D|---------------------------------------------------|
A|---------------------------------------------------|
E|---------------------------------------------------|

E|--------------------------/17-20-22b24-20-22--(22)\---17-19-|
B|-17----15h17----19b20--15-------------------------/17-------|
G|------------------------------------------------------------|
D|------------------------------------------------------------|
A|------------------------------------------------------------|
E|------------------------------------------------------------|

E|-20-19b20-(19)19-17-19--20-19--20p19-17-|
B|----------------------------------------|
G|----------------------------------------|
D|----------------------------------------|
A|----------------------------------------|
E|----------------------------------------|

E|-(17)17-12---------------------------------------------------|
B|-----------15-13-------------------------------13-12--13--12-|
G|-----------------14-12----------------------14---------------|
D|-----------------------14----------------14------------------|
A|--------------------------15-12-12-12h15---------------------|
E|-------------------------------------------------------------|
                               *  *
E|-------------------------------------------------------|
B|-12--13-12----------------13-18-17----(17)\-12--13--12-|
G|-----------14----12-14-16------------------------------|
D|-------------------------------------------------------|
A|-------------------------------------------------------|
E|-------------------------------------------------------|

E|---------------------------------------12---13-12------------|
B|-15---13-12---------------12--13--15--------------15---(15)\-|
G|------------14----12--14-------------------------------------|
D|-------------------------------------------------------------|
A|-------------------------------------------------------------|
E|-------------------------------------------------------------|

E|------13-----------12----------------------------------------------|
B|-/10--------10--9--------12-13b15-(13)(13)13---12-13b15-(13)(13)13-|
G|-------------------------------------------------------------------|
D|-------------------------------------------------------------------|
A|-------------------------------------------------------------------|
E|-------------------------------------------------------------------|

E|----------------------------------------------|
B|-12h13p12----12-13-15--17---18-17-15----17-18-|
G|----------14----------------------------------|
D|----------------------------------------------|
A|----------------------------------------------|
E|----------------------------------------------|

E|---------16-17-16--17h19b20(19)p17h19b20--19-20b22--20-19--22b24-|
B|-17---18---------------------------------------------------------|
G|-----------------------------------------------------------------|
D|-----------------------------------------------------------------|
A|-----------------------------------------------------------------|
E|-----------------------------------------------------------------|

E|-22b24-22b24-22b24-22b24-(22)\-|
B|-------------------------------|
G|-------------------------------|
D|-------------------------------|
A|-------------------------------|
E|-------------------------------|

Play Riff 2 (Palm-muted)
Play Riff 2a (Palm-muted)

Riff 9
E|-------------------------------------------------------------------------|
B|-------------------------------------------------------------------------|
G|-------------------------------------------------------------------------|
D|-3-3-3-3-3-3-3-3-3-3-3-3-------------------------7-7-7-7-7-7-7-7-7-7-7-7-|
A|-1-1-1-1-1-1-1-1-1-1-1-1-5-5-5-5-5-5-5-5-5-5-5-5-5-5-5-5-5-5-5-5-5-5-5-5-|
E|-------------------------3-3-3-3-3-3-3-3-3-3-3-3-------------------------|

E|-------------------------|
B|-------------------------|
G|-------------------------|
D|-7-7-7-7-7-7-7-7-7-7-7-7-|
A|-5-5-5-5-5-5-5-5-5-5-5-5-|
E|-------------------------|

Play Riff 2 (Palm-muted and release near end)

Play Riff 9

Riff 9a
E|----------------------------------0-|
B|----------------------------------3-|
G|----------------------------------2-|
D|-5-5-5-5-5-5-5-5-5-5-5-5-------0----|
A|-3-3-3-3-3-3-3-3-3-3-3-3-----5-0----|
E|-------------------------1-3--------|

Riff 10
E|---------------------------------------------------|
B|---------------------------------------------------|
G|---------------------------------------------------|
D|-3--2-----2--3-----3--2-----2--3-----3--2-----2--3-|
A|-0--0--0--0--0--0--1--1--1--1--1--1--1--1--1--3--3-|
E|---------------------------------------------------|
         *        *        *        *        *
E|----------0-----3-----------------------1-----------------0-|
B|----------3--------3-----------------------1--------------3-|
G|----------2-----------5--------0--------------3-----------2-|
D|-------0--------------------3-----3--------------------0----|
A|-----5-0-----3-----------2-----------1---------------5-0----|
E|-1-3---------------------------------------------1-3--------|

Play Riff 10
Play Riff 2 (Palm-muted)

Riff 11
E|---------------------------------------|
B|---------------------------------------|
G|---------------------------------------|
D|-7--7--7--------7--7--7--------7--7--7-|
A|-5--5--5--------5--5--5--------5--5--5-|
E|-5--5--5--------5--5--5--------5--5--5-|
   *  *  *        *  *  *        *  *  *
E|---------------------------------------|
B|---------------------------------------|
G|----------------3--3--3----------------|
D|-7--7--7--------3--3--3----------------|
A|-5--5--5--------1--1--1--------5--5--5-|
E|-5--5--5-----------------------3--3--3-|
   *  *  *        *  *  *        *  *  *
E|------------------------|
B|------------------------|
G|------------------------|
D|-7--7--7--------7--7--7-|
A|-5--5--5--------5--5--5-|
E|-5--5--5--------5--5--5-|
   *  *  *        *  *  *

Riff 12
E|---------------------------------|
B|---------------------------------|
G|---------------------------------|
D|-9--9-----9--9-----9--9-----9--9-|
A|-8--7-----7--8-----8--7-----7--8-|
E|-------0--------0--------0-------|
         *        *        *
E|-------------------------------------|
B|-------------------------------------|
G|-------------------------------------|
D|-10--9-----9--10-----10--9-----9--10-|
A|-8---8--8--8--8---8--8---8--8--8--8--|
E|-------------------------------------|
          *         *         *
E|-------------------------------------|
B|-------------------------------------|
G|-10--9-----9--10-----10--9-----9--10-|
D|-0---0--0--0--0---0--0---0--0--0--0--|
A|-------------------------------------|
E|-------------------------------------|
          *         *         *
E|-------------------------------------|
B|-------------------------------------|
G|-10--9-----9--10-----10--9-----9--10-|
D|-8---8--8--8--8---8--8---8--8--8--8--|
A|-------------------------------------|
E|-------------------------------------|
          *         *         *

Play Riff 12

Riff 12a
E|-------------------------------------|
B|-------------------------------------|
G|-10--9-----9--10-----10--9-----9--10-|
D|-6---6--6--6--6---6--6---6--6--6--6--|
A|-------------------------------------|
E|-------------------------------------|
          *         *         *
E|---------------------------------|
B|---------------------------------|
G|-4--2-----2--4-----4--2-----4--5-|
D|-2--2-----2--2-----2--2-----2--2-|
A|-------0--------0--------0-------|
E|---------------------------------|
         *         *         *
E|---------------------------------|
B|---------------------------------|
G|-5--4-----4--5-----5--4-----5--7-|
D|-3--3--3--3--3--3--3--3--3--3--3-|
A|---------------------------------|
E|---------------------------------|
         *        *        *
E|-------------------------------------|
B|-------------------------------------|
G|-10--9-----9--10-----10--9-----9--10-|
D|-0---0--0--0--0---0--0---0--0--0--0--|
A|-------------------------------------|
E|-------------------------------------|
          *         *         *
E|-------------------------------------|
B|-------------------------------------|
G|-10--9-----9--10-----10--9-----9--10-|
D|-6---6--6--6--6---6--6---6--6--6--6--|
A|-------------------------------------|
E|-------------------------------------|
          *         *         *
E|---------------------------------|
B|---------------------------------|
G|---------------------------------|
D|-9--9-----9--9-----9--9-----9--9-|
A|-8--7-----7--8-----8--7-----7--8-|
E|-------0--------0--------0-------|
         *        *        *
E|----------------------------------2-|
B|----------------------------------3-|
G|----------------------------------4-|
D|-3--2-----3--2-----3--2-----3--2--4-|
A|-1--1--1--1--1--1--1--1--1--1--1--2-|
E|------------------------------------|
         *        *        *


Notation:

10^        = bend a quarter step.
10b11      = bend a half step.
10b12      = bend a full step.
10b12r10   = bend and release.
[10]12     = pre-bend.
[10]12r10  = pre-bend and release.
{14}       = pick the 14th fret while holding the most 
             previous bend.
<17>       = touch the string above the 17th fret while 
             previous note(s) is(are) still ringing.

10b13*     = tremolo bar bend, from the 10th fret to the 13th fret.
7d4*       = tremolo bar dive, from the 7th fret to the 4th fret. 
12~*       = tremolo bar vibrato.

x   =  mute with fret-hand
*   =  palm mute
X\\ =  pick slide
h   =  hammer-on
p   =  pull-off
~   =  vibrato
t   =  finger tap
/   =  slide up
\   =  slide down
h.  =  natural harmonics
a   =  artificial harmonics
(9) =  ghost note
tm  =  trem picking
tr  =  trill
   
comments
print report bad tab
9 comments total. Showing first comments.
0 reply
marcelocrispim wrote on June 14 2007, 10:01 am

I think this song is tuned Drop-D

E|----------------------------------0-|
B|----------------------------------3-|
G|----------------------------------2-|
D|-5-5-5-5-5-5-5-5-5-5-5-5-------0----|
A|-3-3-3-3-3-3-3-3-3-3-3-3-----5-0----|
E|-------------------------1-3--------|

this part would maybe be

E|------------------------------------|
B|----------------------------------3-|
G|----------------------------------2-|
D|-5-5-5-5-5-5-5-5-5-5-5-5-------0----|
A|-3-3-3-3-3-3-3-3-3-3-3-3-----5-0----|
E|-------------------------3-5---0----|

0 reply
Cthulhu_Calls wrote on June 18 2007, 01:36 pm

i agree, the intro bit sounds better if u drop it too...

0 reply
XnaySaturo wrote on June 22 2007, 10:43 pm

Awesome tab, I've been waiting for this for a long time, thanks a lot :D

I want to post or [tab]
guest
You may want to rate the tab now too:
select rating
Please do not post tabs as comments. Select "correction" instead!