Oops, an error
Loading. Please wait.

Ministry Of Lost Souls Tab

ver1
ver1

Intro

Whole song

Interactive

More versions @911Tabs.com
36,457 views 99 this week
11 commentsread comments
1 2 3 4 5
excellent!
x 8
Autoscroll
+/-
esc
set tempo
stop
Contributor
WARNING: You are trying to view
                                    content from Ultimate-Guitar.com
                                    in an unauthorized application,
                                    which is prohibited.

                                    Please use an official Ultimate
                                    Guitar Tabs application for iPhone,
                                    iPad or Android to access legitimate
                                    chords, guitar, bass, and drum tabs
                                    from Ultimate-Guitar.com database.

                                    Type "ultimate guitar tabs" in Apple
                                    App Store's or Android Market's
                                    search to find the application.
Title: The Ministry of Lost Souls
Album: Systematic Chaos
Interpret: Dream Theater

tabbed by: camel69 (a t) codeeye (d o t) de

This is my contribution to a (hopefully one day) complete tab for this amazing
song. I couldn't play the middle part of it even if i had the notes, so i
haven't tried to tab it.

Also have a look at the guitar pro version of this tab, it's more accurate.
Thanks to the other guitar pro tab here on ug (tabbed by unregistered), which
gave me some hints for the distortion part.

The bars should be mostly correct.

~   vibrato
b   bend
/   slide up
\   slide down
^   pull off/hammer on
PM  palm mute
()  ghost note
X   dead note
AH  artificial harmonic

Guitar 1: Clean
Guitar 2: Accoustic Steel String
Guitar 3: Distortion
Guitar 4: Lead w/Chorus

all in standard tuning (EADGBe)

Tempo = 84
Intro (Gtr 3)

E|--------|--------|--------|-------------|--------|--------|
B|--------|--------|--------|-------------|--------|--------|
G|-9------|-5------|-5------|-------4-----|-9------|-5------|
D|-7------|-3------|-5------|-2----(2)----|-7------|-3------|
A|-7------|-3------|-3------|-2----(2)----|-7------|-3------|
E|-5------|-1------|-3------|-0----(0)----|-5------|-1------|

                                                                   PM PM
E|-----------------------|------------------------------|-----------------|
B|-----------------------|------------------------------|-----------------|
G|-5---------------------|-4----X--X--9---X--X--9-------|-9---------------|
D|-5---------------------|-2----X--X--10--X--X--9-------|-7---------------|
A|-3-------------3---5---|-2----X--X--7---X--X--7-------|-7---------7--7--|
E|-3---------3-----------|-0------------------------1b2-|-5---------5--5--|


E|----------------|-----------------------|------------------------------|
B|----------6-----|-----------------------|------------------------------|
G|-5----5---------|-5---------------------|-9----X--X--9---X--X----------|
D|-3--------------|-5---------------------|-9----X--X--10--X--X----------|
A|-3--------------|-3-------------3---5---|-7----X--X--7---X--X----------|
E|-1--------------|-3---------3-----------|----------------------7b9-7---|

       PM PM
E|------------------|--------|-----------------------|--------|--------|
B|------------------|--------|-----------------------|--------|--------|
G|-9----------9-----|-5------|-5---------------------|-4------|-(4)----|
D|-7----------7-----|-3------|-5---------------------|-2------|-(2)----|
A|-7----7--7--7-----|-3------|-3-------------3---5---|-2------|-(2)----|
E|-5----5--5--5-----|-1------|-3---------3-----------|-0------|-(0)----|

E|--------|--------|--------|--------|--------|--------|--------|
B|--------|--------|--------|--------|--------|--------|--------|
G|--------|--------|--------|--------|--------|--------|--------|
D|--------|--------|--------|--------|--------|--------|--------|
A|--------|--------|--------|--------|--------|--------|--------|
E|--------|--------|--------|--------|--------|--------|--------|


Gtr 1

E|---------------------------|---------------------------|
B|-----------------12---10---|-----------------12---13---|
G|-----9---10--9-------------|-----9---10--9-------------|
D|---------------------------|---------------------------|
A|-0--------------------(0)--|-0--------------------(0)--|
E|---------------------------|---------------------------|


E|---------------------------|-----------------10---12---|
B|-----------------12---10---|-----------------12---13---|
G|-----9---10--9-------------|-----9---10--9-------------|
D|---------------------------|---------------------------|
A|-0--------------------(0)--|-0--------------------(0)--|
E|---------------------------|---------------------------|


Gtr 2

E|-------------0----------------|-----------------3----1---0---|
B|-----------------4------------|---------1--------------------|
G|---------5---------------5----|-----1------------------------|
D|-----7------------------------|-3-----------3----------------|
A|-0-------------------0--------|------------------------------|
E|------------------------------|------------------------------|


E|-----------------0---------------|-----------------0---------------|
B|---------1---------------1-------|-------------0-------------------|
G|---------------------------------|---------0---------------3---2---|
D|-----2-------2-------------------|-----2---------------2-----------|
A|-3-------------------3-------3---|-2-------------------------------|
E|---------------------------------|---------------------------------|


E|-----------------0---------------|-----------------3---------------|
B|-------------1-------1-----------|---------1---------------1-------|
G|---------4---------------4-------|-----0-----------------------0---|
D|-----2-----------------------2---|-3-----------3-------3-----------|
A|-0-------------------------------|---------------------------------|
E|---------------------------------|---------------------------------|


E|-----------------0---------------|-----------------3---------------|
B|-------------1-----------1-------|-------------------------0-------|
G|---------0-----------------------|-------------0---------------0---|
D|-----2---------------2-------2---|---------0-----------0-----------|
A|-3-------------------------------|-----2---------------------------|
E|---------------------------------|-3-------------------------------|


E|-----------------3---------------|
B|---------0---4-------4---0-------|
G|-----0-----------------------0---|
D|---------------------------------|
A|-2-------------------------------|
E|-3-------------------------------|


Verse (Gtr 2)

E||-------------0----------------|-----------------3----1---0---|
B||o----------------4------------|---------1--------------------|
G||---------5---------------5----|-----1------------------------|
D||-----7------------------------|-3-----------3----------------|
A||o0-------------------0--------|------------------------------|
E||------------------------------|------------------------------|


E|-----------------0---------------|-----------------0---------------|
B|---------1---------------1-------|-------------0-------------------|
G|---------------------------------|---------0---------------3---2---|
D|-----2-------2-------------------|-----2---------------2-----------|
A|-3-------------------3-------3---|-2-------------------------------|
E|---------------------------------|---------------------------------|


E|-----------------0---------------|-----------------3---------------|
B|-------------1-------1-----------|---------1---------------1-------|
G|---------4---------------4-------|-----0-----------------------0---|
D|-----2-----------------------2---|-3-----------3-------3-----------|
A|-0-------------------------------|---------------------------------|
E|---------------------------------|---------------------------------|


E|-----------------0---------------|-----------------3---------------|
B|-------------1-----------1-------|-------------------------0-------|
G|---------0-----------------------|-------------0---------------0---|
D|-----2---------------2-------2---|---------0-----------0-----------|
A|-3-------------------------------|-----2---------------------------|
E|---------------------------------|-3-------------------------------|

   ________________________________  __________________________
  |1                                |2
E|-----------------3---------------|-----------------1----0----||
B|---------0---4-------4---0-------|-------------0------------o||
G|-----0-----------------------0---|---------1-----------------||
D|---------------------------------|-----2---------------------||
A|-2-------------------------------|--------------------------o||
E|-3-------------------------------|---------------------------||

sorry, but the rest of the verse is too difficult to hear because of the singing


Chorus (Gtr 3)

E|--------|--------|--------|------------------------------|
B|--------|--------|--------|------------------------------|
G|-9------|-5------|-5------|-4----X--X--9---X--X----------|
D|-7------|-3------|-5------|-2----X--X--10--X--X----------|
A|-7------|-3------|-3------|-2----X--X--7---X--X----------|
E|-5------|-1------|-3------|-0--------------------7b9-7---|

       PM PM
E|------------------|----------------|-----------------------|
B|------------------|----------6-----|-----------------------|
G|-9----------9-----|-5----5---------|-5---------------------|
D|-7----------7-----|-3--------------|-5---------------------|
A|-7----7--7--7-----|-3--------------|-3-------------3---5---|
E|-5----5--5--5-----|-1--------------|-3---------3-----------|


E|------------------------------|---------------------------------|
B|------------------------------|---------------------------------|
G|-9----X--X--9---X--X----------|-10--10--10--10--10--10--10--10--|
D|-9----X--X--10--X--X----------|-10--10--10--10--10--10--10--10--|
A|-7----X--X--7---X--X----------|-8---8---8---8---8---8---8---8---|
E|----------------------7b9-7---|---------------------------------|


E|---------------------------------|---------------------------------|
B|---------------------------------|---------------------------------|
G|-10--10--10--10--10--10--10--10--|-10--10--10--10--10--10--10--10--|
D|-10--10--10--10--10--10--10--10--|-10--10--10--10--10--10--10--10--|
A|-8---8---8---8---8---8---8---8---|-8---8---8---8---8---8---8---8---|
E|---------------------------------|---------------------------------|


E|---------------------------------|
B|---------------------------------|
G|-10--10--10--10--10--10--10--10--|
D|-10--10--10--10--10--10--10--10--|
A|-8---8---8---8---8---8---8---8---|
E|---------------------------------|


Solo #1 (Gtr 4)

E|--------------------|------------------------|
B|------5b4~-----8~---|-(8)--6-----------------|
G|-2---------5--------|----------5----7----9~--|
D|--------------------|------------------------|
A|--------------------|------------------------|
E|--------------------|------------------------|

E|--------------------|--------------------|------------------------|
B|--------------------|--------------------|-----13b12----10---20~--|
G|-(9)---9b11---------|--------------------|------------------------|
D|------------10--9~--|-(9)--------/8-7----|-(7)--------------------|
A|--------------------|--------------------|------------------------|
E|--------------------|--------------------|------------------------|


E|------------------------|--------------------|-------------------10--|
B|-(20)-18------------18--|-(18)/17--15---13~--|-12~-----------12------|
G|---------17---19--------|--------------------|-----------12----------|
D|------------------------|--------------------|-----------------------|
A|------------------------|--------------------|-----------------------|
E|------------------------|--------------------|-----------------------|


E|-11~---11/--|-12~----|
B|------------|--------|
G|------------|--------|
D|------------|--------|
A|------------|--------|
E|------------|--------|


Verse 2 (Gtr 4)

E|--------|--------|--------|--------|--------|--------|
B|--------|--------|--------|--------|--------|--------|
G|--------|--------|--------|--------|--------|--------|
D|--------|--------|--------|--------|--------|--------|
A|--------|--------|--------|--------|--------|--------|
E|--------|--------|--------|--------|--------|--------|


E|-----------15--|-15b14-11-------------------------------|
B|---------------|-----------12-----------15--------------|
G|---------------|--------------12--14b17-----17b14-12b14-|
D|---------------|----------------------------------------|
A|---------------|----------------------------------------|
E|---------------|----------------------------------------|

JP uses an e-bow for the following part:

E|--------|--------|--------|---------------|--------|--------|--------|
B|--------|--------|--------|---------------|--------|--------|--------|
G|-2~-----|-5~-----|-(5)~---|-4~-----3---2--|-2~-----|-5~-----|-(5)----|
D|--------|--------|--------|---------------|--------|--------|--------|
A|--------|--------|--------|---------------|--------|--------|--------|
E|--------|--------|--------|---------------|--------|--------|--------|


E|---------------|--------|--------|--------|---------------|--------|
B|---------------|--------|--------|--------|---------------|--------|
G|-9~----10--9---|-9~-----|-7~-----|-5~-----|-4~----5---7---|-7~-----|
D|---------------|--------|--------|--------|---------------|--------|
A|---------------|--------|--------|--------|---------------|--------|
E|---------------|--------|--------|--------|---------------|--------|


E|--------|--------|--------|------------------|
B|--------|--------|--------|------------------|
G|-(7)~---|-5~-----|-4~-----|-4/5\4------1~----|
D|--------|--------|--------|------------------|
A|--------|--------|--------|------------------|
E|--------|--------|--------|------------------|


Chorus (Gtr 3)

E|--------|--------|--------|--------|--------|--------|
B|--------|--------|--------|--------|--------|--------|
G|-9------|-5------|-5------|-4------|-9------|-5------|
D|-7------|-3------|-5------|-2------|-7------|-3------|
A|-7------|-3------|-3------|-2------|-7------|-3------|
E|-5------|-1------|-3------|-0------|-5------|-1------|

                                                              PM PM
E|-----------------------|------------------------------|------------------|
B|-----------------------|------------------------------|------------------|
G|-5---------------------|-4----X--X--9---X--X--9-------|-9----------9-----|
D|-5---------------------|-2----X--X--10--X--X--9-------|-7----------7-----|
A|-3-------------3---5---|-2----X--X--7---X--X--7-------|-7----7--7--7-----|
E|-3---------3-----------|-0------------------------1b2-|-5----5--5--5-----|

        PM PM     PM PM
E|---------------------------|-----------------------|
B|---------------------------|-----------------------|
G|-5-----------5-------------|-5---------------------|
D|-3-----------3-------------|-5---------------------|
A|-3-----7--7--3---7--7------|-3-------------3---5---|
E|-1-----5--5--1---5--5------|-3---------3-----------|

                                      PM PM
E|------------------------------|------------------|--------|
B|------------------------------|------------------|--------|
G|-9----X--X--9---X--X----------|-9----------9-----|-5------|
D|-9----X--X--10--X--X----------|-7----------7-----|-3------|
A|-7----X--X--7---X--X----------|-7----7--7--7-----|-3------|
E|----------------------7b9-7---|-5----5--5--5-----|-1------|


E|-----------------------|--------|--------|
B|-----------------------|--------|--------|
G|-5---------------------|-4------|-4------|
D|-5---------------------|-2------|-2------|
A|-3-------------3---5---|-2------|-2------|
E|-3---------3-----------|-0------|-0------|


Ok, unfortunately I'm not able to tab the middle, really fast part of the song. :)

This comes right after the crazy guitar and solo stuff at 10:43
(Gtr 3)

E|---------------------------|---------------------------|
B|-----------------12~--10---|-----------------12~--13\--|
G|-----9---10--9-------------|-----9---10--9-------------|
D|---------------------------|---------------------------|
A|---------------------------|---------------------------|
E|---------------------------|---------------------------|


E|---------------------------|---------------------------|
B|-----------------12b13-10--|-----------------12~--13~--|
G|-----9---10--9-------------|-----9---10--9-------------|
D|---------------------------|---------------------------|
A|---------------------------|---------------------------|
E|---------------------------|---------------------------|

Gtr 4

E|---------------------------|------------------------|---------------------|
B|-----------------12---10~--|-8~---6~---5~----5\3~---|-6----5~-------------|
G|-----9---10--9-------------|------------------------|-----------7~---5~---|
D|---------------------------|------------------------|---------------------|
A|---------------------------|------------------------|---------------------|
E|---------------------------|------------------------|---------------------|

                    AH
E|-----------------|---------------------------|---------------------|
B|-----------------|-----------------12~--10~--|-8~---6~-------------|
G|-7~----5----4----|-4---9---10--9-------------|-----------5----7----|
D|-----------------|---------------------------|---------------------|
A|-----------------|---------------------------|---------------------|
E|-----------------|---------------------------|---------------------|


E|---------------------|-------------|-------------|
B|-6----5~-------------|-5~----------|-------------|
G|-----------7----5~---|-------7~----|-5~----4~----|
D|---------------------|-------------|-------------|
A|---------------------|-------------|-------------|
E|---------------------|-------------|-------------|


Chorus again, and at the end (12:34)
E|---------------------------------|---------------------------------|
B|---------------------------------|---------------------------------|
G|-10--10--10--10--10--10--10--10--|-10--10--10--10--10--10--10--10--|
D|-10--10--10--10--10--10--10--10--|-10--10--10--10--10--10--10--10--|
A|-8---8---8---8---8---8---8---8---|-8---8---8---8---8---8---8---8---|
E|---------------------------------|---------------------------------|


E|---------------------------------|---------------------------------|
B|---------------------------------|---------------------------------|
G|-10--10--10--10--10--10--10--10--|-10--10--10--10--10--10--10--10--|
D|-10--10--10--10--10--10--10--10--|-10--10--10--10--10--10--10--10--|
A|-8---8---8---8---8---8---8---8---|-8---8---8---8---8---8---8---8---|
E|---------------------------------|---------------------------------|

Tempo = 89
Outro Solo (Gtr 4)

E|--------------------|------------------------|
B|------5b4~-----8~---|-(8)\6------------------|
G|-2---------5--------|----------5----7----9~--|
D|--------------------|------------------------|
A|--------------------|------------------------|
E|--------------------|------------------------|

E|--------------------|--------------------|------------------------|
B|--------------------|--------------------|-----13b12----10---20~--|
G|-(9)---9b11---------|--------------------|------------------------|
D|------------10--9~--|-(9)--------/8-7----|-(7)--------------------|
A|--------------------|--------------------|------------------------|
E|--------------------|--------------------|------------------------|


E|------------------------|--------------------|-------------|
B|-(20)-18------------18~-|-(18)--17--15---13--|-12~---12~---|
G|---------17---19--------|--------------------|-------------|
D|------------------------|--------------------|-------------|
A|------------------------|--------------------|-------------|
E|------------------------|--------------------|-------------|


E|--------------------|------------------------|----------------|
B|-----5b4--------8~--|-(8)\6------------------|----------------|
G|-2----------5-------|----------5----7----9~--|-(9)---9b11-----|
D|--------------------|------------------------|------------10--|
A|--------------------|------------------------|----------------|
E|--------------------|------------------------|----------------|


E|--------------------|--------------------|--------------------|
B|--------------------|----13b12---10---20~|-(20)-18--17---15---|
G|--------------------|--------------------|--------------------|
D|-9~--------/8-7-----|-(7)----------------|--------------------|
A|--------------------|--------------------|--------------------|
E|--------------------|--------------------|--------------------|


E|------------------------|---------------10--11~-|-(11)---11\--|
B|-18~--17--15------------|-----------12----------|-------------|
G|-----------------17-----|-16~---12--------------|-------------|
D|------------------------|-----------------------|-------------|
A|------------------------|-----------------------|-------------|
E|------------------------|-----------------------|-------------|


E|--------------------|------------------------|--------------------|
B|-----7b6--------11~-|--(11)\9----------------|--------------------|
G|-5----------8-------|----------8----10---12~-|-(12)---12b13-------|
D|--------------------|------------------------|----------------13--|
A|--------------------|------------------------|--------------------|
E|--------------------|------------------------|--------------------|


E|----------------|-----------------|------------------------|
B|----------------|-16b15-13---23~--|-(23)-21------------21~-|
G|----------------|-----------------|---------20---22--------|
D|-12~---/11-10---|-----------------|------------------------|
A|----------------|-----------------|------------------------|
E|----------------|-----------------|------------------------|


E|--------------------|--------------------|--------------------|
B|-(21)--20--18----16-|-18~---16--15~------|-----7b6--------11~-|
G|--------------------|--------------------|-5----------8-------|
D|--------------------|--------------------|--------------------|
A|--------------------|--------------------|--------------------|
E|--------------------|--------------------|--------------------|

E|------------------------|--------------------|----------------|
B|--(11)\9----------------|--------------------|----------------|
G|----------8----10---12~-|-(12)---12b13-------|----------------|
D|------------------------|----------------13--|-12~---/11-10---|
A|------------------------|--------------------|----------------|
E|------------------------|--------------------|----------------|


E|-----------------|--------------------|--------------------|
B|-----16b15---13--|-23~--21--20---18---|-21~--20--18---16---|
G|-----------------|--------------------|--------------------|
D|-(10)------------|--------------------|--------------------|
A|-----------------|--------------------|--------------------|
E|-----------------|--------------------|--------------------|


E|-------------------13--|-14~---18~---|--------------------|
B|-15~-----------15------|-------------|----10b9--------14--|
G|-----------15----------|-------------|-8----------11------|
D|-----------------------|-------------|--------------------|
A|-----------------------|-------------|--------------------|
E|-----------------------|-------------|--------------------|


E|------------------------|--------------------|--------------------|
B|-(14)\12----------------|--------------------|--------------------|
G|----------11---13---15~-|-(15)--15b16--------|--------------------|
D|------------------------|-------------16--15~|-(15)-----/14--13---|
A|------------------------|--------------------|--------------------|
E|------------------------|--------------------|--------------------|

                                                            |------5------|
E|-----------------|-21~--19------------19~-|-(19)-18---16--16-18-16-14-16-|
B|------19b18-16---|----------19---21-------|------------------------------|
G|-----------------|------------------------|------------------------------|
D|-(13)------------|------------------------|------------------------------|
A|-----------------|------------------------|------------------------------|
E|-----------------|------------------------|------------------------------|


E|-(16)--14^13-14^13----------------|--------------------|
B|-------------------14-------------|----10b9--------14--|
G|----------------------13----------|-8----------11------|
D|-------------------------16-15-11-|--------------------|
A|----------------------------------|--------------------|
E|----------------------------------|--------------------|


E|------------------------|--------------------|--------------------|
B|-(14)\12----------------|--------------------|--------------------|
G|----------11---13---15~-|-(15)--15b16--------|--------------------|
D|------------------------|-------------16-15~-|-(15)-----/14--13---|
A|------------------------|--------------------|--------------------|
E|------------------------|--------------------|--------------------|


E|-----------------|
B|------19b18--16--|
G|-----------------| ... fade out
D|-(13)------------|
A|-----------------|
E|-----------------|
comments
print report bad tab
11 comments total. Showing first comments.
0 reply
fliegendeskamel wrote on June 20 2007, 03:16 pm

I'm the one who transcribed the song. Unfortunately ug took my older version that's why the strumming chords that accompany the outro solo are not in the tab. Here they are (one chord per bar):
Am Fm C Em Am F C Gm
Am Fm C Em Am F C Gm G7+5 (or some other G-like chord)
Cm G#m D# Gm Cm G# D# A#
Cm G#m D# Gm Cm G# D# A# A#7+5 (same doubts as above)
D#m Cbm F# A#m D#m Cb F# C#
D#m Cbm F# A#m D#m Cb F# C# ...

For this unsure G7+5 chord (it would be great if s.o. could tell me what's the chord called exactly) I (and JP) play |3X00443|.

0 reply
Limaj_daas wrote on July 13 2007, 05:14 pm

Amazing tab, btw why don't u just update ur tab?

0 reply
*powerslave* wrote on July 30 2007, 10:43 am

very good tab, well done :D

I want to post or [tab]
guest
You may want to rate the tab now too:
select rating
Please do not post tabs as comments. Select "correction" instead!