Oops, an error
Loading. Please wait.

Octavarium Tab

ver1
ver1

Album

Whole song

More versions @911Tabs.com
27,865 views 15 this week
3 commentsread comments
1 2 3 4 5
excellent!
x 5
Autoscroll
+/-
esc
set tempo
stop
Contributor
Difficulty
advanced
WARNING: You are trying to view
                                    content from Ultimate-Guitar.com
                                    in an unauthorized application,
                                    which is prohibited.

                                    Please use an official Ultimate
                                    Guitar Tabs application for iPhone,
                                    iPad or Android to access legitimate
                                    chords, guitar, bass, and drum tabs
                                    from Ultimate-Guitar.com database.

                                    Type "ultimate guitar tabs" in Apple
                                    App Store's or Android Market's
                                    search to find the application.
Band - Dream Theater
Album - Octavarium (2005)

Track Listings:
1. The Root Of All Evil..............Nemmet
2. The Answer Lies Within............Andrew Zara
3. These Walls.......................Nemmet
4. I Walk Beside You.................Andrew Zara
5. Panic Attack......................Andrew Zara
6. Never Enough......................Andrew Zara
7. Sacrificed Sons...................unregistered
8. Octavarium........................Andrew Zara

------------------------------------------------------------

1. THE ROOT OF ALL EVIL
Tuning - Eb,Ab,Db,Gb,Bb,Eb

D#||------------------|------------------|------------------|------------------|
A#||------------------|------------------|------------------|------------------|
F#||------------------|------------------|------------------|------------------|
C#||------------------|------------------|------------------|------------------|
G#||------------------|------------------|------------------|------------------|
D#||------------------|------------------|------------------|------------------|


                                                                       F/5-  
------------------|------------------|------------------|--------------2----|
------------------|------------------|------------------|-------------------|
------------------|------------------|------------------|--------------5----|
------------------|------------------|------------------|--------------4----|
------------------|------------------|------------------|-------------------|
------------------|------------------|------------------|-------------------|


                                                                               
--2----2----2--------|------------------|------------------|------------------|
---------------------|------------------|------------------|------------------|
--5----5----5--------|------------------|------------------|------------------|
--4----4----4--------|------------------|------------------|------------------|
---------------------|------------------|------------------|------------------|
---------------------|------------------|------------------|------------------|


                                                                       F/5-   
------------------|------------------|------------------|--------------------|
------------------|------------------|------------------|--------------------|
------------------|------------------|------------------|--------------11----|
------------------|------------------|------------------|--------------10----|
------------------|------------------|------------------|--------------9-----|
------------------|------------------|------------------|--------------------|


                                                               
------------------------|------------------|------------------|
------------------------|------------------|------------------|
--11----11----11--------|------------------|------------------|
--10----10----10--------|------------------|------------------|
--9-----9-----9---------|------------------|------------------|
------------------------|------------------|------------------|


                                 F/5-                                    F/5-   
------------------|--------------------|------------------|--------------------|
------------------|--------------------|------------------|--------------------|
------------------|--------------11----|------------------|--------------11----|
------------------|--------------10----|------------------|--------------10----|
------------------|--------------9-----|------------------|--------------9-----|
------------------|--------------------|------------------|--------------------|


                                 F/5-                                    F/5-   
------------------|--------------------|------------------|--------------------|
------------------|--------------------|------------------|--------------------|
------------------|--------------11----|------------------|--------------11----|
------------------|--------------10----|------------------|--------------10----|
------------------|--------------9-----|------------------|--------------9-----|
------------------|--------------------|------------------|--------------------|


                                                      
--------------------------|--------------------------|
--------------------------|--------------------------|
--------------------------|--------------------------|
--------------------------|--------------------------|
-----------------------3--|-----2--0--1--2-----------|
--2--0--2--5--0--1--2-----|--2--------------2--3--0--|


                                                      
--------------------------|--------------------------|
--------------------------|--------------------------|
--------------------------|--------------------------|
--------------------------|--------------------------|
-----------------------3--|-----2--0--1--2-----------|
--2--0--2--5--0--1--2-----|--2--------------2--3--0--|


                                                      
--------------------------|--------------------------|
--------------------------|--------------------------|
--------------------------|--------------------------|
--------------------------|--------------------------|
-----------------------3--|-----2--0--1--2-----------|
--2--0--2--5--0--1--2-----|--2--------------2--3--0--|


                                                                                
--------------------------|--------------------------|-------------------------|
--------------------------|--------------------------|-------------------------|
--------------------------|--------------------------|-------------------------|
--------------------------|--------------------------|--4--------4----------4--|
-----------------------3--|-----2--0--1--2-----------|--4--2--5--4----2--5--4--|
--2--0--2--5--0--1--2-----|--2--------------2--3--0--|--2--0--3--2----0--3--2--|


                                                                            
------------------------|-------------------------|------------------------|
------------------------|-------------------------|------------------------|
------------------------|-------------------------|---------------------2--|
----------4----------5--|--4--------4----------4--|----------4----------2--|
----2--5--4----2--4--5--|--4--2--5--4----2--5--4--|----2--5--4----2--4--0--|
----0--3--2----0--2--3--|--2--0--3--2----0--3--2--|----0--3--2----0--2-----|


                                                                             
-------------------------|------------------------|-------------------------|
-------------------------|------------------------|-------------------------|
-------------------------|------------------------|-------------------------|
--4--------4----------4--|----------4----------5--|--4--------4----------4--|
--4--2--5--4----2--5--4--|----2--5--4----2--4--5--|--4--2--5--4----2--5--4--|
--2--0--3--2----0--3--2--|----0--3--2----0--2--3--|--2--0--3--2----0--3--2--|


                                                                                
----------------------------|-------------------------|------------------------|
----------------------------|-------------------------|------------------------|
----------------------------|-------------------------|------------------------|
-----------------------2----|-------------------------|------------------------|
----2--5--4--3----4----2----|--4--2--5--4----2--5--4--|----2--5--4----2--4--5--|
----0--3--2--3----4---------|--2--0--3--2----0--3--2--|----0--3--2----0--2--3--|


                                                                             
-------------------------|------------------------|-------------------------|
-------------------------|------------------------|-------------------------|
-------------------------|------------------------|-------------------------|
-------------------------|---------------------2--|-------------------------|
--4--2--5--4----2--5--4--|----2--5--4----2--4--0--|--4--2--5--4----2--5--4--|
--2--0--3--2----0--3--2--|----0--3--2----0--2-----|--2--0--3--2----0--3--2--|


                                                                            
------------------------|-------------------------|------------------------|
------------------------|-------------------------|------------------------|
------------------------|-------------------------|------------------------|
------------------------|-------------------------|---------------------2--|
----2--5--4----2--4--5--|--4--2--5--4----2--5--4--|----2--5--4----2--4--0--|
----0--3--2----0--2--3--|--2--0--3--2----0--3--2--|----0--3--2----0--2-----|


                                                                             
-------------------------|------------------------|-------------------------|
-------------------------|------------------------|-------------------------|
-------------------------|------------------------|-------------------------|
-------------------------|------------------------|-------------------------|
--4--2--5--4----2--5--4--|----2--5--4----2--4--5--|--4--2--5--4----2--5--4--|
--2--0--3--2----0--3--2--|----0--3--2----0--2--3--|--2--0--3--2----0--3--2--|


                                                                            
------------------------|-------------------------|------------------------|
------------------------|-------------------------|------------------------|
------------------------|-------------------------|------------------------|
---------------------2--|-------------------------|------------------------|
----2--5--4----2--4--0--|--4--2--5--4----2--5--4--|----2--5--4----2--4--5--|
----0--3--2----0--2-----|--2--0--3--2----0--3--2--|----0--3--2----0--2--3--|


                                                                             
-------------------------|------------------------|-------------------------|
-------------------------|------------------------|-------------------------|
-------------------------|------------------------|-----------2----------5--|
-------------------------|---------------------2--|--4--------2----------5--|
--4--2--5--4----2--5--4--|----2--5--4----2--4--0--|--4--2--4--0----2--2--3--|
--2--0--3--2----0--3--2--|----0--3--2----0--2-----|--2--0--2-------0--0-----|


                                                                              
-------------------------|-------------------------|-------------------------|
-------------------------|-------------------------|-------------------------|
----4--5-----------------|-----------2----------5--|----4--5-------------5---|
----4--5-----------------|--4--------2----------5--|----4--5-------------5---|
----2--3--2--2--2--2--2--|--4--2--4--0----2--2--3--|----2--3--2--2--2--2-3---|
----------0--0--0--0--0--|--2--0--2-------0--0-----|----------0--0--0--0-----|


                                                                              
-------------------------|-------------------------|-------------------------|
-------------------------|-------------------------|-------------------------|
-----------2----------5--|----4--5-----------------|-----------2----------5--|
--4--------2----------5--|----4--5-----------------|--4--------2----------5--|
--4--2--4--0----2--2--3--|----2--3--2--2--2--2--2--|--4--2--4--0----2--2--3--|
--2--0--2-------0--0-----|----------0--0--0--0--0--|--2--0--2-------0--0-----|


                                                                                
-------------------------|--------------------------|--------------------------|
-------------------------|--------------------------|--------------------------|
----4--5-----------------|--------------------------|--------------------------|
----4--5-----------------|--------------------------|--------------------------|
----2--3--2--2--2--------|-----------------------3--|-----2--0--1--2-----------|
----------0--0--0--12----|--2--0--2--5--0--1--2-----|--2--------------2--3--0--|


                                                      
--------------------------|--------------------------|
--------------------------|--------------------------|
--------------------------|--------------------------|
--------------------------|--------------------------|
-----------------------3--|-----2--0--1--2-----------|
--2--0--2--5--0--1--2-----|--2--------------2--3--0--|


                                                      
--------------------------|--------------------------|
--------------------------|--------------------------|
--------------------------|--------------------------|
--------------------------|--------------------------|
-----------------------3--|-----2--0--1--2-----------|
--2--0--2--5--0--1--2-----|--2--------------2--3--0--|


                                                                                
--------------------------|--------------------------|-------------------------|
--------------------------|--------------------------|-------------------------|
--------------------------|--------------------------|-------------------------|
--------------------------|--------------------------|-------------------------|
-----------------------3--|-----2--0--1--2-----------|--4--2--5--4----2--5--4--|
--2--0--2--5--0--1--2-----|--2--------------2--3--0--|--2--0--3--2----0--3--2--|


                                                                            
------------------------|-------------------------|------------------------|
------------------------|-------------------------|------------------------|
------------------------|-------------------------|------------------------|
------------------------|-------------------------|---------------------2--|
----2--5--4----2--4--5--|--4--2--5--4----2--5--4--|----2--5--4----2--4--0--|
----0--3--2----0--2--3--|--2--0--3--2----0--3--2--|----0--3--2----0--2-----|


                                                                             
-------------------------|------------------------|-------------------------|
-------------------------|------------------------|-------------------------|
-------------------------|------------------------|-------------------------|
-------------------------|------------------------|-------------------------|
--4--2--5--4----2--5--4--|----2--5--4----2--4--5--|--4--2--5--4----2--5--4--|
--2--0--3--2----0--3--2--|----0--3--2----0--2--3--|--2--0--3--2----0--3--2--|


                                                                            
------------------------|-------------------------|------------------------|
------------------------|-------------------------|------------------------|
------------------------|-------------------------|------------------------|
---------------------2--|-------------------------|------------------------|
----2--5--4----2--4--0--|--4--2--5--4----2--5--4--|----2--5--4----2--4--5--|
----0--3--2----0--2-----|--2--0--3--2----0--3--2--|----0--3--2----0--2--3--|


                                                                             
-------------------------|------------------------|-------------------------|
-------------------------|------------------------|-------------------------|
-------------------------|------------------------|-------------------------|
-------------------------|---------------------2--|-------------------------|
--4--2--5--4----2--5--4--|----2--5--4----2--4--0--|--4--2--5--4----2--5--4--|
--2--0--3--2----0--3--2--|----0--3--2----0--2-----|--2--0--3--2----0--3--2--|


                                                                            
------------------------|-------------------------|------------------------|
------------------------|-------------------------|------------------------|
------------------------|-------------------------|------------------------|
------------------------|-------------------------|---------------------2--|
----2--5--4----2--4--5--|--4--2--5--4----2--5--4--|----2--5--4----2--4--0--|
----0--3--2----0--2--3--|--2--0--3--2----0--3--2--|----0--3--2----0--2-----|


                                                                              
-------------------------|-------------------------|-------------------------|
-------------------------|-------------------------|-------------------------|
-----------2----------5--|----4--5-----------------|-----------2----------5--|
--4--------2----------5--|----4--5-----------------|--4--------2----------5--|
--4--2--4--0----2--2--3--|----2--3--2--2--2--2--2--|--4--2--4--0----2--2--3--|
--2--0--2-------0--0-----|----------0--0--0--0--0--|--2--0--2-------0--0-----|


                                                                              
-------------------------|-------------------------|-------------------------|
-------------------------|-------------------------|-------------------------|
----4--5-------------5---|-----------2----------5--|----4--5-----------------|
----4--5-------------5---|--4--------2----------5--|----4--5-----------------|
----2--3--2--2--2--2-3---|--4--2--4--0----2--2--3--|----2--3--2--2--2--2--2--|
----------0--0--0--0-----|--2--0--2-------0--0-----|----------0--0--0--0--0--|


                                                                        
-------------------------|-------------------------|-------------------|
-------------------------|-------------------------|-------------------|
-----------2----------5--|----4--5-----------------|--4----------------|
--4--------2----------5--|----4--5-----------------|--4----------------|
--4--2--4--0----2--2--3--|----2--3--2--2--2--2--2--|--2----------------|
--2--0--2-------0--0-----|----------0--0--0--0--0--|-------------------|


                                                                               
-------------------|-------------------|------------------|-------------------|
-------------------|-------------------|------------------|-------------------|
--------------4----|--2----------------|------------------|--6----------------|
--------------4----|--2----------------|------------------|--6----------------|
--------------2----|--0----------------|------------------|--4----------------|
-------------------|-------------------|------------------|-------------------|


                                                              
------------------|--------------------|---------------------|
------------------|--------------------|---------------------|
------------------|--------------------|-------9--------7----|
------------------|--4------------4----|--4----9--------7----|
------------------|--4------------4----|--4----7--------5----|
------------------|--2------------2----|--2------------------|


                                                             
-------------------|--------------------|-------------------|
-------------------|--------------------|-------------------|
--7----------------|----------7----6----|--4----------------|
--7----------------|----------7----6----|--4----------------|
--5----------------|----------5----4----|--2----------------|
-------------------|--------------------|-------------------|


                                                              
--------------------|-------------------|--------------------|
--------------------|-------------------|--------------------|
----------4---------|-------------------|--------------------|
----------4---------|-------------------|--------------------|
----------2---------|-------------------|--------------------|
---------------5----|--4----------------|--4--------4--------|


                                                                             
-------------------|--------------------|--10--10-10-10-10-10-10-10---------|
-------------------|--------------------|------------------------------7----|
-------------------|--------------------|-----------------------------------|
--5----------------|--5--------5--------|-----------------------------------|
--5----------------|--5--------5--------|-----------------------------------|
--3----------------|--3--------3--------|-----------------------------------|


                                                                
-----------10--------|--9-----------------|-----------9--------|
--7------------------|---------------7----|--7-----------------|
---------------------|--------------------|--------------------|
---------------------|--------------------|--------------------|
---------------------|--------------------|--------------------|
---------------------|--------------------|--------------------|


                                                                              
--8-8-8-8-8-8-8-8-8-8-8-8-------|---------------------|----------------------|
--------------------------10----|--9------------------|----------------10----|
--------------------------------|-----------11--------|--13------------------|
--------------------------------|---------------------|----------------------|
--------------------------------|---------------------|----------------------|
--------------------------------|---------------------|----------------------|


                                                                    
-------------------|------------------------|----------------------|
--9----------------|------------------------|----------------------|
-------------------|------------------------|----------------------|
-------------------|---------------------2--|----------------------|
-------------------|--4--4--4--2----4----0--|----4----2----4--5----|
-------------------|--2--2--2--0----2-------|----2----0----2--3----|


                                                                         
------------------------|----------------------|------------------------|
------------------------|----------------------|------------------------|
------------------------|----------------------|------------------------|
---------------------2--|----------------------|---------------------2--|
--4--4--4--2----4----0--|----4----2----4--7----|--4--4--4--2----4----0--|
--2--2--2--0----2-------|----2----0----2-------|--2--2--2--0----2-------|


                                                                       
----------------------|------------------------|----------------------|
----------------------|------------------------|----------------------|
----------------------|------------------------|----------------------|
----------------------|---------------------2--|-----------------2----|
----4----2----4--5----|--4--4--4--2----4----0--|----4----2----4--0----|
----2----0----2--3----|--2--2--2--0----2-------|----2----0----2--0----|


                                                      
--------------------------|--------------------------|
--------------------------|--------------------------|
--------------------------|--------------------------|
-----------------------2--|--2-----------------------|
--4--4--4--2--2--4--4--0--|--0--4--4--2--2--4--5--5--|
--2--2--2--0--0--2--2-----|-----2--2--0--0--2--3--3--|


                                                      
--------------------------|--------------------------|
--------------------------|--------------------------|
--------------------------|--------------------------|
-----------------------2--|--2-----------------5--5--|
--4--4--4--2--2--4--4--0--|--0--4--4--2--2--4--3--3--|
--2--2--2--0--0--2--2-----|-----2--2--0--0--2--------|


                                                      
--------------------------|--------------------------|
--------------------------|--------------------------|
--------------------------|--------------------------|
-----------------------2--|--2-----------------------|
--4--4--4--2--2--4--4--0--|--0--4--4--2--2--4--5--5--|
--2--2--2--0--0--2--2-----|-----2--2--0--0--2--3--3--|


                                                      
--------------------------|--------------------------|
--------------------------|--------------------------|
--------------------------|--------------------------|
-----------------------2--|--2-----------------5--5--|
--4--4--4--2--2--4--4--0--|--0--4--4--2--2--4--3--3--|
--2--2--2--0--0--2--2-----|-----2--2--0--0--2--------|


                                                      
--------------------------|--------------------------|
--------------------------|--------------------------|
-----------------------2--|--2-----------------------|
--4--4--4--2--2--4--4--2--|--2--4--4--2--2--4--5--5--|
--4--4--4--2--2--4--4--0--|--0--4--4--2--2--4--5--5--|
--2--2--2--0--0--2--2-----|-----2--2--0--0--2--3--3--|


                                                      
--------------------------|--------------------------|
--------------------------|--------------------------|
-----------------------2--|--2-----------------------|
--4--4--4--2--2--4--4--2--|--2--4--4--2--2--4--2--2--|
--4--4--4--2--2--4--4--0--|--0--4--4--2--2--4--0--0--|
--2--2--2--0--0--2--2-----|-----2--2--0--0--2--0--0--|


                                                      
--------------------------|--------------------------|
--------------------------|--------------------------|
-----------------------2--|--2-----------------------|
--4--4--4--2--2--4--4--2--|--2--4--4--2--2--4--5--5--|
--4--4--4--2--2--4--4--0--|--0--4--4--2--2--4--5--5--|
--2--2--2--0--0--2--2-----|-----2--2--0--0--2--3--3--|


                                                                              
--------------------------|--------------------------|-----------------------|
--------------------------|--------------------------|--------------------5--|
-----------------------2--|--2-----------------------|--6--6----4----6----4--|
--4--4--4--2--2--4--4--2--|--2--4--4--2--2--4--2--2--|--6--6----4----6----2--|
--4--4--4--2--2--4--4--0--|--0--4--4--2--2--4--0--0--|--4--4----2----4-------|
--2--2--2--0--0--2--2-----|-----2--2--0--0--2--0--0--|-----------------------|


                                                                        
-----------------------|-----------------------|-----------------------|
-----------------3--3--|--------------------5--|-----------------------|
----6----4----6--2--2--|--6--6----4----6----4--|----6----4----6--------|
----6----4----6--0--0--|--6--6----4----6----2--|----6----4----6--5--5--|
----4----2----4--------|--4--4----2----4-------|----4----2----4--5--5--|
-----------------------|-----------------------|-----------------3--3--|


                                                                        
-----------------------|-----------------------|-----------------------|
--------------------5--|-----------------3--3--|--------------------5--|
--6--6----4----6----4--|----6----4----6--2--2--|--6--6----4----6----4--|
--6--6----4----6----2--|----6----4----6--0--0--|--6--6----4----6----2--|
--4--4----2----4-------|----4----2----4--------|--4--4----2----4-------|
-----------------------|-----------------------|-----------------------|


                                                                             
-----------------------|--------------------------|-------------------------|
-----------------------|--------------------------|-------------------------|
----6----4----6--------|-----------------------2--|----------------------4--|
----6----4----6--5--5--|-----4-----2-----4--------|-----4----2-----4--5-----|
----4----2----4--5--5--|--------------------------|-------------------------|
-----------------3--3--|--2-----2-----2-----2-----|--2----------2-----------|


                                                                                
--------------------------|-------------------------|--------------------------|
--------------------------|-------------------------|--------------------------|
-----------------------2--|----------------------4--|-----------------------2--|
-----4-----2-----4--------|-----4----2-----4--5-----|-----4-----2-----4--------|
--------------------------|-------------------------|--------------------------|
--2-----2-----2-----2-----|--2----------2-----------|--2-----2-----2-----2-----|


                                                                               
-------------------------|--------------------------|-------------------------|
-------------------------|--------------------------|-------------------------|
----------------------4--|-----------------------2--|----------------------4--|
-----4----2-----4--5-----|-----4-----2-----4--------|-----4----2-----4--5-----|
-------------------------|--------------------------|-------------------------|
--2----------2-----------|--2-----2-----2-----2-----|--2----------2-----------|


                                                                  
--------------------------------|--------------------------------|
--------------------------------|--------------------------------|
--4--6----6------7--6----6------|--4--6----6------7--6----6------|
--4--6----6------7--6----6------|--4--6----6------7--6----6------|
--2--4----4------5--4----4------|--2--4----4------5--4----4------|
--------------------------------|--------------------------------|


                                                              
--------------------------------|----------------------------|
--------------------------------|----------------------------|
--------------------------------|--2------------4------------|
--4--4----4------2--4----4------|--2------------4------------|
--4--4----4------2--4----4------|--0------------2------------|
--2--2----2------0--2----2------|----------------------------|


                                                                
--------------------------------|------------------------------|
--------------------------------|------------------------------|
--4--6----6------7--6----6------|--4--6----6------2------------|
--4--6----6------7--6----6------|--4--6----6------2------------|
--2--4----4------5--4----4------|--2--4----4------0------------|
--------------------------------|------------------------------|


                                                                       
-------------------|----------------------------|---------------------|
-------------------|----------------------------|---------------------|
-------------------|----------------------------|---------------------|
--6----------------|--4------------2------------|--4----4/-x----------|
--6----------------|--4------------2------------|--4----4/-x----------|
--4----------------|--2------------0------------|--2----2/-x----------|


                                                         
------------------|------------------|------------------|
------------------|------------------|------------------|
------------------|------------------|------------------|
------------------|------------------|------------------|
------------------|------------------|------------------|
------------------|------------------|------------------|


                                                         
--------------------------------------------------------|
--------------------------------------------------------|
--------------------------------------------------------|
----------------------14p9p7----------------------------|
--16p9p7-14p9p7---9p7--------14p9p7--------------12p9p7-|
----------------7-------------------7h9p7-12p9p7--------|


                                                                     
-----------------------------------------19p14p12-19h26p12-24p19p17-|
--------------------------------19p14p12----------------------------|
------------------------16p11p9-------------------------------------|
---------14p9p7-16p11p9---------------------------------------------|
--14p9p7------------------------------------------------------------|
--------------------------------------------------------------------|


                                                                
--24p12h26-19p12h14--------------------------------------------|
--------------------24p12h14-----------------------------------|
-----------------------------23p9h11---------------------------|
-------------------------------------9h11----------------------|
------------------------------------------9p7h14t19p7h9-21p7h9-|
---------------------------------------------------------------|


                                                               
--------------------------------------------------------------|
--------------------------------------------------------------|
--------------------------------------------------------------|
--------------------------------------------------------------|
-------------------------14p12h14-19p7h9-16p7h9-12p7-12p9p7h9-|
--17p7h9-12p7h9-14p12h14--------------------------------------|


                                                                             
-------------------------|------------------------|-------------------------|
-------------------------|------------------------|-------------------------|
-------------------------|------------------------|-------------------------|
-------------------------|------------------------|-------------------------|
-------------------------|------------------------|-------------------------|
--4--2--5--4----2--5--4--|----2--5--4----2--4--5--|--4--2--5--4----2--5--4--|


                                                                            
------------------------|-------------------------|------------------------|
------------------------|-------------------------|------------------------|
------------------------|-------------------------|------------------------|
------------------------|-------------------------|------------------------|
---------------------2--|-------------------------|------------------------|
----2--5--4----2--4-----|--4--2--5--4----2--5--4--|----2--5--4----2--4--5--|


                                                                              
-------------------------|------------------------|--------------------------|
-------------------------|------------------------|--------------------------|
-------------------------|------------------------|--------------------------|
-------------------------|------------------------|--------------------------|
-------------------------|---------------------2--|-----------------------3--|
--4--2--5--4----2--5--4--|----2--5--4----2--4-----|--2--0--2--5--0--1--2-----|


                                                      
--------------------------|--------------------------|
--------------------------|--------------------------|
--------------------------|--------------------------|
--------------------------|--------------------------|
-----2--0--1--2-----------|-----------------------3--|
--2--------------2--3--0--|--2--0--2--5--0--1--2-----|


                                                      
--------------------------|--------------------------|
--------------------------|--------------------------|
--------------------------|--------------------------|
--------------------------|--------------------------|
-----2--0--1--2-----------|-----------------------3--|
--2--------------2--3--0--|--2--0--2--5--0--1--2-----|


                                                      
--------------------------|--------------------------|
--------------------------|--------------------------|
--------------------------|--------------------------|
--------------------------|--------------------------|
-----2--0--1--2-----------|-----------------------3--|
--2--------------2--3--0--|--2--0--2--5--0--1--2-----|


                                                           
--------------------------|-------------------------------|
--------------------------|--12--10--13--12~-----10-8-7---|
--------------------------|-----------------------------9-|
--------------------------|-------------------------------|
-----2--0--1--2-----------|-------------------------------|
--2--------------2--3--0--|-------------------------------|


                                                                 
------------------------|---------------------------------------|
---------------------x--|---------------------------------------|
--8------9--8~-------x--|---------8-9-8----8--------------------|
-----10--------------x--|--7-9-10-------10---10-9-7-10-9-7------|
------------------------|----------------------------------10-9-|
------------------------|---------------------------------------|


                                                               
-------------------------------|------------------------------|
-------------------------------|----12~---12~-7----8----10----|
-------------------------------|------------------------------|
-------------------------------|------------------------------|
--10-9-7-10-9-7----7-----------|------------------------------|
----------------11---11~-------|------------------------------|


                                                                     
---------------------------------|----------------------------------|
--4----5----7--------------------|------5-----5-7-4-5-7-8-5-7-4-5---|
-----------------4-5-4---4-5-8-4-|--5-8---5-8---------------------5-|
-----------------------7---------|----------------------------------|
---------------------------------|----------------------------------|
---------------------------------|----------------------------------|


                                                              
----------------------------5h6-7~---|-----------------------|
--------------7h8p5-7h8p7-8----------|--7------10--------13--|
--8-4-5---4--------------------------|--9b-----12b-------15b-|
--------7---4------------------------|-----------------------|
-------------------------------------|-----------------------|
-------------------------------------|-----------------------|


                                                            
--------------------|----12h14~----14-12-------------------|
--------------------|----12--------------14-13-16-14-13-14-|
------15~-----------|--------------------------------------|
--------------------|--------------------------------------|
--------------------|--------------------------------------|
--------------------|--------------------------------------|


                                             
--------------------------------------------|
--13-12----13-12----------12----------------|
--------14-------14-11-------14-11----14~---|
-----------------------14----------14-------|
--------------------------------------------|
--------------------------------------------|


                                                   
--------14----17--19--20--21--19--22~----17h19h20-|
--------------------------------------19----------|
--------------------------------------------------|
--------------------------------------------------|
--16----------------------------------------------|
--------------------------------------------------|


                                               
--21-20p19p17----17-19-20p19p17---------------|
--------------19----------------19~--------x--|
-------------------------------------------x--|
-------------------------------------------x--|
----------------------------------------------|
----------------------------------------------|


                                                
-----------------------------------------14----|
---------------------------------10---------13-|
---------------9-11-9----11-9-------11-9-------|
-------9-10-11--------11------11---------------|
--9-12-----------------------------------------|
-----------------------------------------------|


                                                                              
--------------------9---------------------------|--------------------|---|---|
--12-11-10-11-12-13---12-13-12-10---------------|--12~---------------|---|---|
----------------------------------12-11-9-11-12-|--------------------|---|---|
------------------------------------------------|--------------------|---|---|
------------------------------------------------|--------------------|---|---|
------------------------------------------------|--------------------|---|---|


                                                    
---|---|---|---|---|---|---|---|---|---|---|---|---|
---|---|---|---|---|---|---|---|---|---|---|---|---|
---|---|---|---|---|---|---|---|---|---|---|---|---|
---|---|---|---|---|---|---|---|---|---|---|---|---|
---|---|---|---|---|---|---|---|---|---|---|---|---|
---|---|---|---|---|---|---|---|---|---|---|---|---|


                                                                               
--10--10-10-10-10-10-10-10---------|-----------10--------|--9-----------------|
------------------------------7----|--7------------------|---------------7----|
-----------------------------------|---------------------|--------------------|
-----------------------------------|---------------------|--------------------|
-----------------------------------|---------------------|--------------------|
-----------------------------------|---------------------|--------------------|


                                                                            
-----------9--------|--8-8-8-8-8-8-8-8-8-8-8-8-------|---------------------|
--7-----------------|--------------------------10----|--9------------------|
--------------------|--------------------------------|-----------11--------|
--------------------|--------------------------------|---------------------|
--------------------|--------------------------------|---------------------|
--------------------|--------------------------------|---------------------|


                                                                               
----------------------|-------------------|--10--10-10-10-10-10-10-10---------|
----------------10----|--9----------------|------------------------------7----|
--13------------------|-------------------|-----------------------------------|
----------------------|-------------------|-----------------------------------|
----------------------|-------------------|-----------------------------------|
----------------------|-------------------|-----------------------------------|


                                                                
-----------10--------|--9-----------------|-----------9--------|
--7------------------|---------------7----|--7-----------------|
---------------------|--------------------|--------------------|
---------------------|--------------------|--------------------|
---------------------|--------------------|--------------------|
---------------------|--------------------|--------------------|


                                                                            
--8-8-8-8-8-8-8-8-8-8-8-8-------|---------------------|--------------------|
--------------------------10----|--9------------------|--12b---------------|
--------------------------------|-----------11--------|--------------------|
--------------------------------|---------------------|--------------------|
--------------------------------|---------------------|--------------------|
--------------------------------|---------------------|--------------------|


                                                                            
---------------------|--------------------------|--------------------------|
------------14/---x--|--------------------------|--------------------------|
---------------------|--------------------------|--------------------------|
---------------------|--------------------------|--------------------------|
---------------------|-----------------------3--|-----2--0--1--2-----------|
---------------------|--2--0--2--5--0--1--2-----|--2--------------2--3--0--|


                                                      
--------------------------|--------------------------|
--------------------------|--------------------------|
--------------------------|--------------------------|
--------------------------|--------------------------|
-----------------------3--|-----2--0--1--2-----------|
--2--0--2--5--0--1--2-----|--2--------------2--3--0--|


                                                      
--------------------------|--------------------------|
--------------------------|--------------------------|
--------------------------|--------------------------|
--------------------------|--------------------------|
-----------------------3--|-----2--0--1--2-----------|
--2--0--2--5--0--1--2-----|--2--------------2--3--0--|


                                                      
--------------------------|--------------------------|
--------------------------|--------------------------|
--------------------------|--------------------------|
--------------------------|--------------------------|
-----------------------3--|-----2--0--1--2-----------|
--2--0--2--5--0--1--2-----|--2--------------2--3--0--|


                                                      
--------------------------|--------------------------|
--------------------------|--------------------------|
--------------------------|--------------------------|
-----------------------4--|-----2--------------------|
-----------4--------------|--------0--1--2-----------|
--2--0--2-----0--1--2-----|--2--------------0--3--0--|


                                                      
--------------------------|--------------------------|
--------------------------|--------------------------|
--------------------------|--------------------------|
-----------------------4--|-----2--------------------|
-----------4--------------|--------0--1--2-----------|
--2--0--2-----0--1--2-----|--2--------------0--3--0--|


                                                      
--------------------------|--------------------------|
--------------------------|--------------------------|
--------------------------|--------------------------|
-----------------------4--|-----2--------------------|
-----------4--------------|--------0--1--2-----------|
--2--0--2-----0--1--2-----|--2--------------0--3--0--|


                                                                          
--------------------------|--------------------------|-------------------|
--------------------------|--------------------------|-------------------|
--------------------------|--------------------------|-------------------|
-----------------------4--|-----2--------------------|--4----------------|
-----------4--------------|--------0--1--2-----------|--4----------------|
--2--0--2-----0--1--2-----|--2--------------0--3--0--|--2----------------|


                                                                            
------------------|------------------|------------------|------------------|
------------------|------------------|------------------|------------------|
------------------|------------------|------------------|------------------|
------------------|------------------|------------------|------------------|
------------------|------------------|------------------|------------------|
------------------|------------------|------------------|------------------|


                                                                            
------------------|------------------|------------------|------------------|
------------------|------------------|------------------|------------------|
------------------|------------------|------------------|------------------|
------------------|------------------|------------------|------------------|
------------------|------------------|------------------|------------------|
------------------|------------------|------------------|------------------|


                    
------------------||
------------------||
------------------||
------------------||
------------------||
------------------||

--------------------------------------------------------------------------

2. THE ANSWER LIES WITHIN
Tuning - E,A,D,G,B,E

Bells/Piano/Vocals Intro
  Q=71
 4/4
  Gtr II
   W           W           W           W
|-10--------|-10--------|-10--------|-10----|
|-----------|-----------|-----------|-------|
|-----------|-----------|-----------|-------|
|-----------|-----------|-----------|-------|
|-----------|-----------|-----------|-------|
|-----------|-----------|-----------|-------|


  Gm                        F
  Gtr I
   E  E  E  E  E  E  E  E    E  E  E  E  E  E  E  E
|-------10----------10----|-------10----------10----|
|-11----------11----------|-10----------10----------|
|-------------------------|-------------------------|
|----12----12----12----12-|----12----12----12----12-|
|-------------------------|-------------------------|
|-------------------------|-------------------------|
|
| Gtr II
|  W                         W
|-10----------------------|-10----------------------|
|-------------------------|-------------------------|
|-------------------------|-------------------------|
|-------------------------|-------------------------|
|-------------------------|-------------------------|
|-------------------------|-------------------------|


  Gm                        F
   E  E  E  E  E  E  E  E    E  E  E  E  E  E  Q
|-------10----------10----|-------10----------10---|
|-11----------11----------|-10----------10---------|
|-------------------------|------------------------|
|----12----12----12----12-|----12----12----12------|
|-------------------------|------------------------|
|-------------------------|------------------------|
|
|  W                         W
|-10----------------------|-10---------------------|
|-------------------------|------------------------|
|-------------------------|------------------------|
|-------------------------|------------------------|
|-------------------------|------------------------|
|-------------------------|------------------------|


  Gm                        F
   E  E  E  E  E  E  E  E    E  E  E  E  E  E  E  E
|-------10----------10----|-------10----------10----|
|-11----------11----------|-10----------10----------|
|-------------------------|-------------------------|
|----12----12----12----12-|----12----12----12----12-|
|-10----------------------|--8----------------------|
|-------------------------|-------------------------|
   W                         W


  Eb          Ebm           Bb
   E  E  E  E  E  E  E  E    E  E  E  E  E  E  Q
|-------10----------------|-------------10----13---|
|-------------------13----|-------11-------11------|
|-12----------11-------11-|-10-------10------------|
|----12----12----10-------|----12------------------|
|-------------------------|------------------------|
|-11-----------8----------|-10---------------------|
   H           H             W


  Gm                        F
   E  E  E  E  E  E  E  E    E  E  E  E  E  E  Q
|-------10----------10----|-------10----------10--|
|-11----------11----------|-10----------10--------|
|-------------------------|-----------------------|
|----12----12----12----12-|----12----12----12-----|
|-10----------------------|--8--------------------|
|-------------------------|-----------------------|
   W                         W


  Eb          Ebm           D
   E  E  E  E  E  E  E  E    E  E  E  E  H
|----------11----------11-|-10----------------||
|-------11----------11----|----------10-------||
|-12----------11----------|-------12----11----||
|----13----------13-------|----12-------------||
|-------------------------|-------------------||
|-11-----------8----------|-10----------------||
   H           H             W


 Chorus in Pre-Verse
  Eb      Cm            Bb      Gm
   Q   Q   E  E  E  E    Q   Q   E  E  E  E
|---------------------|---------------------|
|---------------------|---------------------|
|---------------------|------------------12-|
|-13------13----10-13-|-12------12----12----|
|-10--10--10-10-------|-13--13--13----------|
|-11-------8----------|-13------15-15-------|
   H       H             H       H


  Eb        Ebm       Bb
   Q   E  E  Q   Q     E  E  E  E  E  E  E  E
|-------------------|--------------------------|
|-------------------|-------------11-----------|
|-------------------|-------------------10-----|
|-13--------13--10--|-12-------12--------------|
|-13--13-10--9------|-13----13-------------13--|
|-15---------8------|-13-13----------13--------|
   H         H         W


  Eb      Cm        Bb  Dm  Gm
   Q   Q   Q   Q     Q   Q   Q   E  E
|-----------------|-------------------|
|-----------------|-------------------|
|-----------------|-------------------|
|-13------13--10--|--8--10--12--------|
|-10--13--10------|--8--12--10--10-13-|
|-11-------8------|-10-------6--------|
   H       H         H       H


  Eb                    Ebm
   E  E  E  E  Q   Q     E E E  E  Q   Q
|---------------------|---------------11---|
|-------------11------|--------------------|
|-------------12------|-----------10-------|
|-13-------13-----13--|-13---8-10----------|
|-13----13------------|--9-9---------------|
|-11-15---------------|-11-----------------|
   W                     W


  Gm
   E  E  E   E    E  E  E  E    E  E  E   E    E  E  E  E
|-------10-------------10----|-------10-------------10----|
|-11-------------11----------|-11-------------11----------|
|----------------------------|----------------------------|
|----12-----12------12----12-|----12-----12------12----12-|
|----------------------------|--------------------------5-|
|----------------------------|----------------------------|
|
| Gtr III
|  Q     E.    S  Q     Q       Q     E.    S  Q     Q
|--3-----3-----3--3-----3----|--3-----3-----3--3-----3----|
|--3-----3-----3--3-----3----|--3-----3-----3--3-----3----|
|--3-----3-----3--3-----3----|--3-----3-----3--3-----3----|
|----------------------------|----------------------------|
|----------------------------|----------------------------|
|----------------------------|----------------------------|
|
| Gtr IV
|  W                            W
|----------------------------|----------------------------|
|----------------------------|----------------------------|
|----------------------------|----------------------------|
|----------------------------|----------------------------|
|----------------------------|----------------------------|
|----------------------------|----------------------------|


   E  E  E   E    E  E  E  E    E  E  E   E    E  E  E  E
|-------10-------------10----|-------10-------------10------||
|-11-------------11----------|-11-------------11------------||
|----------------------------|------------------------------||
|----12-----12------12----12-|----12-----12------12----12---||
|----------------------------|------------------------------||
|--3-------------------------|------------------------------||
|  W
|
|  Q     E.    S  E  E  Q       Q     E.    S  E  E  Q
|--3-----3-----3--3--3--3----|--3-----3-----3--3--3--3------||
|--3-----3-----3--3--3--3----|--3-----3-----3--3--3--3------||
|--3-----3-----3--3--3--3----|--3-----3-----3--3--3--3------||
|--5-----5-----5--5--5--5----|--5-----5-----5--5--5--5------||
|----------------------------|------------------------------||
|----------------------------|------------------------------||
|
|  W                            H              E  E  E  E
|----------------------------|------------------------------||
|----------------------------|------------------------------||
|----------------------------|------------------------------||
|----------------------------|-----------------0------------||
|----------------------------|--------------------3--1--0---||
|----------------------------|------------------------------||


 Verse #1/Band Enters
  Gm                              F
   E  E  E   E    E  E  E   E      E  E  E   E    E  E  E   E
|-------10-------------10-------|-------10-------------10-------|
|-11-------------11-------------|-10-------------10-------------|
|-------------------------------|-------------------------------|
|----12-----12------12-----12---|----12-----12------12-----12---|
|-10----------------------------|--8----------------------------|
|-------------------------------|-------------------------------|
|  W                               W
|
|  Q     E.    S  E  E  E.    S    Q     E.    S  E  E  E.    S
|--3-----3-----3--3--3--3-----3-|--1-----1-----1--1--1--1-----1-|
|--3-----3-----3--3--3--3-----3-|--1-----1-----1--1--1--1-----1-|
|--3-----3-----3--3--3--3-----3-|--2-----2-----2--2--2--2-----2-|
|--5-----5-----5--5--5--5-----5-|--3-----3-----3--3--3--3-----3-|
|--5-----5-----5--5--5--5-----5-|--3-----3-----3--3--3--3-----3-|
|--3-----3-----3--3--3--3-----3-|--1-----1-----1--1--1--1-----1-|
|
|  W                               W
|-------------------------------|-------------------------------|
|-------------------------------|-------------------------------|
|-------------------------------|-------------------------------|
|-------------------------------|--3----------------------------|
|-------------------------------|-------------------------------|
|--3----------------------------|-------------------------------|


  Eb             Ebm              Bb
   E  E  E   E    E  E  E   E      E  E  E   E    H
|-------10----------------------|----------------18---------|
|----------------------13-------|-------11------------------|
|-12-------------11--------11---|-10--------10--------------|
|----12-----12------10----------|----12---------------------|
|-------------------------------|---------------------------|
|-11--------------8-------------|-10------------------------|
|  H              H                W
|
|  Q     E.    S  E  E  E.    S    Q     E.    S  E E E. S
|--6-----6-----6--6--6--6-----6-|--6-----6-----6--6-6-6--6--|
|--8-----8-----8--7--7--7-----7-|--6-----6-----6--6-6-6--6--|
|--8-----8-----8--8--8--8-----8-|--7-----7-----7--7-7-7--7--|
|--8-----8-----8--8--8--8-----8-|--8-----8-----8--8-8-8--8--|
|--6-----6-----6--6--6--6-----6-|--8-----8-----8--8-8-8--8--|
|-------------------------------|--6-----6-----6--6-6-6--6--|
|
|  H              H                W
|-------------------------------|---------------------------|
|-------------------------------|---------------------------|
|-------------------------------|---------------------------|
|--1----------------------------|--0------------------------|
|-----------------3-------------|---------------------------|
|-------------------------------|---------------------------|


  Gm                              F
   E  E  E   E    E  E  E   E      E  E  E   E    E  E  E   E
|-------10-------------10-------|-------10-------------10-------|
|-11-------------11-------------|-10-------------10-------------|
|-------------------------------|-------------------------------|
|----12-----12------12-----12---|----12-----12------12-----12---|
|-10----------------------------|--8----------------------------|
|-------------------------------|-------------------------------|
|  W                               W
|
|  Q     E.    S  E  E  E.    S    Q     E.    S  E  E  E.    S
|--3-----3-----3--3--3--3-----3-|--1-----1-----1--1--1--1-----1-|
|--3-----3-----3--3--3--3-----3-|--1-----1-----1--1--1--1-----1-|
|--3-----3-----3--3--3--3-----3-|--2-----2-----2--2--2--2-----2-|
|--5-----5-----5--5--5--5-----5-|--3-----3-----3--3--3--3-----3-|
|--5-----5-----5--5--5--5-----5-|--3-----3-----3--3--3--3-----3-|
|--3-----3-----3--3--3--3-----3-|--1-----1-----1--1--1--1-----1-|
|
|  W                               W
|-------------------------------|-------------------------------|
|-------------------------------|-------------------------------|
|-------------------------------|-------------------------------|
|-------------------------------|--3----------------------------|
|--1----------------------------|--5----------------------------|
|--3----------------------------|-------------------------------|


  Eb             Ebm              Bb
   E  E  E   E    E  E  E   E      E  E  E   E    E  E  Q
|-------10----------------------|----------------10----13------|
|----------------------13-------|-------11----------11---------|
|-12-------------11--------11---|-10--------10-----------------|
|----12-----12------10----------|----12------------------------|
|-------------------------------|------------------------------|
|-11--------------8-------------|-10---------------------------|
|  H              H                W
|
|  Q     E.    S  E  E  E.    S    Q     E.    S  E  E  E.   S
|--6-----6-----6--6--6--6-----6-|--6-----6-----6--6--6--6----6-|
|--8-----8-----8--7--7--7-----7-|--6-----6-----6--6--6--6----6-|
|--8-----8-----8--8--8--8-----8-|--7-----7-----7--7--7--7----7-|
|--8-----8-----8--8--8--8-----8-|--8-----8-----8--8--8--8----8-|
|--6-----6-----6--6--6--6-----6-|--8-----8-----8--8--8--8----8-|
|-------------------------------|--6-----6-----6--6--6--6----6-|
|
|  H              H                H              E  E  E  E
|-------------------------------|-----------------------1------|
|-------------------------------|--------------------3-----3---|
|--0----------------------------|-----------------3------------|
|--1--------------4-------------|--3---------------------------|
|-----------------3-------------|--1---------------------------|
|-------------------------------|------------------------------|
                                   W


  Gm                              F
   E  E  E   E    E  E  E   E      E  E  E   E    E  E  E   E
|-------10-------------10-------|-------10-------------10-------|
|-11-------------11-------------|-10-------------10-------------|
|-------------------------------|-------------------------------|
|----12-----12------12-----12---|----12-----12------12-----12---|
|-10----------------------------|--8----------------------------|
|-------------------------------|-------------------------------|
|  W                               W
|
|  Q     E.    S  E  E  E.    S    Q     E.    S  E  E  E.    S
|--3-----3-----3--3--3--3-----3-|--1-----1-----1--1--1--1-----1-|
|--3-----3-----3--3--3--3-----3-|--1-----1-----1--1--1--1-----1-|
|--3-----3-----3--3--3--3-----3-|--2-----2-----2--2--2--2-----2-|
|--5-----5-----5--5--5--5-----5-|--3-----3-----3--3--3--3-----3-|
|--5-----5-----5--5--5--5-----5-|--3-----3-----3--3--3--3-----3-|
|--3-----3-----3--3--3--3-----3-|--1-----1-----1--1--1--1-----1-|
|
|  W                               W
|-------------------------------|-------------------------------|
|-------------------------------|--3----------------------------|
|--0----------------------------|-------------------------------|
|-------------------------------|--3----------------------------|
|--1----------------------------|--5----------------------------|
|--3----------------------------|-------------------------------|


  Eb             Ebm              Bb                  Dm
   E  E  E   E    E  E  E   E      E  E  E   E    H
|-------10----------------------|----------------18---------|
|----------------------13-------|-------11------------------|
|-12-------------11--------11---|-10--------10--------------|
|----12-----12------10----------|----12---------------------|
|-------------------------------|---------------------------|
|-11--------------8-------------|-10------------------------|
|  H              H                W
|
|  Q     E.    S  E  E  E.    S    Q     E.    S  E E E. S
|--6-----6-----6--6--6--6-----6-|--6-----6-----6--6-6-5--5--|
|--8-----8-----8--7--7--7-----7-|--6-----6-----6--6-6-6--6--|
|--8-----8-----8--8--8--8-----8-|--7-----7-----7--7-7-7--7--|
|--8-----8-----8--8--8--8-----8-|--8-----8-----8--8-8-7--7--|
|--6-----6-----6--6--6--6-----6-|--8-----8-----8--8-8-5--5--|
|-------------------------------|--6-----6-----6--6-6-------|
|
|  H              H                H              Q   Q
|-------------------------------|---------------------------|
|--4--------------1-------------|-----------------3---1-----|
|--0----------------------------|--3------------------------|
|--1--------------4-------------|--3------------------------|
|-----------------3-------------|--1------------------------|
|-------------------------------|---------------------------|
                                   W


  Gm                              F
   E  E  E   E    E  E  E   E      E  E  E   E    E  E  E   E
|-10----10-------10----10-------|-10----10-------10----10-------|
|-11----11-------11----11-------|-10----10-------10----10-------|
|-------------------------------|-------------------------------|
|----12-----12------12-----12---|----12-----12------12-----12---|
|-10----------------------------|--8----------------------------|
|-------------------------------|-------------------------------|
|  W                               W
|
|  Q     E.    S  E  E  E.    S    Q     E.    S  E  E  E.    S
|--3-----3-----3--3--3--3-----3-|--1-----1-----1--1--1--1-----1-|
|--3-----3-----3--3--3--3-----3-|--1-----1-----1--1--1--1-----1-|
|--3-----3-----3--3--3--3-----3-|--2-----2-----2--2--2--2-----2-|
|--5-----5-----5--5--5--5-----5-|--3-----3-----3--3--3--3-----3-|
|--5-----5-----5--5--5--5-----5-|--3-----3-----3--3--3--3-----3-|
|--3-----3-----3--3--3--3-----3-|--1-----1-----1--1--1--1-----1-|
|
|  W                               W
|-------------------------------|--1----------------------------|
|--3----------------------------|--3----------------------------|
|--0----------------------------|-------------------------------|
|-------------------------------|--3----------------------------|
|--1----------------------------|--5----------------------------|
|--3----------------------------|-------------------------------|


  Bb             Ebm              D
   E  E  E   E    E  E  E   E      E  E  E   E    H
|-----------11-------------11---|-10------------------------||
|-------11-------------11-------|-----------10--------------||
|-12-------------11-------------|-------12-------11---------||
|----13-------------13----------|----12---------------------||
|-------------------------------|---------------------------||
|-11--------------8-------------|-10------------------------||
|  H              H                W
|
|  Q     E.    S  E  E  E.    S    Q     E.    S  E E E. S
|--6-----6-----6--6--6--6-----6-|--5-----5-----5--5-5-5--5--||
|--8-----8-----8--7--7--7-----7-|--7-----7-----7--7-7-7--7--||
|--8-----8-----8--8--8--8-----8-|--7-----7-----7--7-7-7--7--||
|--8-----8-----8--8--8--8-----8-|--7-----7-----7--7-7-7--7--||
|--6-----6-----6--6--6--6-----6-|--5-----5-----5--5-5-5--5--||
|-------------------------------|---------------------------||
|
|  H              H                H              H
|--3--------------2-------------|--3--------------5---------||
|--4--------------1-------------|--3--------------3---------||
|--0----------------------------|---------------------------||
|--1--------------4-------------|--4--------------4---------||
|-----------------3-------------|--5--------------5---------||
|-------------------------------|---------------------------||


 Chorus #1
  Eb        Cm               Bb        Gm
   Q   Q     E  E  E   E      Q   Q     E  E  E   E
|--------------------------|--------------------------|
|--------------------------|--------------------------|
|--------------------------|---------------------12---|
|-13--------13----10--13---|-12--------12----12-------|
|-10--10----10-10----------|-13--13----13-------------|
|-11---------8-------------|-13--------15-15----------|
|  H         H                H         H
|
|  Q   E. S  E  E  E.    S    Q   E. S  E  E  E.    S
|--6---6--6--3--3--3-----3-|--6---6--6--3--3--3-----3-|
|--8---8--8--4--4--4-----4-|--6---6--6--3--3--3-----3-|
|--8---8--8--5--5--5-----5-|--7---7--7--3--3--3-----3-|
|--8---8--8--5--5--5-----5-|--8---8--8--5--5--5-----5-|
|--6---6--6--3--3--3-----3-|--8---8--8--5--5--5-----5-|
|--------------------------|--6---6--6--3--3--3-----3-|
|
|  H         H                H         H
|--6---------6-------------|--6---------3-------------|
|--8---------4-------------|--8---------6-------------|
|--8---------5-------------|--7---------7-------------|
|--8---------5-------------|--8---------8-------------|
|--------------------------|--------------------------|
|--------------------------|--------------------------|


  Eb           Ebm            Bb             Dm
   Q   E   E    Q     Q        E  E  E   E    E  E  E   E
|---------------------------|--------------------------------|
|---------------------------|----------------11--------------|
|---------------------------|----------------------10--------|
|-13-----------13----10-----|-12--------12-------------------|
|-13--13--10----9-----------|-13----13-----------------13----|
|-15------------8-----------|-13-13-------------13-----------|
|  H            H              W
|
|  Q   E.    S  E  E  E.  S    Q     E.    S  E  E  E.    S
|--6---6-----6-11-11-11--11-|--6-----6-----6--5--5--5-----5--|
|--8---8-----8-11-11-11--11-|--6-----6-----6--6--6--6-----6--|
|--8---8-----8-11-11-11--11-|--7-----7-----7--7--7--7-----7--|
|--8---8-----8-13-13-13--13-|--8-----8-----8--7--7--7-----7--|
|--6---6-----6-13-13-13--13-|--8-----8-----8--5--5--5-----5--|
|--------------11-11-11--11-|--6-----6-----6-----------------|
|
|  H            H              H              E  E  E   E
|--6------------6-----------|--6-------------10-11-10---8----|
|--4------------1-----------|--6--------------6--------------|
|--0------------3-----------|--7--------------7--------------|
|--1------------4-----------|--8--------------7--------------|
|---------------------------|--------------------------------|
|---------------------------|--------------------------------|
                               H              H


  Eb        Cm           Bb  Dm    Gm
   Q   Q     Q    Q       Q   Q     Q    E   E
|----------------------|-------------------------|
|----------------------|-------------------------|
|----------------------|-------------------------|
|-13--------13---10----|--8--10----12------------|
|-10--13----10---------|--8--12----10---10--13---|
|-11---------8---------|-10---------6------------|
|  H         H            H         H
|
|  Q   E. S  E E  E. S    Q   E. S  E E  E.    S
|--6---6--6--3-3--3--3-|--6---5--5--3-3--3-----3-|
|--8---8--8--4-4--4--4-|--6---6--6--3-3--3-----3-|
|--8---8--8--5-5--5--5-|--7---7--7--3-3--3-----3-|
|--8---8--8--5-5--5--5-|--8---7--7--5-5--5-----5-|
|--6---6--6--3-3--3--3-|--8---5--5--5-5--5-----5-|
|----------------------|--6---------3-3--3-----3-|
|
|  H         H            Q   Q     H
|--6---------6---------|--6---5-----3------------|
|--8---------4---------|--6---6-----6------------|
|--8---------5---------|--7---7-----7------------|
|--8---------5---------|--8---7-----8------------|
|----------------------|-------------------------|
|----------------------|-------------------------|


  Eb                          Ebm
   E  E  E   E    Q    Q       E E E   E    Q    Q
|---------------------------|-------------------11----|
|----------------11---------|-------------------------|
|----------------12---------|--------------10---------|
|-13--------13--------13----|-13---8--10--------------|
|-13----13------------------|--9-9--------------------|
|-11-15---------------------|-11----------------------|
|  W                           W
|
|  Q     E.    S  E E  E. S    Q   E.    S  E E  E. S
|--6-----6-----6--6-6--6--6-|--6---6-----6--6-6--6--6-|
|--8-----8-----8--8-8--8--8-|--7---7-----7--7-7--7--7-|
|--8-----8-----8--8-8--8--8-|--8---8-----8--8-8--8--8-|
|--8-----8-----8--8-8--8--8-|--8---8-----8--8-8--8--8-|
|--6-----6-----6--6-6--6--6-|--6---6-----6--6-6--6--6-|
|---------------------------|-------------------------|
|
|  W                           W
|-11------------------------|-11----------------------|
|--8------------------------|--7----------------------|
|--8------------------------|--8----------------------|
|--8------------------------|--8----------------------|
|---------------------------|-------------------------|
|---------------------------|-------------------------|


  Bb
   E  E  E   E    E  E  E   E      E  E  E   E    E  E  E   E
|-18----10-------18----10-------|-18----10-------18----10-------||
|-15----11-------15----11-------|-15----11-------15----11-------||
|-------------------------------|-------------------------------||
|----12-----12------12-----12---|----12-----12------12-----12---||
|-------------------------------|-------------------------------||
|-------------------------------|-------------------------------||
|
|  Q     E.    S  E  E  E.    S    Q     E.    S  E  E  E.    S
|--6-----6-----6--6--6--6-----6-|--6-----6-----6--6--6--6-----6-||
|--6-----6-----6--6--6--6-----6-|--6-----6-----6--6--6--6-----6-||
|--7-----7-----7--7--7--7-----7-|--7-----7-----7--7--7--7-----7-||
|--8-----8-----8--8--8--8-----8-|--8-----8-----8--8--8--8-----8-||
|--8-----8-----8--8--8--8-----8-|--8-----8-----8--8--8--8-----8-||
|--6-----6-----6--6--6--6-----6-|--6-----6-----6--6--6--6-----6-||
|
|  Q     Q        Q     Q          Q     Q        Q     Q
|--6----10--------6----10-------|-18----13-------10-----6-------||
|--6----11--------6----11-------|-18----15-------11-----6-------||
|--7----10--------7----10-------|-19----15-------10-----7-------||
|--8----12--------8----12-------|-20----15-------12-----8-------||
|-------------------------------|-------------------------------||
|-------------------------------|-------------------------------||


 Verse #2
  F                             Cm
   Q    Q       E  E  E   E      +E   Q      Q       Q      E
|-----------------------------|------11-----10------------------|
|-13---13------13-13-15--16---|-(16)-13-----13------13----------|
|-14---14------14-14-14--14---|-(14)----------------14-----14---|
|-----------------------------|----------------------------15---|
|-----------------------------|---------------------------------|
|-----------------------------|---------------------------------|
|
|  Q    E.   S  E  E  E.    S     Q      E.    S  E  E  E.    S
|--1----1----1--1--1--1-----1-|---3------3-----3--3--3--3-----3-|
|--1----1----1--1--1--1-----1-|---4------4-----4--4--4--4-----4-|
|--2----2----2--2--2--2-----2-|---5------5-----5--5--5--5-----5-|
|--3----3----3--3--3--3-----3-|---5------5-----5--5--5--5-----5-|
|--3----3----3--3--3--3-----3-|---3------3-----3--3--3--3-----3-|
|--1----1----1--1--1--1-----1-|---------------------------------|
|
|  E E  E  E    E  E  E   E       E   E  E   E    E  E  E   E
|--8-8--8--8----8--8--8---8---|--11--11-11--11---11-11-11--11---|
|--6-6--6--6----6--6--6---6---|--13--13-13--13---13-13-13--13---|
|--5-5--5--5----5--5--5---5---|--12--12-12--12---12-12-12--12---|
|-----------------------------|---------------------------------|
|-----------------------------|---------------------------------|
|-----------------------------|---------------------------------|


  F                              Cm
   +H            E  E  E   E      +Q      Q        Q     Q
|------------------------------|------------------10----11-------|
|---------------------13-------|------------------11----13-------|
|-(14)----------14-15-14--12---|-(12)----10----------------------|
|-(15)----------15-15-----12---|-(12)----12----------------------|
|------------------------------|---------------------------------|
|------------------------------|---------------------------------|
|
|   Q    E.   S  E  E  E.    S     Q      E.    S  E  E  E.    S
|---1----1----1--1--1--1-----1-|---3------3-----3--3--3--3-----3-|
|---1----1----1--1--1--1-----1-|---4------4-----4--4--4--4-----4-|
|---2----2----2--2--2--2-----2-|---5------5-----5--5--5--5-----5-|
|---3----3----3--3--3--3-----3-|---5------5-----5--5--5--5-----5-|
|---3----3----3--3--3--3-----3-|---3------3-----3--3--3--3-----3-|
|---1----1----1--1--1--1-----1-|---------------------------------|
|
|   E  E E  E    E  E  E   E       E   E  E   E    E  E  E   E
|---8--8-8--8----8--8--8---8---|--11--11-11--11---11-11-11--11---|
|---6--6-6--6----6--6--6---6---|--13--13-13--13---13-13-13--13---|
|---5--5-5--5----5--5--5---5---|--12--12-12--12---12-12-12--12---|
|------------------------------|---------------------------------|
|------------------------------|---------------------------------|
|------------------------------|---------------------------------|


  F                             D
   Q    Q       E  E  E   E      +E   Q      Q       Q      E
|-----------------------------|------11-----10------------------|
|------13------13-13-15--16---|-(16)-13-----13------13-----13---|
|-14---14------14-14-14--14---|-(14)----------------14-----14---|
|-15---15---------------------|---------------------------------|
|-----------------------------|---------------------------------|
|-----------------------------|---------------------------------|
|
|  Q    E.   S  E  E  E.    S     Q      E.    S  E  E  E.    S
|--1----1----1--1--1--1-----1-|---5------5-----5--5--5--5-----5-|
|--1----1----1--1--1--1-----1-|---7------7-----7--7--7--7-----7-|
|--2----2----2--2--2--2-----2-|---7------7-----7--7--7--7-----7-|
|--3----3----3--3--3--3-----3-|---7------7-----7--7--7--7-----7-|
|--3----3----3--3--3--3-----3-|---5------5-----5--5--5--5-----5-|
|--1----1----1--1--1--1-----1-|---------------------------------|
|
|  E E  E  E    E  E  E   E       E   E  E   E    E  E  E   E
|--8-8--8--8----8--8--8---8---|--11--11-11--11---11-11-11--11---|
|--6-6--6--6----6--6--6---6---|--13--13-13--13---13-13-13--13---|
|--5-5--5--5----5--5--5---5---|--11--11-11--11---11-11-11--11---|
|-----------------------------|---------------------------------|
|-----------------------------|---------------------------------|
|-----------------------------|---------------------------------|


  Gm                              Eb
   H              E  E  E   E      +Q      Q        Q     Q
|----------------------10--13---|-(13)----11-------10-----8-------|
|-11-------------11-13----------|---------------------------------|
|-12----------------------------|---------------------------------|
|-------------------------------|---------------------------------|
|-------------------------------|---------------------------------|
|-------------------------------|---------------------------------|
|
|  Q     E.    S  E  E  E.    S     Q      E.    S  E  E  E.    S
|--3-----3-----3--3--3--3-----3-|---6------6-----6--6--6--6-----6-|
|--3-----3-----3--3--3--3-----3-|---8------8-----8--8--8--8-----8-|
|--3-----3-----3--3--3--3-----3-|---8------8-----8--8--8--8-----8-|
|--5-----5-----5--5--5--5-----5-|---8------8-----8--8--8--8-----8-|
|--5-----5-----5--5--5--5-----5-|---6------6-----6--6--6--6-----6-|
|--3-----3-----3--3--3--3-----3-|---------------------------------|
|
|  E  E  E   E    E  E  E   E       E   E  E   E    E  E  E   E
|-10-10-10--10---10-10-10--10---|--11--11-11--11---11-11-11--11---|
|-11-11-11--11---11-11-11--11---|--11--11-11--11---11-11-11--11---|
|-12-12-12--12---12-12-12--12---|--12--12-12--12---12-12-12--12---|
|-------------------------------|---------------------------------|
|-------------------------------|---------------------------------|
|-------------------------------|---------------------------------|


  Bb
   E  E  E   E    E  E  E   E      H      H
|-18----10-------18----10-------|-18-----10----------||
|-15----11-------15----11-------|-15-----11----------||
|-------------------------------|--------------------||
|----12-----12------12-----12---|--------------------||
|-------------------------------|--------------------||
|-------------------------------|--------------------||
|
|  Q     E.    S  E  E  E.    S    W
|--6-----6-----6--6--6--6-----6-|--6-----------------||
|--6-----6-----6--6--6--6-----6-|--6-----------------||
|--7-----7-----7--7--7--7-----7-|--7-----------------||
|--8-----8-----8--8--8--8-----8-|--8-----------------||
|--8-----8-----8--8--8--8-----8-|--8-----------------||
|--6-----6-----6--6--6--6-----6-|--6-----------------||
|
|  W                              +W
|--6----------------------------|-(6)----------------||
|--6----------------------------|-(6)----------------||
|--7----------------------------|-(7)----------------||
|--8----------------------------|-(8)----------------||
|-------------------------------|--------------10-12-||
|-------------------------------|---------------3--5-||
                                   H.        E  S  S


 Orchestra Solo
  Gm                                   F
   E   E  E   E    E  E      E   E      E   E  E   E    E  E  E   E
|--------10-----------------10-------|--------10-------------10-------|
|-11--------------11-----------------|-10--------------10-------------|
|------------------------------------|--------------------------------|
|-----12-----12------12---------12---|-----12-----12------12-----12---|
|-10---------------------------------|--8-----------------------------|
|------------------------------------|--------------------------------|
|  W                                    W
|
|  Q      E.    S  E  E      E.    S    Q      E.    S  E  E  E.    S
|--3------3-----3--3--3------3-----3-|--1------1-----1--1--1--1-----1-|
|--3------3-----3--3--3------3-----3-|--1------1-----1--1--1--1-----1-|
|--3------3-----3--3--3------3-----3-|--2------2-----2--2--2--2-----2-|
|--5------5-----5--5--5------5-----5-|--3------3-----3--3--3--3-----3-|
|--5------5-----5--5--5------5-----5-|--3------3-----3--3--3--3-----3-|
|--3------3-----3--3--3------3-----3-|--1------1-----1--1--1--1-----1-|
|
|  H.                    a   E   E     +H.                    E   E
|------------------------------------|--------------------------------|
|------------------------------------|--------------------------------|
|--3--------------------(3)S=7---2---|-(2)------------------------0---|
|------------------------------------|------------------------3-------|
|--1--------------------(1)S=5---0---|-(0)----------------------------|
|------------------------------------|------------------------1---3---|


  Eb              Ebm              Bb
   E   E  E   E    E  E  E   E      E   E  E   E    E  E    E     E
|--------11----------------------|-----------------10------13----10---|
|-----------------------13-------|--------11----------11--------------|
|-12---------12---11--------11---|-10---------10----------------------|
|-----13-------------10----------|-----12-----------------------------|
|--------------------------------|------------------------------------|
|-11---------------8-------------|-10---------------------------------|
|  H               H                W
|
|  Q      E.    S  E  E  E.    S    Q      E.    S  E  E    E.      S
|--6------6-----6--6--6--6-----6-|--6------6-----6--6--6----6-------6-|
|--8------8-----8--7--7--7-----7-|--6------6-----6--6--6----6-------6-|
|--8------8-----8--8--8--8-----8-|--7------7-----7--7--7----7-------7-|
|--8------8-----8--8--8--8-----8-|--8------8-----8--8--8----8-------8-|
|--6------6-----6--6--6--6-----6-|--8------8-----8--8--8----8-------8-|
|--------------------------------|--6------6-----6--6--6----6-------6-|
|
| +E   Q      Q       Q      E     +H               E  S S  S  S  S S
|--------------------------------|------------------------------------|
|---------------------4------3---|-(3)-----------------3-4--3--1------|
|-(0)--2------3------------------|--------------------------------3-2-|
|---------------------1------0---|-(0)-----------------0-1--0---------|
|------0------1------------------|-----------------------------3--1-0-|
|-(3)----------------------------|------------------------------------|


  Gm                                    F
   E  E  E     E    E  E      E   E      E   E  E   E    E  E  E   E
|-------10-------------------10-------|--------10-------------10-------|
|-11---------------11-----------------|-10--------------10-------------|
|-------------------------------------|--------------------------------|
|----12-------12------12---------12---|-----12-----12------12-----12---|
|-10----------------------------------|--8-----------------------------|
|-------------------------------------|--------------------------------|
|  W                                     W
|
|  Q     E.      S  E  E      E.    S    Q      E.    S  E  E  E.    S
|--3-----3-------3--3--3------3-----3-|--1------1-----1--1--1--1-----1-|
|--3-----3-------3--3--3------3-----3-|--1------1-----1--1--1--1-----1-|
|--3-----3-------3--3--3------3-----3-|--2------2-----2--2--2--2-----2-|
|--5-----5-------5--5--5------5-----5-|--3------3-----3--3--3--3-----3-|
|--5-----5-------5--5--5------5-----5-|--3------3-----3--3--3--3-----3-|
|--3-----3-------3--3--3------3-----3-|--1------1-----1--1--1--1-----1-|
|
|  Q     S  S  S S  Q     a   Q          H.                    E   E
|-------------------3----(3)S=6\------|--1-----------------------------|
|----------------3--------------------|------------------------3---4---|
|--3-----0--2--3----0----(0)S=3\------|--------------------------------|
|----------------0--------------------|--3---------------------0---1---|
|--1--------0--1----------------------|--------------------------------|
|--------3----------------------------|--------------------------------|


  Eb              Ebm              D
   E   E  E   E    E  E  E   E      E   E  E   E    H
|--------11----------------------|-10-----------------------------------------|
|-----------------------13-------|------------10------------------------------|
|-12---------12---11--------11---|--------12-------11-------------------------|
|-----13-------------10----------|-----12-------------------------------------|
|--------------------------------|--------------------------------------------|
|-11---------------8-------------|-10-----------------------------------------|
|  H               H                W
|
|  Q      E.    S  E  E  E.    S    Q      E.    S  E     E     E.        S
|--6------6-----6--6--6--6-----6-|--5------5-----5--5-----5-----5---------5---|
|--8------8-----8--7--7--7-----7-|--7------7-----7--7-----7-----7---------7---|
|--8------8-----8--8--8--8-----8-|--7------7-----7--7-----7-----7---------7---|
|--8------8-----8--8--8--8-----8-|--7------7-----7--7-----7-----7---------7---|
|--6------6-----6--6--6--6-----6-|--5------5-----5--5-----5-----5---------5---|
|--------------------------------|--------------------------------------------|
|
| +Q      E   E    E  Q      E     +H               S  S  S  S  S   S  S  S
|--------------------------------|-----------------10----------10-------------|
|-(4)-----3-----------1------3---|-(3)----------------10-----------10---------|
|-------------3----3-------------|------------------7----11-----7-----11------|
|-(1)-----0------------------0---|-(0)-----------------7----12------7----12---|
|-------------1----1--3----------|------------------------9------------9------|
|--------------------------------|--------------------------10-----------10---|


 Final Chorus
  Eb        Cm               Bb        Gm
   Q   Q     E  E  E   E      Q   Q     E  E  E   E
|--------------------------|--------------------------|
|--------------------------|--------------------------|
|--------------------------|---------------------12---|
|-13--------13----10--13---|-12--------12----12-------|
|-10--10----10-10----------|-13--13----13-------------|
|-11---------8-------------|-13--------15-15----------|
|  H         H                H         H
|
|  Q   E. S  E  E  E.    S    Q   E. S  E  E  E.    S
|--6---6--6--3--3--3-----3-|--6---6--6--3--3--3-----3-|
|--8---8--8--4--4--4-----4-|--6---6--6--3--3--3-----3-|
|--8---8--8--5--5--5-----5-|--7---7--7--3--3--3-----3-|
|--8---8--8--5--5--5-----5-|--8---8--8--5--5--5-----5-|
|--6---6--6--3--3--3-----3-|--8---8--8--5--5--5-----5-|
|--------------------------|--6---6--6--3--3--3-----3-|
|
|  H         H                H         H
|-11---------6-------------|--6---------3-------------|
|--8---------4-------------|--8---------6-------------|
|--8---------5-------------|--7---------7-------------|
|--8---------5-------------|--8---------8-------------|
|--------------------------|--------------------------|
|--------------------------|--------------------------|


  Eb           Ebm            Bb             Dm
   Q   E   E    Q     Q        E  E  E   E    E  E  E   E
|---------------------------|--------------------------------|
|---------------------------|----------------11--------------|
|---------------------------|----------------------10--------|
|-13-----------13----10-----|-12--------12-------------------|
|-13--13--10----9-----------|-13----13-----------------13----|
|-15------------8-----------|-13-13-------------13-----------|
|  H            H              W
|
|  Q   E.    S  E  E  E.  S    Q     E.    S  E  E  E.    S
|--6---6-----6-11-11-11--11-|--6-----6-----6--5--5--5-----5--|
|--8---8-----8-11-11-11--11-|--6-----6-----6--6--6--6-----6--|
|--8---8-----8-11-11-11--11-|--7-----7-----7--7--7--7-----7--|
|--8---8-----8-13-13-13--13-|--8-----8-----8--7--7--7-----7--|
|--6---6-----6-13-13-13--13-|--8-----8-----8--5--5--5-----5--|
|--------------11-11-11--11-|--6-----6-----6-----------------|
|
|  H            H              H              E  E  E   E
|--6------------6-----------|--6-------------10-11-10---8----|
|--4------------1-----------|--6--------------6--------------|
|--0------------3-----------|--7--------------7--------------|
|--1------------4-----------|--8--------------7--------------|
|---------------------------|--------------------------------|
|---------------------------|--------------------------------|
                               H              H


  Eb        Cm           Bb  Dm    Gm
   Q   Q     Q    Q       Q   Q     Q    E   E
|----------------------|-------------------------|
|----------------------|-------------------------|
|----------------------|-------------------------|
|-13--------13---10----|--8--10----12------------|
|-10--13----10---------|--8--12----10---10--13---|
|-11---------8---------|-10---------6------------|
|  H         H            H         H
|
|  Q   E. S  E E  E. S    Q   E. S  E E  E.    S
|--6---6--6--3-3--3--3-|--6---5--5--3-3--3-----3-|
|--8---8--8--4-4--4--4-|--6---6--6--3-3--3-----3-|
|--8---8--8--5-5--5--5-|--7---7--7--3-3--3-----3-|
|--8---8--8--5-5--5--5-|--8---7--7--5-5--5-----5-|
|--6---6--6--3-3--3--3-|--8---5--5--5-5--5-----5-|
|----------------------|--6---------3-3--3-----3-|
|
|  H         H            Q   Q     H
|--6---------6---------|--6---5-----3------------|
|--8---------4---------|--6---6-----6------------|
|--8---------5---------|--7---7-----7------------|
|--8---------5---------|--8---7-----8------------|
|----------------------|-------------------------|
|----------------------|-------------------------|


  Eb                   Ebm
   Q  Q     Q   Q       Q  Q    Q   Q
|--------------------|-------------------|
|-----8---------8----|-----7--------7----|
|-----8---------8----|-----8--------8----|
|--------------------|-------------------|
|-10-------10--------|--9-------9--------|
|--------------------|-------------------|
|
|  Q  E. S  E E E. S    Q  E. S E E E. S
|--6--6--6--6-6-6--6-|--6--6--6-6-6-6--6-|
|--8--8--8--8-8-8--8-|--7--7--7-7-7-7--7-|
|--8--8--8--8-8-8--8-|--8--8--8-8-8-8--8-|
|--8--8--8--8-8-8--8-|--8--8--8-8-8-8--8-|
|--6--6--6--6-6-6--6-|--6--6--6-6-6-6--6-|
|--------------------|-------------------|
|
|  W                    W
|-11-----------------|-11----------------|
|--8-----------------|--7----------------|
|--8-----------------|--8----------------|
|--8-----------------|--8----------------|
|--------------------|-------------------|
|--------------------|-------------------|


  D                   Eb        Cm
   Q  Q    Q   Q       Q   Q     Q    Q
|-------------------|----------------------|
|-----7--------7----|----------------------|
|-----7--------7----|----------------------|
|-------------------|-13--------13---10----|
|--5-------5--------|-10--13----10---------|
|-------------------|-11---------8---------|
|                      H         H
|
|  Q  E. S E E E. S    Q   E. S  E E  E. S
|--5--5--5-5-5-5--5-|--6---6--6--3-3--3--3-|
|--7--7--7-7-7-7--7-|--8---8--8--4-4--4--4-|
|--7--7--7-7-7-7--7-|--8---8--8--5-5--5--5-|
|--7--7--7-7-7-7--7-|--8---8--8--5-5--5--5-|
|--5--5--5-5-5-5--5-|--6---6--6--3-3--3--3-|
|-------------------|----------------------|
|
|  W                   H         H
|-14----------------|--6---------6---------|
|-15----------------|--8---------4---------|
|-14----------------|--8---------5---------|
|-12----------------|--8---------5---------|
|-------------------|----------------------|
|-------------------|----------------------|


  Bb  Dm    Gm              Eb                  Ebm
   Q   Q     Q    E   E      Q  Q     Q  Q       Q  Q    Q  Q
|-------------------------|-------------------|-------------------|
|-------------------------|-----8--------8----|-----7-------7-----|
|-------------------------|-----8--------8----|-----8-------8-----|
|--8--10----12------------|-------------------|-------------------|
|--8--12----10---10--13---|-10-------10-------|--9-------9--------|
|-10---------6------------|-------------------|-------------------|
|  H         H
|
|  Q   E. S  E E  E.    S    Q  E. S  Q  E. S    Q  E. S Q  E. S
|--6---5--5--3-3--3-----3-|--6--6--6--6--6--6-|--6--6--6-6--6--6--|
|--6---6--6--3-3--3-----3-|--8--8--8--8--8--8-|--7--7--7-7--7--7--|
|--7---7--7--3-3--3-----3-|--8--8--8--8--8--8-|--8--8--8-8--8--8--|
|--8---7--7--5-5--5-----5-|--8--8--8--8--8--8-|--8--8--8-8--8--8--|
|--8---5--5--5-5--5-----5-|--6--6--6--6--6--6-|--6--6--6-6--6--6--|
|--6---------3-3--3-----3-|-------------------|-------------------|
|
|  Q   Q     H               W                   W
|--6---5-----3------------|-11----------------|-11----------------|
|--6---6-----6------------|--8----------------|--7----------------|
|--7---7-----7------------|--8----------------|--8----------------|
|--8---7-----8------------|-------------------|-------------------|
|-------------------------|-------------------|-------------------|
|-------------------------|-------------------|-------------------|


  Bb
   E  E  E   E    E  E  E   E      E   E  E   E    E  E  E   E
|-10-------------10----13-------|-18-----13-------10-------------|
|-11----11-------11----11-------|-15-----11-------11----11-------|
|-------10----------------------|-----------------------10-------|
|----12-----12------12-----12---|-----12-----12------12-----12---|
|-------------------------------|--------------------------------|
|-------------------------------|--------------------------------|
|
|  Q     E.    S  E  E  E.    S    Q      E.    S  Q     E.    S
|--6-----6-----6--6--6--6-----6-|--6------6-----6--6-----6-----6-|
|--6-----6-----6--6--6--6-----6-|--6------6-----6--6-----6-----6-|
|--7-----7-----7--7--7--7-----7-|--7------7-----7--7-----7-----7-|
|--8-----8-----8--8--8--8-----8-|--8------8-----8--8-----8-----8-|
|--8-----8-----8--8--8--8-----8-|--8------8-----8--8-----8-----8-|
|--6-----6-----6--6--6--6-----6-|--6------6-----6--6-----6-----6-|
|
|  W                              +W
|-------------------------------|--------------------------------|
|-------------------------------|--------------------------------|
|-------------------------------|--------------------------------|
|-------------------------------|--------------------------------|
|--1----------------------------|-(1)----------------------------|
|-------------------------------|--------------------------------|


  Gm                                   F
   E   E  E   E    E  E      E   E      E   E  E   E    E  E  E   E
|--------10-----------------10-------|--------10-------------10-------|
|-11--------------11-----------------|-10--------------10-------------|
|------------------------------------|--------------------------------|
|-----12-----12------12---------12---|-----12-----12------12-----12---|
|-10---------------------------------|--8-----------------------------|
|------------------------------------|--------------------------------|
|  W                                    W
|
|  Q      E.    S  E  E      E.    S    Q      E.    S  E  E  E.    S
|--3------3-----3--3--3------3-----3-|--1------1-----1--1--1--1-----1-|
|--3------3-----3--3--3------3-----3-|--1------1-----1--1--1--1-----1-|
|--3------3-----3--3--3------3-----3-|--2------2-----2--2--2--2-----2-|
|--5------5-----5--5--5------5-----5-|--3------3-----3--3--3--3-----3-|
|--5------5-----5--5--5------5-----5-|--3------3-----3--3--3--3-----3-|
|------------------------------------|--------------------------------|
|
|  H.                    a   E   E     +W
|------------------------------------|--------------------------------|
|------------------------------------|--------------------------------|
|--3--------------------(3)S=7---2---|-(2)----------------------------|
|------------------------------------|--3-----------------------------|
|------------------------------------|--------------------------------|
|--3---------------------------------|--------------------------------|
   W                                    W


  Gm                                   F
   E   E  E   E    E  E      E   E      E   E  E   E    E  E  E   E
|--------10-------13--------10-------|--------10-------13----10--------|
|-11--------------11-----------------|-10--------------10--------------|
|------------------------------------|---------------------------------|
|-----12-----12------12---------12---|-----12-----12------12-----12----|
|-10---------------------------------|--8------------------------------|
|------------------------------------|---------------------------------|
|  W                                    W
|
|  Q      E.    S  E  E      E.    S    Q      E.    S  E  E  E.    S
|--3------3-----3--3--3------3-----3-|--1------1-----1--1--1--1-----1--|
|--3------3-----3--3--3------3-----3-|--1------1-----1--1--1--1-----1--|
|--3------3-----3--3--3------3-----3-|--2------2-----2--2--2--2-----2--|
|--5------5-----5--5--5------5-----5-|--3------3-----3--3--3--3-----3--|
|------------------------------------|---------------------------------|
|------------------------------------|---------------------------------|
|
|  H.                    a   E   E     +W
|------------------------------------|---------------------------------|
|------------------------------------|---------------------------------|
|--3--------------------(3)S=7---2---|-(2)-----------------------------|
|------------------------------------|--3------------------------------|
|------------------------------------|---------------------------------|
|--3---------------------------------|---------------------------------|
   W                                    W


  Gm                              F
   E  E  E   E    E  E  E   E      E  E  E   E    E  E  E   E
|-------10-------------10-------|-------10-------------10-------|
|-11-------------11-------------|-10-------------10-------------|
|-------------------------------|-------------------------------|
|----12-----12------12-----12---|----12-----12------12-----12---|
|-10----------------------------|--8----------------------------|
|-------------------------------|-------------------------------|
|  W                               W
|
|  Q     E.    S  E  E  E.    S    Q     E.    S  E  E  E.    S
|--3-----3-----3--3--3--3-----3-|--1-----1-----1--1--1--1-----1-|
|--3-----3-----3--3--3--3-----3-|--1-----1-----1--1--1--1-----1-|
|--3-----3-----3--3--3--3-----3-|--2-----2-----2--2--2--2-----2-|
|--5-----5-----5--5--5--5-----5-|--3-----3-----3--3--3--3-----3-|
|-------------------------------|-------------------------------|
|-------------------------------|-------------------------------|
|
|  W                               W
|-------------------------------|-------------------------------|
|-------------------------------|-------------------------------|
|--3----------------------------|--2----------------------------|
|-------------------------------|--3----------------------------|
|-------------------------------|-------------------------------|
|--3----------------------------|-------------------------------|


  Gm                              F                        Gm
   E  E  E   E    E  E  E   E      E  E  E   E    H        W
|-------10-------15----10-------|-------10-------13------|------*|
|-11-------------11-------------|-10-------------10------|------*|
|-------------------------------|------------------------|-3----*|
|----12-----12------12-----12---|----12-----12-----------|-0----*|
|-10----------------------------|--8---------------------|------*|
|-------------------------------|------------------------|-3----*|
|  W                               W
|
|  Q     E.    S  E  E  E.    S    Q     E.    S  E E Q    W
|--3-----3-----3--3--3--3-----3-|--1-----1-----1--1-1-1--|-3----*|
|--3-----3-----3--3--3--3-----3-|--1-----1-----1--1-1-1--|-3----*|
|--3-----3-----3--3--3--3-----3-|--2-----2-----2--2-2-2--|------*|
|-------------------------------|------------------------|------*|
|-------------------------------|------------------------|------*|
|-------------------------------|------------------------|------*|
|
|  W                               W                       W
|-------------------------------|------------------------|------*|
|-------------------------------|------------------------|------*|
|--3----------------------------|--2---------------------|------*|
|-------------------------------|--3---------------------|------*|
|-------------------------------|------------------------|------*|
|--3----------------------------|------------------------|-3----*|

--------------------------------------------------------------------------

3. THESE WALLS
Tuning - A,D,G,C,F,A,D (7-String)

D||-------------------|------------------------------------|
A||-------------------|------------------------------------|
F||-------------------|------------------------------------|
C||-------------------|------------------------------------|
G||--2----------------|------------------------------------|
D||--2----------------|------------------7-----------------|
A||--0----------------|--0--0----0----0-----0----0--3-5-7--|


                                                                          
------------------------------------|------------------------------------|
------------------------------------|------------------------------------|
------------------------------------|------------------------------------|
------------------------------------|------------------------------------|
------------------------------------|------------------------------------|
------------------3-----------------|------------------7-----------------|
--0--0----0----0-----0----0--3-5-7--|--0--0----0----0-----0----0--3-5-7--|


                                                                            
-----------------------------------|-------------------|-------------------|
-----------------------------------|-------------------|-------------------|
-----------------------------------|-------------------|-------------------|
-----------------------------------|-------------------|-------------------|
-----------------------------------|--2----------------|--5----------------|
--------3-2-0----------------------|--2----------------|--5----------------|
--0---0-------3-2-0-5--------------|--0----------------|-------------------|


                                                                     
-------------------|----------------------------|-------------------|
-------------------|----------------------------|-------------------|
-------------------|----------------------------|-------------------|
-------------------|----------------------------|-------------------|
--5----------------|--5------------7------------|--2----------------|
--3----------------|--3------------5------------|--2----------------|
-------------------|----------------------------|--0----------------|


                                                                     
-------------------|-------------------|----------------------------|
-------------------|-------------------|----------------------------|
-------------------|-------------------|----------------------------|
-------------------|-------------------|----------------------------|
--5----------------|--7----------------|--7------------9------------|
--5----------------|--7----------------|--7------------9------------|
-------------------|--5----------------|--5------------7------------|


                                                            
-------------------|-------------------|-------------------|
-------------------|-------------------|-------------------|
-------------------|-------------------|-------------------|
-------------------|-------------------|-------------------|
--2----------------|--5----------------|--5----------------|
--2----------------|--5----------------|--3----------------|
--0----------------|-------------------|-------------------|


                                                                    
----------------------------|-------------------|------------------|
----------------------------|-------------------|------------------|
----------------------------|-------------------|------------------|
----------------------------|--2----------------|------------------|
--5------------7------------|--2----------------|------------------|
--3------------5------------|--0----------------|------------------|
----------------------------|-------------------|------------------|


                                                                              
-------------------|--------------------------|--2---------------------------|
-------------------|--------------------------|---------3-------------3------|
-------------------|--------------------------|----------------4-------------|
--5----------------|--------------------------|------------------------------|
--5----------------|--------------------------|------------------------------|
--3----------------|--------------------------|------------------------------|
-------------------|--------------------------|------------------------------|


                                                              
----------------------------|-----------------0--------------|
--2-------------------------|------------2---------2---------|
---------------4------------|-------4-------------------4----|
----------------------------|--4-----------------------------|
----------------------------|--------------------------------|
----------------------------|--------------------------------|
----------------------------|--------------------------------|


                                                         
---------0----------------|-----------------------------|
----------------0----2----|--3---------------------3----|
--------------------------|---------------4-------------|
--4-----------------------|-----------------------------|
--------------------------|-----------------------------|
--------------------------|-----------------------------|
--------------------------|-----------------------------|


                                                              
----------------------------|--------------------------------|
--2------------2------------|-----------------3--------------|
----------------------------|------------4---------4---------|
----------------------------|-------4-------------------4----|
----------------------------|--2-----------------------------|
----------------------------|--------------------------------|
----------------------------|--------------------------------|


                                                       
-----------------------|--2---------------------------|
-----------------------|---------3-------------3------|
-----------------------|----------------4-------------|
-----------------------|------------------------------|
--2--------------------|------------------------------|
-----------------------|------------------------------|
-----------------------|------------------------------|


                                                              
----------------------------|-----------------0--------------|
--2-------------------------|------------2---------2---------|
---------------4------------|-------4-------------------4----|
----------------------------|--4-----------------------------|
----------------------------|--------------------------------|
----------------------------|--------------------------------|
----------------------------|--------------------------------|


                                                         
---------0----------------|-----------------------------|
----------------0----2----|--3---------------------3----|
--------------------------|---------------4-------------|
--4-----------------------|-----------------------------|
--------------------------|-----------------------------|
--------------------------|-----------------------------|
--------------------------|-----------------------------|


                                                              
----------------------------|--------------------------------|
--2------------2------------|-----------------3--------------|
----------------------------|------------4---------4---------|
----------------------------|-------4-------------------4----|
----------------------------|--2-----------------------------|
----------------------------|--------------------------------|
----------------------------|--------------------------------|


                                                       
-----------------------|--2---------------------------|
-----------------------|---------3-------------3------|
-----------------------|----------------4-------------|
-----------------------|------------------------------|
--2--------------------|------------------------------|
-----------------------|------------------------------|
-----------------------|------------------------------|


                                                              
----------------------------|-----------------0--------------|
--2-------------------------|------------2---------2---------|
---------------4------------|-------4-------------------4----|
----------------------------|--4-----------------------------|
----------------------------|--------------------------------|
----------------------------|--------------------------------|
----------------------------|--------------------------------|


                                                         
---------0----------------|-----------------------------|
----------------0----2----|--3---------------------3----|
--------------------------|---------------4-------------|
--4-----------------------|-----------------------------|
--------------------------|-----------------------------|
--------------------------|-----------------------------|
--------------------------|-----------------------------|


                                                              
----------------------------|--------------------------------|
--2------------2------------|-----------------3--------------|
----------------------------|------------4---------4---------|
----------------------------|-------4-------------------4----|
----------------------------|--2-----------------------------|
----------------------------|--------------------------------|
----------------------------|--------------------------------|


                                                    
-------------------|-------------------------------|
-------------------|-------------------------------|
-------------------|-------------------------------|
-------------------|-------------------------------|
--2----------------|--5------5----x--4------5------|
-------------------|--3----------------------------|
-------------------|-------------------------------|


                                                                
-------------------------------|-------------------------------|
-------------------------------|-------------------------------|
-------------------------------|-------------------------------|
-------------------------------|-------------------------------|
--5------5----x--4------5------|--5------5----x--4------5------|
--5----------------------------|--7----------------------------|
-------------------------------|-------------------------------|


                                                                
-------------------------------|-------------------------------|
-------------------------------|-------------------------------|
-------------------------------|-------------------------------|
-------------------------------|-------------------------------|
--5------5----x--4------5------|--5------5----x--4------5------|
--7----------------------------|--3----------------------------|
-------------------------------|-------------------------------|


                                                                               
-------------------------------|-------------------|--------------------------|
-------------------------------|-------------------|--------------------------|
-------------------------------|-------------------|--------------------------|
-------------------------------|--2----------------|--------------------------|
--5------5----x--4------5------|--2----------------|--------------------------|
--5----------------------------|--0----------------|--------------------------|
-------------------------------|-------------------|--------------------------|


                                                            
-------------------|-------------------|-------------------|
-------------------|-------------------|-------------------|
-------------------|-------------------|-------------------|
-------------------|-------------------|-------------------|
--2----------------|--5----------------|--5----------------|
--2----------------|--5----------------|--3----------------|
--0----------------|-------------------|-------------------|


                                                                     
----------------------------|-------------------|-------------------|
----------------------------|-------------------|-------------------|
----------------------------|-------------------|-------------------|
----------------------------|-------------------|-------------------|
--5------------7------------|--2----------------|--5----------------|
--3------------5------------|--2----------------|--5----------------|
----------------------------|--0----------------|-------------------|


                                                                     
-------------------|----------------------------|-------------------|
-------------------|----------------------------|-------------------|
-------------------|----------------------------|-------------------|
-------------------|----------------------------|-------------------|
--7----------------|--7------------9------------|--2----------------|
--7----------------|--7------------9------------|--2----------------|
--5----------------|--5------------7------------|--0----------------|


                                                                     
-------------------|-------------------|----------------------------|
-------------------|-------------------|----------------------------|
-------------------|-------------------|----------------------------|
-------------------|-------------------|----------------------------|
--5----------------|--5----------------|--5------------7------------|
--5----------------|--3----------------|--3------------5------------|
-------------------|-------------------|----------------------------|


                                                           
-------------------|------------------|-------------------|
-------------------|------------------|-------------------|
-------------------|------------------|-------------------|
--2----------------|------------------|--5----------------|
--2----------------|------------------|--5----------------|
--0----------------|------------------|--3----------------|
-------------------|------------------|-------------------|


                                                          
--------------------------|--2---------------------------|
--------------------------|---------3-------------3------|
--------------------------|----------------4-------------|
--------------------------|------------------------------|
--------------------------|------------------------------|
--------------------------|------------------------------|
--------------------------|------------------------------|


                                                              
----------------------------|-----------------0--------------|
--2-------------------------|------------2---------2---------|
---------------4------------|-------4-------------------4----|
----------------------------|--4-----------------------------|
----------------------------|--------------------------------|
----------------------------|--------------------------------|
----------------------------|--------------------------------|


                                                         
---------0----------------|-----------------------------|
----------------0----2----|--3---------------------3----|
--------------------------|---------------4-------------|
--4-----------------------|-----------------------------|
--------------------------|-----------------------------|
--------------------------|-----------------------------|
--------------------------|-----------------------------|


                                                              
----------------------------|--------------------------------|
--2------------2------------|-----------------3--------------|
----------------------------|------------4---------4---------|
----------------------------|-------4-------------------4----|
----------------------------|--2-----------------------------|
----------------------------|--------------------------------|
----------------------------|--------------------------------|


                                                       
-----------------------|--2---------------------------|
-----------------------|---------3-------------3------|
-----------------------|----------------4-------------|
-----------------------|------------------------------|
--2--------------------|------------------------------|
-----------------------|------------------------------|
-----------------------|------------------------------|


                                                              
----------------------------|-----------------0--------------|
--2-------------------------|------------2---------2---------|
---------------4------------|-------4-------------------4----|
----------------------------|--4-----------------------------|
----------------------------|--------------------------------|
----------------------------|--------------------------------|
----------------------------|--------------------------------|


                                                         
---------0----------------|-----------------------------|
----------------0----2----|--3---------------------3----|
--------------------------|---------------4-------------|
--4-----------------------|-----------------------------|
--------------------------|-----------------------------|
--------------------------|-----------------------------|
--------------------------|-----------------------------|


                                                              
----------------------------|--------------------------------|
--2------------2------------|-----------------3--------------|
----------------------------|------------4---------4---------|
----------------------------|-------4-------------------4----|
----------------------------|--2-----------------------------|
----------------------------|--------------------------------|
----------------------------|--------------------------------|


                                                       
-----------------------|--2---------------------------|
-----------------------|---------3-------------3------|
-----------------------|----------------4-------------|
-----------------------|------------------------------|
--2--------------------|------------------------------|
-----------------------|------------------------------|
-----------------------|------------------------------|


                                                              
----------------------------|-----------------0--------------|
--2-------------------------|------------2---------2---------|
---------------4------------|-------4-------------------4----|
----------------------------|--4-----------------------------|
----------------------------|--------------------------------|
----------------------------|--------------------------------|
----------------------------|--------------------------------|


                                                         
---------0----------------|-----------------------------|
----------------0----2----|--3---------------------3----|
--------------------------|---------------4-------------|
--4-----------------------|-----------------------------|
--------------------------|-----------------------------|
--------------------------|-----------------------------|
--------------------------|-----------------------------|


                                                              
----------------------------|--------------------------------|
--2------------2------------|-----------------3--------------|
----------------------------|------------4---------4---------|
----------------------------|-------4-------------------4----|
----------------------------|--2-----------------------------|
----------------------------|--------------------------------|
----------------------------|--------------------------------|


                                                    
-------------------|-------------------------------|
-------------------|-------------------------------|
-------------------|-------------------------------|
-------------------|-------------------------------|
--2----------------|--5------5----x--4------5------|
-------------------|--3----------------------------|
-------------------|-------------------------------|


                                                                
-------------------------------|-------------------------------|
-------------------------------|-------------------------------|
-------------------------------|-------------------------------|
-------------------------------|-------------------------------|
--5------5----x--4------5------|--5------5----x--4------5------|
--5----------------------------|--7----------------------------|
-------------------------------|-------------------------------|


                                                                
-------------------------------|-------------------------------|
-------------------------------|-------------------------------|
-------------------------------|-------------------------------|
-------------------------------|-------------------------------|
--5------5----x--4------5------|--5------5----x--4------5------|
--7----------------------------|--3----------------------------|
-------------------------------|-------------------------------|


                                                                               
-------------------------------|-------------------|--------------------------|
-------------------------------|-------------------|--------------------------|
-------------------------------|-------------------|--------------------------|
-------------------------------|--2----------------|--------------------------|
--5------5----x--4------5------|--2----------------|--------------------------|
--5----------------------------|--0----------------|--------------------------|
-------------------------------|-------------------|--------------------------|


                                                            
-------------------|-------------------|-------------------|
-------------------|-------------------|-------------------|
-------------------|-------------------|-------------------|
-------------------|-------------------|-------------------|
--2----------------|--5----------------|--5----------------|
--2----------------|--5----------------|--3----------------|
--0----------------|-------------------|-------------------|


                                                                     
----------------------------|-------------------|-------------------|
----------------------------|-------------------|-------------------|
----------------------------|-------------------|-------------------|
----------------------------|-------------------|--4----------------|
--5------------7------------|--2----------------|--5----------------|
--3------------5------------|--2----------------|--5----------------|
----------------------------|--0----------------|-------------------|


                                                                     
-------------------|----------------------------|-------------------|
-------------------|----------------------------|-------------------|
-------------------|----------------------------|-------------------|
-------------------|----------------------------|-------------------|
--7----------------|--7------------9------------|--2----------------|
--7----------------|--7------------9------------|--2----------------|
--5----------------|--5------------7------------|--0----------------|


                                                                     
-------------------|-------------------|----------------------------|
-------------------|-------------------|----------------------------|
-------------------|-------------------|----------------------------|
-------------------|-------------------|----------------------------|
--5----------------|--5----------------|--5------------7------------|
--5----------------|--3----------------|--3------------5------------|
-------------------|-------------------|----------------------------|


                                                           
-------------------|------------------|-------------------|
-------------------|------------------|-------------------|
-------------------|------------------|-------------------|
--2----------------|------------------|--5----------------|
--2----------------|------------------|--5----------------|
--0----------------|------------------|--3----------------|
-------------------|------------------|-------------------|


                                                                            
--------------------------|------------------------|-----------------------|
--------------------------|------------------------|-----------------------|
--------------------------|------------------------|-----------------------|
--------------------------|--2----------------4----|--5--------------------|
--------------------------|--2----------------4----|--5--------------------|
--------------------------|--0----------------2----|--3--------------------|
--------------------------|------------------------|-----------------------|


                                                                  
------------------------------------|----------------------------|
------------------------------------|----------------------------|
------------------------------------|----------------------------|
------------------------------------|----------------------------|
------------------------------------|------------------9----9----|
------------------7-----------------|------------------7----7----|
--0--0----0----0-----0----0--3-5-7--|--0--0----0----0------------|


                                                 
------------------------|-----------------------|
------------------------|-----------------------|
------------------------|-----------------------|
--2----------------4----|--5--------------------|
--2----------------4----|--5--------------------|
--0----------------2----|--3--------------------|
------------------------|-----------------------|


                                                                       
------------------------------------|---------------------------------|
------------------------------------|---------------------------------|
------------------------------------|---------------------------------|
------------------------------------|---------------------------------|
------------------------------------|------------------9----9----9----|
------------------7-----------------|------------------7----7----7----|
--0--0----0----0-----0----0--3-5-7--|--0--0----0----0-----------------|


                                                 
------------------------|-----------------------|
------------------------|-----------------------|
------------------------|-----------------------|
--2----------------4----|--5--------------------|
--2----------------4----|--5--------------------|
--0----------------2----|--3--------------------|
------------------------|-----------------------|


                                                                  
------------------------------------|----------------------------|
------------------------------------|----------------------------|
------------------------------------|----------------------------|
------------------------------------|----------------------------|
------------------------------------|------------------9----9----|
------------------7-----------------|------------------7----7----|
--0--0----0----0-----0----0--3-5-7--|--0--0----0----0------------|


                                                           
-------------------|------------------|-------------------|
-------------------|------------------|-------------------|
-------------------|------------------|-------------------|
--2----------------|------------------|--5----------------|
--2----------------|------------------|--5----------------|
--0----------------|------------------|--3----------------|
-------------------|------------------|-------------------|


                                                            
----------------------------|------------------------------|
----------------------------|----------------12------------|
----------------------------|--11--------------------------|
--------------7--7----------|------------------------------|
--------------7--7----------|------------------------------|
--------------5--5----------|------------------------------|
----------------------------|------------------------------|


                                                                           
-----------------------------|-------------------|------------------------|
---------------10------------|-------------------|------------------------|
--9--------------------------|--9b---------------|--------------7----9----|
-----------------------------|-------------------|------------------------|
-----------------------------|-------------------|------------------------|
-----------------------------|-------------------|------------------------|
-----------------------------|-------------------|------------------------|


                                                             
------------------------------|-----------------------------|
----------------12------------|---------------10------------|
--11--------------------------|--9--------------------------|
------------------------------|-----------------------------|
------------------------------|-----------------------------|
------------------------------|-----------------------------|
------------------------------|-----------------------------|


                                                                              
-------------------|--------------------------|----------------17b-----------|
-------------------|--------------15----17----|--19--------------------------|
--9b---------------|--------------------------|------------------------------|
-------------------|--------------------------|------------------------------|
-------------------|--------------------------|------------------------------|
-------------------|--------------------------|------------------------------|
-------------------|--------------------------|------------------------------|


                                                                               
----------------17------------|--------------------|--------------------------|
--17--------------------------|--------------------|--------------15----17----|
------------------------------|--11b---------------|--------------------------|
------------------------------|--------------------|--------------------------|
------------------------------|--------------------|--------------------------|
------------------------------|--------------------|--------------------------|
------------------------------|--------------------|--------------------------|


                                                              
----------------17b-----------|----------------17------------|
--19--------------------------|--17--------------------------|
------------------------------|------------------------------|
------------------------------|------------------------------|
------------------------------|------------------------------|
------------------------------|------------------------------|
------------------------------|------------------------------|


                                                                      
--19------------19~-----------|--17r---14------14--14----------------|
------------------------------|------------17----------17~-----------|
------------------------------|--------------------------------------|
------------------------------|--------------------------------------|
------------------------------|--------------------------------------|
------------------------------|--------------------------------------|
------------------------------|--------------------------------------|


                                                                
-------------------------------|-------------------------------|
-------------------------------|-------------------------------|
-------------------------------|-------------------------------|
-------------------------------|-------------------------------|
--5------5----x--4------5------|--5------5----x--4------5------|
--3----------------------------|--5----------------------------|
-------------------------------|-------------------------------|


                                                                
-------------------------------|-------------------------------|
-------------------------------|-------------------------------|
-------------------------------|-------------------------------|
-------------------------------|-------------------------------|
--5------5----x--4------5------|--5------5----x--4------5------|
--7----------------------------|--7----------------------------|
-------------------------------|-------------------------------|


                                                                
-------------------------------|-------------------------------|
-------------------------------|-------------------------------|
-------------------------------|-------------------------------|
-------------------------------|-------------------------------|
--5------5----x--4------5------|--5------5----x--4------5------|
--3----------------------------|--5----------------------------|
-------------------------------|-------------------------------|


                                                                   
-------------------|--------------------------|-------------------|
-------------------|--------------------------|-------------------|
-------------------|--------------------------|-------------------|
--2----------------|--------------------------|-------------------|
--2----------------|--------------------------|--2----------------|
--0----------------|--------------------------|--2----------------|
-------------------|--------------------------|--0----------------|


                                                                     
-------------------|-------------------|----------------------------|
-------------------|-------------------|----------------------------|
-------------------|-------------------|----------------------------|
-------------------|-------------------|----------------------------|
--5----------------|--5----------------|--5------------7------------|
--5----------------|--3----------------|--3------------5------------|
-------------------|-------------------|----------------------------|


                                                            
-------------------|-------------------|-------------------|
-------------------|-------------------|-------------------|
-------------------|-------------------|-------------------|
-------------------|--4----------------|-------------------|
--2----------------|--5----------------|--7----------------|
--2----------------|--5----------------|--7----------------|
--0----------------|-------------------|--5----------------|


                                                                     
----------------------------|-------------------|-------------------|
----------------------------|-------------------|-------------------|
----------------------------|-------------------|-------------------|
----------------------------|-------------------|-------------------|
--7------------9------------|--2----------------|--5----------------|
--7------------9------------|--2----------------|--5----------------|
--5------------7------------|--0----------------|-------------------|


                                                                     
-------------------|----------------------------|-------------------|
-------------------|----------------------------|-------------------|
-------------------|----------------------------|-------------------|
-------------------|----------------------------|--2----------------|
--5----------------|--5------------7------------|--2----------------|
--3----------------|--3------------5------------|--0----------------|
-------------------|----------------------------|-------------------|


                                                                     
------------------|-------------------|-----------------------------|
------------------|-------------------|-----------------------------|
------------------|-------------------|--------------4----4----4----|
------------------|--5----------------|--------------7----7----7----|
------------------|--5----------------|--------------7----7----7----|
------------------|--3----------------|--------------5----5----5----|
------------------|-------------------|-----------------------------|


                                                            
-------------------|-------------------|-------------------|
-------------------|-------------------|-------------------|
-------------------|-------------------|-------------------|
-------------------|-------------------|-------------------|
--2----------------|--5----------------|--5----------------|
--2----------------|--5----------------|--3----------------|
--0----------------|-------------------|-------------------|


                                                                     
----------------------------|-------------------|-------------------|
----------------------------|-------------------|-------------------|
----------------------------|-------------------|-------------------|
----------------------------|-------------------|--4----------------|
--5------------7------------|--2----------------|--5----------------|
--3------------5------------|--2----------------|--5----------------|
----------------------------|--0----------------|-------------------|


                                                                     
-------------------|----------------------------|-------------------|
-------------------|----------------------------|-------------------|
-------------------|----------------------------|-------------------|
-------------------|----------------------------|-------------------|
--7----------------|--7------------9------------|--2----------------|
--7----------------|--7------------9------------|--2----------------|
--5----------------|--5------------7------------|--0----------------|


                                                                     
-------------------|-------------------|----------------------------|
-------------------|-------------------|----------------------------|
-------------------|-------------------|----------------------------|
-------------------|-------------------|----------------------------|
--5----------------|--5----------------|--5------------7------------|
--5----------------|--3----------------|--3------------5------------|
-------------------|-------------------|----------------------------|


                                                           
-------------------|------------------|-------------------|
-------------------|------------------|-------------------|
-------------------|------------------|-------------------|
--2----------------|------------------|--5----------------|
--2----------------|------------------|--5----------------|
--0----------------|------------------|--3----------------|
-------------------|------------------|-------------------|


                                                                   
-------------------------------|----------------------------------|
-------------------------------|----------------------------------|
-------------------------------|----------------------------------|
--------------7----7--7--7--7--|----------------------------------|
--------------7----7--7--7--7--|--2--2----2-----------------------|
--------------5----5--5--5--5--|--2--2----2----2--7--2----2----2--|
-------------------------------|--0--0----0----0-----0----0----0--|


                                                                      
----------------------------------|----------------------------------|
----------------------------------|----------------------------------|
----------------------------------|----------------------------------|
----------------------------------|----------------------------------|
--2--2----2-----------------------|--2--2----2-----------------------|
--2--2----2----2--5--2----2----2--|--2--2----2----2--3--2----2----2--|
--0--0----0----0-----0----0----0--|--0--0----0----0-----0----0----0--|


                                                                        
------------------------------------|----------------------------------|
------------------------------------|----------------------------------|
------------------------------------|----------------------------------|
------------------------------------|----------------------------------|
--2--2----2-------------------------|--2--2----2-----------------------|
--2--2----2----2--2--2--------------|--2--2----2----2--7--2----2----2--|
--0--0----0----0-----0----0--3-5-7--|--0--0----0----0-----0----0----0--|


                                                                      
----------------------------------|----------------------------------|
----------------------------------|----------------------------------|
----------------------------------|----------------------------------|
----------------------------------|----------------------------------|
--2--2----2-----------------------|--2--2----2-----------------------|
--2--2----2----2--5--2----2----2--|--2--2----2----2--3--2----2----2--|
--0--0----0----0-----0----0----0--|--0--0----0----0-----0----0----0--|


                                                                              
------------------------------------------|----------------------------------|
------------------------------------------|----------------------------------|
------------------------------------------|----------------------------------|
------------------4-5-4-2-------------2-4-|----------------------------------|
--2--2----2---------------5-4-2---2-4-----|--2--2----2-----------------------|
--2--2----2----2----------------5---------|--2--2----2----2--7--2----2----2--|
--0--0----0----0--------------------------|--0--0----0----0-----0----0----0--|


                                                                      
----------------------------------|----------------------------------|
----------------------------------|----------------------------------|
----------------------------------|----------------------------------|
----------------------------------|----------------------------------|
--2--2----2-----------------------|--2--2----2-----------------------|
--2--2----2----2--5--2----2----2--|--2--2----2----2--3--2----2----2--|
--0--0----0----0-----0----0----0--|--0--0----0----0-----0----0----0--|


                                                                        
------------------------------------|----------------------------------|
------------------------------------|----------------------------------|
------------------------------------|----------------------------------|
------------------------------------|----------------------------------|
--2--2----2-------------------------|--2--2----2-----------------------|
--2--2----2----2--2--2--------------|--2--2----2----2--7--2----2----2--|
--0--0----0----0-----0----0--3-5-7--|--0--0----0----0-----0----0----0--|


                                                                      
----------------------------------|----------------------------------|
----------------------------------|----------------------------------|
----------------------------------|----------------------------------|
----------------------------------|----------------------------------|
--2--2----2-----------------------|--2--2----2-----------------------|
--2--2----2----2--5--2----2----2--|--2--2----2----2--3--2----2----2--|
--0--0----0----0-----0----0----0--|--0--0----0----0-----0----0----0--|


                                          
---------------------------------|------||
---------------------------------|------||
---------------------------------|------||
------------------7----7----7----|------||
--2--2----2-------7----7----7----|------||
--2--2----2----2--5----5----5----|------||
--0--0----0----0-----------------|------||

-------------------------------------------------------------------

4. I WALK BESIDE YOU
Tuning - D,G,C,F,A,D

D||--------------------------|--------------------------|
A||--5--5--5--5--5--5--5--5--|--5--4--4--4--4--4--4--4--|
F||--6--6--6--6--6--6--6--6--|--6--6--6--6--6--6--6--6--|
C||--------------------------|--------------------------|
G||--------------------------|--------------------------|
D||--------------------------|--------------------------|



--------------------------|--------------------------|----------4----------4--|
--5--5--5--5--5--5--5--5--|--5--4--4--4--4--4--4--4--|-------2-------2--2-----|
--6--6--6--6--6--6--6--6--|--6--6--6--6--6--6--6--6--|------------------------|
--------------------------|--------------------------|------------------------|
--------------------------|--------------------------|--4---------------------|
--------------------------|--------------------------|------------------------|



----------4----------4--|----------4----------4--|----------4----------4--|
-------2-------2--2-----|-------2-------2--2-----|-------2-------2--2-----|
------------------------|------------------------|------------------------|
----1----------2--------|------------------------|------------------------|
------------------------|--4---------------------|---------------2--------|
------------------------|------------------------|----4-------------------|



----------4----------4--|----------4----------4--|----------4----------4--|
-------2-------2--2-----|-------2-------2--2-----|-------2-------2--2-----|
------------------------|------------------------|------------------------|
------------------------|----1----------2--------|------------------------|
--4---------------------|------------------------|--4---------------------|
------------------------|------------------------|------------------------|



----------4----------4--|--------------------------|--------------------------|
-------2-------2--2-----|--5--5--5--5--5--5--5--5--|--5--4--4--4--4--4--4--4--|
------------------------|--6--6--6--6--6--6--6--6--|--6--6--6--6--6--6--6--6--|
------------------------|--------------------------|--------------------------|
---------------2--------|--------------------------|--------------------------|
----4-------------------|--------------------------|--------------------------|



--------------------------|--------------------------|
--5--5--5--5--5--5--5--5--|--5--4--4--4--4--4--4--4--|
--6--6--6--6--6--6--6--6--|--6--6--6--6--6--6--6--6--|
--------------------------|--------------------------|
--------------------------|--------------------------|
--------------------------|--------------------------|

and so on...


     pre chourus:
--------------------------|--------------------------|
--5--------5--------5-----|--4--------4--------4-----|
--------6--------6--------|--------6--------6--------|
-----7--------7--------7--|-----7--------7--------7--|
--------------------------|--------------------------|
--------------------------|--------------------------|



--------------------------|--------------------------|
--4--------4--------4-----|--5--------5--------5-----|
--------6--------6--------|--------6--------6--------|
-----6--------6--------6--|-----6--------6--------6--|
--------------------------|--------------------------|
--------------------------|--------------------------|



--------------------------|--------------------------|
--5--------5--------5-----|--4--------4--------4-----|
--------6--------6--------|--------4--------4--------|
-----7--------7--------7--|-----6--------6--------6--|
--------------------------|--------------------------|
--------------------------|--------------------------|


                                                       chorus:
--------------------------|--------------------------|----7----5------4----|
--5--------5--------5-----|--7--------7--------7-----|----5----5------5----|
-----4--4-----4--4-----4--|-----4--4-----4--4-----4--|---------------------|
--------------------------|--------------------------|---------------------|
--------------------------|--------------------------|---------------------|
--------------------------|--------------------------|---------------------|



----4----4--4--4--4--4--|-----4-----4-----4-----4--|-----4-----4-----4-----4--|
----5----5--5--5--5--5--|--------------------------|--------------------------|
------------------------|--4-----4-----4-----4-----|--4-----4-----4-----4-----|
------------------------|--------------------------|--------------------------|
------------------------|--------------------------|--------------------------|
------------------------|--------------------------|--------------------------|



----7----5------4----|----4----4--4--4--4--4--|-----4-----4-----4-----4--|
----5----5------5----|----5----5--5--5--5--5--|--------------------------|
---------------------|------------------------|--4-----4-----4-----4-----|
---------------------|------------------------|--------------------------|
---------------------|------------------------|--------------------------|
---------------------|------------------------|--------------------------|



--7----------------|-----4-----4-----4-----4--|-----4-----4-----4-----4--|
--5----------------|--------------------------|--------------------------|
--4----------------|--4-----4-----4-----4-----|--4-----4-----4-----4-----|
-------------------|--------------------------|--------------------------|
-------------------|--------------------------|--------------------------|
-------------------|--------------------------|--------------------------|



-----4-----4-----4-----4--|-----4-----4-----4-----4--|
--------------------------|--------------------------|
--5-----5-----5-----5-----|--5-----5-----5-----5-----|
--------------------------|--------------------------|
--------------------------|--------------------------|
--------------------------|--------------------------|



-----4-----4-----4-----4--|-----4-----4-----4-----4--|
--------------------------|--------------------------|
--6-----6-----6-----6-----|--6-----6-----6-----6-----|
--------------------------|--------------------------|
--------------------------|--------------------------|
--------------------------|--------------------------|



-----4-----4-----4-----4--|-----4-----4-----4-----4--|--4----------------|
--------------------------|--------------------------|--5----------------|
--2-----2-----2-----2-----|--2-----2-----2-----2-----|--6----------------|
--------------------------|--------------------------|-------------------|
--------------------------|--------------------------|-------------------|
--------------------------|--------------------------|-------------------|



------------------|------------------|------------------|
------------------|------------------|------------------|
------------------|------------------|------------------|
------------------|------------------|------------------|
------------------|------------------|------------------|
------------------|------------------|------------------|



--------------------------|--------------------------|
--5--5--5--5--5--5--5--5--|--5--4--4--4--4--4--4--4--|
--6--6--6--6--6--6--6--6--|--6--6--6--6--6--6--6--6--|
--------------------------|--------------------------|
--------------------------|--------------------------|
--------------------------|--------------------------|

and so on:


Pre chorus:
--------------------------|--------------------------|
--5--------5--------5-----|--4--------4--------4-----|
--------6--------6--------|--------6--------6--------|
-----7--------7--------7--|-----7--------7--------7--|
--------------------------|--------------------------|
--------------------------|--------------------------|



--------------------------|--------------------------|
--4--------4--------4-----|--5--------5--------5-----|
--------6--------6--------|--------6--------6--------|
-----6--------6--------6--|-----6--------6--------6--|
--------------------------|--------------------------|
--------------------------|--------------------------|



--------------------------|--------------------------|
--5--------5--------5-----|--4--------4--------4-----|
--------6--------6--------|--------4--------4--------|
-----7--------7--------7--|-----6--------6--------6--|
--------------------------|--------------------------|
--------------------------|--------------------------|


                                                       Chorus:
--------------------------|--------------------------|----7----5------4----|
--5--------5--------5-----|--7--------7--------7-----|----5----5------5----|
-----4--4-----4--4-----4--|-----4--4-----4--4-----4--|---------------------|
--------------------------|--------------------------|---------------------|
--------------------------|--------------------------|---------------------|
--------------------------|--------------------------|---------------------|



----4----4--4--4--4--4--|-----4-----4-----4-----4--|-----4-----4-----4-----4--|
----5----5--5--5--5--5--|--------------------------|--------------------------|
------------------------|--4-----4-----4-----4-----|--4-----4-----4-----4-----|
------------------------|--------------------------|--------------------------|
------------------------|--------------------------|--------------------------|
------------------------|--------------------------|--------------------------|



----7----5------4----|----4----4--4--4--4--4--|-----4-----4-----4-----4--|
----5----5------5----|----5----5--5--5--5--5--|--------------------------|
---------------------|------------------------|--4-----4-----4-----4-----|
---------------------|------------------------|--------------------------|
---------------------|------------------------|--------------------------|
---------------------|------------------------|--------------------------|



--7----------------|-----4-----4-----4-----4--|-----4-----4-----4-----4--|
--5----------------|--------------------------|--------------------------|
--4----------------|--4-----4-----4-----4-----|--4-----4-----4-----4-----|
-------------------|--------------------------|--------------------------|
-------------------|--------------------------|--------------------------|
-------------------|--------------------------|--------------------------|



-----4-----4-----4-----4--|-----4-----4-----4-----4--|
--------------------------|--------------------------|
--5-----5-----5-----5-----|--5-----5-----5-----5-----|
--------------------------|--------------------------|
--------------------------|--------------------------|
--------------------------|--------------------------|



-----4-----4-----4-----4--|-----4-----4-----4-----4--|
--------------------------|--------------------------|
--6-----6-----6-----6-----|--6-----6-----6-----6-----|
--------------------------|--------------------------|
--------------------------|--------------------------|
--------------------------|--------------------------|



-----4-----4-----4-----4--|-----4-----4-----4-----4--|
--------------------------|--------------------------|
--2-----2-----2-----2-----|--2-----2-----2-----2-----|
--------------------------|--------------------------|
--------------------------|--------------------------|
--------------------------|--------------------------|


  Aadd9                      Aadd9
--------------2-----------|--------------2-----------|
--------4-----------4-----|--------4-----------4-----|
-----------6-----6-----4--|-----------6-----6-----4--|
-----4--------------------|-----4--------------------|
--2-----------------------|--2-----------------------|
--------------------------|--------------------------|


  G6add9                     G6add9
--------------2-----------|--------------2-----------|
-----------2-----2--------|-----------2-----2--------|
--------4-----------4-----|--------4-----------4-----|
-----2-----------------2--|-----2-----------------2--|
--0-----------------------|--0-----------------------|
--------------------------|--------------------------|



--------------------------|--------------------------|
--------4-----7-----4-----|--------4-----7-----4-----|
-----4-----6-----6-----4--|-----4-----6-----6-----4--|
--------------------------|--------------------------|
--------------------------|--------------------------|
--4-----------------------|--4-----------------------|


  Dsus2                      Dsus2
-----0-----0-----0-----0--|-----0-----0--7--0-----0--|
--------7-----7-----7-----|--------7-----------7-----|
--------------------------|--------------------------|
--------------------------|--------------------------|
--------------------------|--------------------------|
--0-----------------------|--0-----------------------|


  Aadd9                      Aadd9
--------------2-----------|--------------2-----------|
--------4-----------4-----|--------4-----------4-----|
-----------6-----6-----4--|-----------6-----6-----4--|
-----4--------------------|-----4--------------------|
--2-----------------------|--2-----------------------|
--------------------------|--------------------------|


  G6add9                     G6add9
--------------2-----------|--------------2-----------|
-----------2-----2--------|-----------2-----2--------|
--------4-----------4-----|--------4-----------4-----|
-----2-----------------2--|-----2-----------------2--|
--0-----------------------|--0-----------------------|
--------------------------|--------------------------|



--------------------------|--------------------------|
--------4-----7-----4-----|--------4-----7-----4-----|
-----4-----6-----6-----4--|-----4-----6-----6-----4--|
--------------------------|--------------------------|
--------------------------|--------------------------|
--4-----------------------|--4-----------------------|



-----0-----0--7--0-----0--|-----0-----0--7--0-----0--|
--7-----7-----------7-----|--7-----7-----------7-----|
--------------------------|--------------------------|
--------------------------|--------------------------|
--------------------------|--------------------------|
--------------------------|--------------------------|



--------------------------|--------------------------|
--------------------------|--------------------------|
--------------------------|--------------------------|
--------------------------|--------------------------|
--0--0--0--0--0--0--0--0--|--0--0--0--0--0--0--0--0--|
--------------------------|--------------------------|



--------------------------|--------------------------|----9----7------6----|
--------------------------|--------------------------|----7----7------7----|
--2--2--2--2--2--2--2--2--|--2--2--2--2--2--2--2--2--|---------------------|
--2--2--2--2--2--2--2--2--|--2--2--2--2--2--2--2--2--|---------------------|
--0--0--0--0--0--0--0--0--|--0--0--0--0--0--0--0--0--|---------------------|
--------------------------|--------------------------|---------------------|



----6----6--6--6--6--6--|-----6-----6-----6-----6--|-----6-----6-----6-----6--|
----7----7--7--7--7--7--|--------------------------|--------------------------|
------------------------|--6-----6-----6-----6-----|--6-----6-----6-----6-----|
------------------------|--------------------------|--------------------------|
------------------------|--------------------------|--------------------------|
------------------------|--------------------------|--------------------------|



----9----7------6----|----6----6--6--6--6--6--|-----6-----6-----6-----6--|
----7----7------7----|----7----7--7--7--7--7--|--------------------------|
---------------------|------------------------|--6-----6-----6-----6-----|
---------------------|------------------------|--------------------------|
---------------------|------------------------|--------------------------|
---------------------|------------------------|--------------------------|



--9----------------|-----6-----6-----6-----6--|-----6-----6-----6-----6--|
--7----------------|--------------------------|--------------------------|
--6----------------|--6-----6-----6-----6-----|--6-----6-----6-----6-----|
-------------------|--------------------------|--------------------------|
-------------------|--------------------------|--------------------------|
-------------------|--------------------------|--------------------------|



-----6-----6-----6-----6--|-----6-----6-----6-----6--|
--------------------------|--------------------------|
--7-----7-----7-----7-----|--7-----7-----7-----7-----|
--------------------------|--------------------------|
--------------------------|--------------------------|
--------------------------|--------------------------|



-----6-----6-----6-----6--|-----6-----6-----6-----6--|
--4-----4-----4-----4-----|--4-----4-----4-----4-----|
--------------------------|--------------------------|
--------------------------|--------------------------|
--------------------------|--------------------------|
--------------------------|--------------------------|



-----6-----6-----6-----6--|-----6-----6-----6-----6--|----------6----------6--|
--0-----0-----0-----0-----|--0-----0-----0-----0-----|-------4-------4--4-----|
--------------------------|--------------------------|------------------------|
--------------------------|--------------------------|------------------------|
--------------------------|--------------------------|--6---------------------|
--------------------------|--------------------------|------------------------|



----------6----------6--|----------6----------6--|----------6----------6--|
-------4-------4--4-----|-------4-------4--4-----|-------4-------4--4-----|
------------------------|------------------------|------------------------|
----3----------4--------|------------------------|------------------------|
------------------------|--6---------------------|---------------4--------|
------------------------|------------------------|----6-------------------|



----------6----------6--|----------6----------6--|----------6----------6--|
-------4-------4--4-----|-------4-------4--4-----|-------4-------4--4-----|
------------------------|------------------------|------------------------|
------------------------|----3----------4--------|------------------------|
--6---------------------|------------------------|--6---------------------|
------------------------|------------------------|------------------------|



----------6----------6--|--6----------------|------------------|
---------------4--4-----|--7----------------|------------------|
-------8----------------|--8----------------|------------------|
------------------------|--8----------------|------------------|
---------------4--------|--6----------------|------------------|
----6-------------------|-------------------|------------------|



------------------|------------------|------------------|------------------|
------------------|------------------|------------------|------------------|
------------------|------------------|------------------|------------------|
------------------|------------------|------------------|------------------|
------------------|------------------|------------------|------------------|
------------------|------------------|------------------|------------------|



------------------|------------------||
------------------|------------------||
------------------|------------------||
------------------|------------------||
------------------|------------------||
------------------|------------------||

-------------------------------------------------------------------------

5. PANIC ATTACK
Tuning - Bb,Eb,Ab,Db,F,Bb

Intro
  Q=125
                 N.C.(Cm)
 4/4
  Gtrs I, II
                 PM-------------------------------
  Wx4            S S S S S S S S S S S S S S S S
|------------||----------------------------------|
|------------||o---------------------------------|
|------------||----------------------------------|
|------------||----------------------------------|
|------------||o-------------------2-------------|
|------------||--5-2-2-4-2-2-5-2-2---2-2-5-2-4-2-|


 -------------------------------|
  S S S S S S S S S S S S S S S S
|---------------------------------|
|---------------------------------|
|---------------------------------|
|---------------------------------|
|-------------------5-----4---2---|
|-5-2-2-4-2-2-5-2-2---2-2---2---2-|


  PM-----------------------------------------------------------------
  S S S S S S S S S S S S S S S S   S S S S S S S S S S S S S S S S
|---------------------------------|---------------------------------|
|---------------------------------|---------------------------------|
|---------------------------------|---------------------------------|
|---------------------------------|---------------------------------|
|-------------------2-------------|-------------------5-----4---2---|
|-5-2-2-4-2-2-5-2-2---2-2-5-2-4-2-|-5-2-2-4-2-2-5-2-2---2-2---2---2-|


 -----------------------------------------------------------------|
  S S S S S S S S S S S S S S S S   S S S S S S S S S S S S S S S S
|---------------------------------|------------------------------------||
|---------------------------------|-----------------------------------o||
|---------------------------------|------------------------------------||
|---------------------------------|------------------------------------||
|-3-3-3-3-3-3-3-3-3-3-3-3---------|-2-2-2-2-2-2-2-2-2-2-2-2-----------o||
|-------------------------4-4-4-4-|-------------------------3-3-3-3----||


    C5     GbBb5bC5     GbBb5b      C5       GbBb5b Ab5/Eb  Bb5
   5/8                                             6/8
    Gtr I                           Gtrs I, II
    E. E S E E   E. E S E E         E. E S E E   3x S E E S S E E S
||-------------|-------------||-||---------------||-----------------|
||o------------|------------o||-||o-------------o||-3-3-3-3---------|
||---------5---|--------5----||-||---------5-----||-2-2-2-2-4-4-4-4-|
||--4--4-4-5-2-|-4--4-4-5-2--||-||--4--4-4-5-2---||-0-0-0-0-2-2-2-2-|
||o-4--4-4-3-2-|-4--4-4-3-2-o||-||o-4--4-4-3-2--o||-0-0-0-0-2-2-2-2-|
||--2--2-2-3-0-|-2--2-2-3-0--||-||--2--2-2-3-0---||---------0-0-0-0-|


    C5      GbBb5b  Ab5/Eb  Bb5
   5/8             6/8
    S E E S E E  7x S E E S S E E S
||---------------||-----------------|
||o-------------o||-3-3-3-3---------|
||----------5----||-2-2-2-2-4-4-4-4-|
||--4-4-4-4-5-2--||-0-0-0-0-2-2-2-2-|
||o-4-4-4-4-3-2-o||-0-0-0-0-2-2-2-2-|
||--2-2-2-2-3-0--||---------0-0-0-0-|


   Verse 1
    C5                                     N.C.            C5
   5/8                                    2/4             5/8
    PM-------------------------------|     PM--------|     PM-------|
    E. E S E E   E. E S E E   E. E S E E   S S S S S S E   E. E S E E
||-------------|------------|------------|---------------|-------------|
||o------------|------------|------------|---------------|-------------|
||-------------|------------|------------|---------------|-------------|
||--4--4-4-4---|-4--4-4-4---|-4--4-4-4---|---------------|-4--4-4-4----|
||o-4--4-4-4---|-4--4-4-4---|-4--4-4-4---|-5-5-5-4-4-4---|-4--4-4-4----|
||--2--2-2-2---|-2--2-2-2---|-2--2-2-2---|-------------5-|-2--2-2-2----|


                            1.                2.
                            N.C.              N.C.
                           2/4
  PM-----|     PM---------------------|       PM--------|
  E. E S E E   E. E S E E   S S S S S S E     S S S S S S E
|------------|------------|----------------||---------------|
|------------|------------|---------------o||---------------|
|------------|------------|----------------||---------------|
|-4--4-4-4---|-4--4-4-4---|-------------2--||---------------|
|-4--4-4-4---|-4--4-4-4---|-5-5-5-4-4-4---o||-5-5-5-4-4-4---|
|-2--2-2-2---|-2--2-2-2---|----------------||-------------4-|


    Eb5
   5/8
    PM-----|     PM-----|     PM-----|
    E. E S E E   E. E S E E   E. E S E E
||-------------|------------|------------|
||o------------|------------|------------|
||-------------|------------|------------|
||--7--7-7-7---|-7--7-7-7---|-7--7-7-7---|
||o-7--7-7-7---|-7--7-7-7---|-7--7-7-7---|
||--5--5-5-5---|-5--5-5-5---|-5--5-5-5---|


  1.                  2.
  N.C.                N.C.
 2/4
                      PM|   PM|   PM|
  S S S S S S  E      S S S S S S S S
|------------------||------------------|
|-----------------o||------------------|
|------------------||------------------|
|------------------||------------------|
|-8-7-0-7-0-0-10\-o||-8-7-5------------|
|------------------||-------8-7-5-4-3--|


  C5                                     N.C.
 5/8                                    2/4
  PM-------------------------------|     PM--------|
  E. E S E E   E. E S E E   E. E S E E   S S S S S S E
|------------|------------|------------|---------------|
|------------|------------|------------|---------------|
|------------|------------|------------|---------------|
|-4--4-4-4---|-4--4-4-4---|-4--4-4-4---|---------------|
|-4--4-4-4---|-4--4-4-4---|-4--4-4-4---|-5-5-5-4-4-4---|
|-2--2-2-2---|-2--2-2-2---|-2--2-2-2---|-------------0-|


  C5
 5/8
  PM-------------------------------|
  E. E S E E   E. E S E E   E. E S E E
|------------|------------|--------------|
|------------|------------|--------------|
|------------|------------|--------------|
|-4--4-4-4---|-4--4-4-4---|-4--4-4-4-----|
|-4--4-4-4---|-4--4-4-4---|-4--4-4-4-----|
|-2--2-2-2---|-2--2-2-2---|-2--2-2-2-----|


                                    Pre-Chorus
  N.C.                               Bb5
 4/4
  S S S S S S S S S S S S S S S S    W
|---------------------------------||----------|
|---------------------------------||----------|
|---------------------------------||-4--------|
|---------------------------------||-2--------|
|-4-4-4---------------------------||-2--------|
|-------5-5-5-4-4-4-2-2-2-4-4-5-5-||-0--------|


  +W           W          +H     Q  Q
|------------|----------|----------------|
|------------|----------|----------------|
|-(4)--------|-4--------|-(4)------------|
|-(2)--------|-2--------|-(2)------------|
|-(2)--------|-2--------|-(2)----1--2----|
|-(0)--------|-0--------|-(0)------------|


  $
  Bb5        (F#)       (G)        N.C.
  W          W          W           E. E. E Q  Q
|----------|----------|----------|----------------|
|----------|----------|----------|----------------|
|-4--------|----------|----------|-/7--5----------|
|-2--------|----------|----------|----------5--4--|
|-2--------|-3--------|-4--------|--------7-------|
|-0--------|----------|----------|----------------|


   Chorus
    F5                            N.C.(Cm)
            PM|                   PM-------------------------------
    H.      E E   E. E. E Q  Q    S S S S S S S S S S S S S S S S
||--------------|---------------|---------------------------------|
||o-------------|---------------|---------------------------------|
||--4-----------|---------------|---------------------------------|
||--4-----------|---------------|---------------------------------|
||o-2-------2-4-|-5--4--2-0-----|-------------------2-------------|
||--------------|------------1--|-5-2-2-4-2-2-5-2-2---2-2-5-2-4-2-|


 ---------------------------|
  S S S S S S S S S S S S S S E
|----------------------------------|
|----------------------------------|
|----------------------------------|
|----------------------------------|
|-------------------5-----4--------|
|-5-2-2-4-2-2-5-2-2---2-2---2-5----|


  1.
  F5                            N.C.(Cm)
          PM|                   PM-------------------------------
  H.      E E   E. E. E Q  Q    S S S S S S S S S S S S S S S S
|-------------|---------------|---------------------------------|
|-------------|---------------|---------------------------------|
|-4-----------|---------------|---------------------------------|
|-4-----------|----2--3-------|---------------------------------|
|-2-------2-4-|-5-------5--4--|-------------------2-------------|
|-------------|---------------|-5-2-2-4-2-2-5-2-2---2-2-5-2-4-2-|


 ---------------------------|
  S S S S S S S S S S S S S S E
|--------------------------------||
|-------------------------------o||
|--------------------------------||
|--------------------------------||
|-------------------5-----4-----o||
|-5-2-2-4-2-2-5-2-2---2-2---2-5--||


  2.
                     To Coda
  F5                             N.C.(Cm)
          PM|                    PM-------------------------------
  H.      E E   E. E. E  Q  Q    S S S S S S S S S S S S S S S S
|-------------|----------------|---------------------------------|
|-------------|----------------|---------------------------------|
|-4-----------|----------------|---------------------------------|
|-4-----------|----2--3-/7--6--|---------------------------------|
|-2-------2-4-|-5--------------|-------------------2-------------|
|-------------|----------------|-5-2-2-4-2-2-5-2-2---2-2-5-2-4-2-|


 -------------------------------|
  S S S S S S S S S S S S S S S S
|------------------------------------|
|------------------------------------|
|------------------------------------|
|------------------------------------|
|-------------------5-----4---2------|
|-5-2-2-4-2-2-5-2-2---2-2---2---2----|


  PM-----------------------------------------------------------------
  S S S S S S S S S S S S S S S S   S S S S S S S S S S S S S S S S
|---------------------------------|---------------------------------|
|---------------------------------|---------------------------------|
|---------------------------------|---------------------------------|
|---------------------------------|---------------------------------|
|-------------------2-------------|-------------------5-----4---2---|
|-5-2-2-4-2-2-5-2-2---2-2-5-2-4-2-|-5-2-2-4-2-2-5-2-2---2-2---2---2-|


 -----------------------------------------------------------------|
  S S S S S S S S S S S S S S S S   S S S S S S S S S S S S S S S S
|---------------------------------|-----------------------------------|
|---------------------------------|-----------------------------------|
|---------------------------------|-----------------------------------|
|---------------------------------|-----------------------------------|
|-3-3-3-3-3-3-3-3-3-3-3-3---------|-2-2-2-2-2-2-2-2-2-2-2-2-----------|
|-------------------------4-4-4-4-|-------------------------3-3-3-3---|


   Bridge
    C5     GbDbBb5 C5     GbDbBb5 C5     GbDbBb5 Ab5/Eb  Bb5
   6/8
    E. E S E E E   E. E S E E E   E. E S E E E   S E E S S E E S
||---------------|--------------|--------------|------------------||
||o--------------|--------------|--------------|-----------------o||
||---------5-----|--------5-----|--------5-----|-2-2-2-2----------||
||--4--4-4-5-5-2-|-4--4-4-5-5-2-|-4--4-4-5-5-2-|-0-0-0-0-2-2-2-2--||
||o-4--4-4-3-5-2-|-4--4-4-3-5-2-|-4--4-4-3-5-2-|-0-0-0-0-2-2-2-2-o||
||--2--2-2-3-3-0-|-2--2-2-3-3-0-|-2--2-2-3-3-0-|---------0-0-0-0--||


   Verse 2
    N.C.(Cm)
    PM-------------------------------------------------
    S S S S S S S S S S S S   S S S S S S S S S S S S
||--------------------------|-------------------------|
||o-------------------------|-------------------------|
||--------------------------|-------------------------|
||--------------------------|-------------------------|
||o-------------3-3---------|-------------3-3---------|
||--2-2-2-2-2-2-----3-3-0-0-|-2-2-2-2-2-2-----3-3-0-0-|


 -----------------------------------------|
  S S S S S S S S S S S S   S E E S S E E S   4x
|-------------------------|-------------------||
|-------------------------|------------------o||
|-------------------------|-------------------||
|-------------------------|-------------------||
|-------------3-3---------|-0-0-0-0----------o||
|-2-2-2-2-2-2-----3-3-0-0-|---------0-0-0-0---||


    N.C.(Ebm)                                       Cb5/Gb  Db5
    S E E S E E E   S E E S E E E   S E E S E E E   S E E S S E E S
||----------------|---------------|---------------|-------------------||
||o---------------|---------------|---------------|------------------o||
||----------------|---------------|---------------|-5-5-5-5-----------||
||----------1-----|---------1-----|---------1-----|-3-3-3-3-5-5-5-5---||
||o-0-0-0-0---1---|-0-0-0-0---1---|-0-0-0-0---1---|-3-3-3-3-5-5-5-5--o||
||--------------3-|-------------3-|-------------3-|---------3-3-3-3---||


    N.C.(Cm)
    S E E S E E E   S E E S E E E   S E E S E E E
||----------------|---------------|---------------|
||o---------------|---------------|---------------|
||----------------|---------------|---------------|
||----------------|---------------|---------------|
||o---------3-----|---------3-----|---------3-----|
||--2-2-2-2---3-0-|-2-2-2-2---3-0-|-2-2-2-2---3-0-|


  1.                  2.
                                        D.S. al Coda
  Ab5/Eb  Bb5         N.C.
                     4/4
  S E E S S E E S     S S S S S S S S S S S S S S S S
|------------------||-----------------------------------|
|-----------------o||-----------------------------------|
|-2-2-2-2----------||-----------------------------------|
|-0-0-0-0-2-2-2-2--||-----------------------------------|
|-0-0-0-0-2-2-2-2-o||-4-4-4-----------------------------|
|---------0-0-0-0--||-------5-5-5-4-4-4-2-2-2-4-4-5-5---|


   Interlude 1
    &
    (Cm)                              (Fm/C)
    PM-----------------------------------------------------------------
    S S S S S S S S S S S S S S S S   S S S S S S S S S S S S S S S S
||----------------------------------|---------------------------------|
||o---------------------------------|---------------------------------|
||----------------------------------|---------------------------------|
||----------------------------------|---------------------------------|
||o---------------------------------|---------------------------------|
||--2-2-2-2-2-2-2-2-2-2-2-2-2-2-2-0-|-2-2-2-2-2-2-2-2-2-2-2-2-2-2-2-0-|


  (Cm)                              (Fm/C)
 -----------------------------------------------------------------|
  S S S S S S S S S S S S S S S S   S S S S S S S S S S S S S S S S
|---------------------------------|-----------------------------------|
|---------------------------------|-----------------------------------|
|---------------------------------|-----------------------------------|
|---------------------------------|-----------------------------------|
|---------------------------------|-----------------------------------|
|-2-2-2-2-2-2-2-2-2-2-2-2-2-2-2-0-|-2-2-2-2-2-2-2-2-2-2-2-2-2-2-2-2---|


  (Cm)                              (B°7)
  PM-----------------------------------------------------------------
  S S S S S S S S S S S S S S S S   S S S S S S S S S S S S S S S S
|---------------------------------|---------------------------------|
|---------------------------------|---------------------------------|
|---------------------------------|---------------------------------|
|-4-4-4-4-4-4-4-4-4-4-4-4-4-4-4-4-|-3-3-3-3-3-3-3-3-----------------|
|---------------------------------|-----------------5-5-5-5-4-4-4-4-|
|---------------------------------|---------------------------------|


  (Eb)                              (D°7)           (F#°7)  (G)
 -----------------------------------------------------------------|
  S S S S S S S S S S S S S S S S   S S S S S S S S S S S S S S S S
|---------------------------------|------------------------------------||
|---------------------------------|-----------------------------------o||
|---------------------------------|------------------------------------||
|---------------------------------|------------------------------------||
|-0-0-0-0-0-0-0-0-0-0-0-0-0-0-0-0-|-----------------3-3-3-3-4-4-4-4---o||
|---------------------------------|-4-4-4-4-4-4-4-4--------------------||


  (Ab)                              (Cm/G)
  PM-----------------------------------------------------------------
  S S S S S S S S S S S S S S S S   S S S S S S S S S S S S S S S S
|---------------------------------|---------------------------------|
|---------------------------------|---------------------------------|
|---------------------------------|---------------------------------|
|---------------------------------|---------------------------------|
|-5-5-5-5-5-5-5-5-5-5-5-5-5-5-5-5-|-4-4-4-4-4-4-4-4-4-4-4-4-4-4-4-4-|
|---------------------------------|---------------------------------|


  Fm                                (F#°7)          (G)
 -----------------------------------------------------------------|
  S S S S S S S S S S S S S S S S   S S S S S S S S S S S S S S S S
|---------------------------------|-----------------------------------|
|---------------------------------|-----------------------------------|
|---------------------------------|-----------------------------------|
|---------------------------------|-----------------------------------|
|-2-2-2-2-2-2-2-2-2-2-2-2-2-2-2-2-|-3-3-3-3-3-3-3-3-4-4-4-4-4-4-4-4---|
|---------------------------------|-----------------------------------|


   Guitar Break
    N.C.(Cm)
    PM--------------------------------------------------------------|
    S S S S S S S S S S S S S S S S   S S S S S S S S S S S S S S S S
||----------------------------------|----------------------------------||
||o---------------------------------|---------------------------------o||
||----------------------------------|----------------------------------||
||----------------------------------|----------------------------------||
||o-------------------2-------------|-------------------5-----4---2---o||
||--5-2-2-4-2-2-5-2-2---2-2-5-2-4-2-|-5-2-2-4-2-2-5-2-2---2-2---2---2--||


    PM--------------------------------------------------------------|
    S S S S S S S S S S S S S S S S   S S S S S S S S S S S S S S S S
||----------------------------------|----------------------------------||
||o---------------------------------|---------------------------------o||
||--------------------4-------------|-------------------7-----6---4----||
||--7-4-4-6-4-4-7-4-4---4-4-7-4-6-4-|-7-4-4-6-4-4-7-4-4---4-4---4---4--||
||o---------------------------------|---------------------------------o||
||----------------------------------|----------------------------------||


    N.C.(Fm)
   6/8
    S S S S S S S S S S S S   S S S S S S S S S S S S
||--------------------------|-------------------------|
||o-------------------------|-------------------------|
||--------------------------|-------------------------|
||--------------4---4-5-4---|-------------3---1-------|
||o-2-2-2-5-2-2---2-------5-|-2-2-2-5-2-2---2---2-1-0-|
||--------------------------|-------------------------|


  S S S S S S S S S S S S   S S S S S S S S S S S S
|-------------------------|-----------------------------||
|-------------------------|----------------------------o||
|-------------------------|-----------------------------||
|-------------4---4-5-4---|-----------------------------||
|-2-2-2-5-2-2---2-------5-|-------7---------4---5-4----o||
|-------------------------|-3-3-3---3-3-2-2---2---------||


   Keyboard Solo
    N.C.(Bbm)
   3/4
    E S S S S S S S S S S   S S S S S S S S S S S S
||------------------------|-------------------------|
||o-----------------------|-------------------------|
||------------4---4-5-4---|-------------3---1-------|
||--2-2-5-2-2---2-------5-|-2-2-2-5-2-2---2---2-1-0-|
||o-----------------------|-------------------------|
||------------------------|-------------------------|


  S S S S S S S S S S S S   S S S S S S S S S S S S
|-------------------------|--------------------------||
|-------------------------|-------------------------o||
|-------------4---4-5-4---|--------------------------||
|-2-2-2-5-2-2---2-------5-|-------7-----4-5-4---5-4--||
|-------------------------|-3-3-3---3-3-------2-----o||
|-------------------------|--------------------------||


    N.C.(Ebm)
   6/8
    S S S S S S S S S S S S   S S S S S S S S S S S S
||--------------------------|-------------------------|
||o-------------5---5-6-5---|-------------4---2-------|
||--2-2-2-5-2-2---2-------5-|-2-2-2-5-2-2---2---2-1-0-|
||--------------------------|-------------------------|
||o-------------------------|-------------------------|
||--------------------------|-------------------------|


  S S S S S S S S S S S S   S S S S S S S S S S S S
|-------------------------|----------------------------||
|-------------5---5-6-5---|---------------------------o||
|-2-2-2-5-2-2---2-------5-|-------7-----4-5-4---5-4----||
|-------------------------|-3-3-3---3-3-------2--------||
|-------------------------|---------------------------o||
|-------------------------|----------------------------||


 Guitar Solo
  N.C.(Abm)
 3/4
  Gtr III
   |--------6---------|  |--------6---------|  |--------6---------|
   S  S    S  S  S    S  S  S    S  S  S    S  S  S    S  S  S    S
|-------------------------------------------------------------------|
|-15-15---17-15-15---17-14-15---17-18-17---15-14-15---17-18-17---15-|
|-------------------------------------------------------------------|
|-------------------------------------------------------------------|
|-------------------------------------------------------------------|
|-------------------------------------------------------------------|
|
| Gtrs I, II
|  S    S     S    S     S    S     S    S     S    S     S    S
|-------------------------------------------------------------------|
|-------------------------------------------------------------------|
|-------------------------------------------------------------------|
|-----------------------------------7----------7----8-----7---------|
|--5----5-----5----8-----5----5----------5---------------------8----|
|-------------------------------------------------------------------|


   |--------6---------|  |--------6---------|  |----------6----------|
   S  S    S  S  S    S  S  S    S  S  S    S  S  S    S  T  T  S    S
|------------13-15---16-17-16---15-13-15---16-17-16---15---------------|
|-15-15---17---------------------------------------------18s17-15---14-|
|----------------------------------------------------------------------|
|----------------------------------------------------------------------|
|----------------------------------------------------------------------|
|----------------------------------------------------------------------|
|
|  S    S     S    S     S    S     S    S     S    S     S       S
|----------------------------------------------------------------------|
|----------------------------------------------------------------------|
|----------------------------------------------------------------------|
|-----------------------------------6----------4-----------------------|
|--5----5-----5----8-----5----5----------5----------5-----4-------3----|
|----------------------------------------------------------------------|


   |--------6---------|  |--------6---------|  |--------6---------|
   S  S    S  S  S    S  S  S    S  S  S    S  S  S    S  S  S    S
|----------------------------------15--------------------15---------|
|-15-15---17-15-15---17-15-17---18----18---17-15-17---18----18---17-|
|-------------------------------------------------------------------|
|-------------------------------------------------------------------|
|-------------------------------------------------------------------|
|-------------------------------------------------------------------|
|
|  S    S     S    S     S    S     S    S     S    S     S    S
|-------------------------------------------------------------------|
|-------------------------------------------------------------------|
|-------------------------------------------------------------------|
|-----------------------------------7----------7----8-----7---------|
|--5----5-----5----8-----5----5----------5---------------------8----|
|-------------------------------------------------------------------|


   |---------6---------|  |--------6---------|  |--------6---------|
   S  S    S  S  S     S  S  S    S  S  S    S  S  S    S  S  S    S
|------------15-16----17-18-17---16-15-16---17-18-18---17-15-----------|
|-15-17---18-------------------------------------------------18---17---|
|----------------------------------------------------------------------|
|----------------------------------------------------------------------|
|----------------------------------------------------------------------|
|----------------------------------------------------------------------|
|
|  S    S     S     S     S    S     S    S     S    S     S    S
|----------------------------------------------------------------------|
|----------------------------------------------------------------------|
|----------------------------------------------------------------------|
|----------------------------------------------------------------------|
|------------------10----------------7----8-----7----------8----7------|
|--6----6-----6-----------6----6---------------------5-----------------|


   S  S  S  S  S  S  S  S  S  S  S  S    S  S  S  S  S  S  S  S  S  S  S  S
|-------------------------------------|-------------------------------------|
|-15----------------------------------|-------------------------------------|
|----14-------------------------------|-14----15-14-13-14-13----------------|
|-------17-15-15----15-14-15----14-15-|----15----------------16-15-14-------|
|----------------17----------15-------|-------------------------------17----|
|-------------------------------------|----------------------------------17-|
|
|  S  S  S  S  S  S  S  S  S  S  S  S    S  S  S  S  S  S  S  S  S  S  S  S
|-------------------------------------|-------------------------------------|
|-------------------------------------|-------------------------------------|
|-------------------------------------|-------------------------------------|
|--------------------7-----7--8--7----|--------------------6-----4----------|
|--5--5--5--8--5--5-----5-----------8-|--5--5--5--8--5--5-----5-----5--4--3-|
|-------------------------------------|-------------------------------------|


         |--------6---------|     |--3--|        |--3--|
   S  S  S  S    S  S  S    S  S  T  T  T  S  S  T  T  T  S
|------------------17------------------17h22p17-------------|
|---------------18----18------------18----------18----------|
|----------19--------------19----19----------------19-------|
|-------19--------------------19----------------------19----|
|-17-20--------------------------------------------------20-|
|-----------------------------------------------------------|
|
|  S  S  S    S     S    S     S  S        S  S  S        S
|-----------------------------------------------------------|
|-----------------------------------------------------------|
|-----------------------------------------------------------|
|------------------------------7-----------7--8--7----------|
|--5--5--5----8-----5----5--------5-----------------------8-|
|-----------------------------------------------------------|


   |-------------10:8--------------|  |---3---|  |---3---|  |---3---|  |---3---|
   T  T  T    T  T  T  T  T     T  T  S  S    S  S  S    S  S  S    S  S  S    S
|----------------------------------------------------------------------------------|
|---------------------------------------------------------------------18-17---15---|
|----------------------------------------------------------16-15---14--------------|
|------------------------------------15-14---12-17-15---14-------------------------|
|-14p12p11------11h12h14p12p===11--------------------------------------------------|
|------------14-------------------14-----------------------------------------------|
|
|  S       S        S        S        S    S     S    S     S    S     S    S
|----------------------------------------------------------------------------------|
|----------------------------------------------------------------------------------|
|----------------------------------------------------------------------------------|
|----------------------------------------------------------------------------------|
|---------------------------10-------------------7----8-----7----------8----7------|
|--6-------6--------6-----------------6----6---------------------5-----------------|


  N.C.(C#m)
 6/8
   S  S  S   a    a   S  S  S  S  S  S  E.
|-15-15-15-(18)p(15)h18p15----15-------18b20-----|
|--------------------------18----18-15-----------|
|------------------------------------------------|
|------------------------------------------------|
|------------------------------------------------|
|------------------------------------------------|
|
|  S  S  S            S  S  S  S  S  S  S    S S
|------------------------------------------------|
|------------------------------------------------|
|------------------------------7-----7--8----7---|
|--5--5--5------------8--5--5-----5------------8-|
|------------------------------------------------|
|------------------------------------------------|


   E     a       +S    S  S  S  S     +S      +S   S  S  S
|-18---(18)b20==(18)r-15--------------------------15-------|
|------------------------18-15-18b20r(18)b20r(18)----18-15-|
|----------------------------------------------------------|
|----------------------------------------------------------|
|----------------------------------------------------------|
|----------------------------------------------------------|
|
|  S S            S    S  S  S  S      S       S   S  S  S
|----------------------------------------------------------|
|----------------------------------------------------------|
|-------------------------------6--------------4-----------|
|--5-5------------5----8--5--5---------5-----------5--4--3-|
|----------------------------------------------------------|
|----------------------------------------------------------|


   S  S  S  S  S  S  S  S  S  S  S  S    E    S  S  S  S  Q.
|-------------------------------------|--------------------------------|
|----15-------------------------------|--------------------------------|
|-17----14-17----15-------------------|--------------------------------|
|-------------17----17-15-------15----|------------------12\-----------|
|-------------------------17-15----17-|-15-----------------------------|
|-------------------------------------|------18-15-13-11---------------|
|
|  S  S  S  S  S  S  S  S  S  S  S  S    S S  S  S  S  S  S  S S S S S
|-------------------------------------|--------------------------------|
|-------------------------------------|--------------------------------|
|--------------------7-----7--8--7----|--------------------------------|
|--5--5--5--8--5--5-----5-----------8-|---------10--------7--8-7---8-7-|
|-------------------------------------|--6-6--6-----6--6---------5-----|
|-------------------------------------|--------------------------------|


   S  S  S  S  S  S  S  S  T  T  S  S  S
|----------------------------------------|
|----------------------------------------|
|-------------------------------15-16-17-|
|-------------12-15-15s17-15h17----------|
|----13-14-15----------------------------|
|-15-------------------------------------|
|
|  S  S  S  S  S  S  S  S  S     S  S  S
|----------------------------------------|
|----------------------------------------|
|--------------------7-----7-----8--7----|
|--5--5--5--8--5--5-----5--------------8-|
|----------------------------------------|
|----------------------------------------|


    S  S  S  S  S  S  S  S   S  S  S  S
|--------------------------/15-18-19-20-|
|-----------------18-19-20--------------|
|-----15-16-17S19-----------------------|
|-/17-----------------------------------|
|---------------------------------------|
|---------------------------------------|
|
|   S  S  S  S  S  S  S  S   S  S  S  S
|---------------------------------------|
|---------------------------------------|
|---------------------6------4----------|
|---5--5--5--8--5--5-----5------5--4--3-|
|---------------------------------------|
|---------------------------------------|


   E.         E.      E.         E.        S  S  S  S  S  S  S  S  S  S  S  S
|-20b22======20r-----20b22======20r-----|-20----18----------------------------||
|---------------------------------------|----20----20----20-------------------||
|---------------------------------------|-------------18----18-17-------------||
|---------------------------------------|-------------------------20-17-19-20-||
|---------------------------------------|-------------------------------------||
|---------------------------------------|-------------------------------------||
|
|  S     S S  S  S S  S     S S  S  S S    S  S  S  S  S  S  S  S  S  S  S  S
|---------------------------------------|-------------------------------------||
|---------------------------------------|-------------------------------------||
|---------------------7-------7--8--7---|-------------------------------------||
|--5-----5-5--8--5-5--------5---------8-|----------10--------7--8--7-----8--7-||
|---------------------------------------|--6--6--6-----6--6-----------5-------||
|---------------------------------------|-------------------------------------||


 Guitar/Key Harmony
  Bb5                 Gb/Bb                Bbm6                 N.C.
 4/4
  Gtr IV
                             ~~                                          ~~~~~
  E. E. E. E. E E      E. E. E. E. E E      E. E. E. E. E E      E. E. E Q  Q
|-7-----------------|--8-----------------|--7-----------------|-10--8----------|
|----8--7-----7-8---|-----8--7-----7-8---|-----8--7-----7-8---|----------8--7--|
|----------9--------|-----------9--------|-----------9--------|--------9-------|
|-------------------|--------------------|--------------------|----------------|
|-------------------|--------------------|--------------------|----------------|
|-------------------|--------------------|--------------------|----------------|
|
| Gtrs I, II
| W                    W                    W                    H       Q  Q
|-------------------|--------------------|--------------------|----------------|
|-------------------|--------------------|--------------------|----------------|
|-------------------|--------------------|--------------------|----------------|
|-9-----------------|-10-----------------|-11-----------------|--7-------8--9--|
|-7-----------------|--7-----------------|--7-----------------|----------------|
|-------------------|--------------------|--------------------|----------------|


  Bb5                 Gb/Bb
  E. E. E. E. E E      E. E. E. E. E E
|-7-----------------|--8-----------------|
|----8--7-----7-8---|-----8--7-----7-8---|
|----------9--------|-----------9--------|
|-------------------|--------------------|
|-------------------|--------------------|
|-------------------|--------------------|
|
| W                    W
|-------------------|--------------------|
|-------------------|--------------------|
|-------------------|--------------------|
|-9-----------------|-10-----------------|
|-7-----------------|--7-----------------|
|-------------------|--------------------|


  Bbm6                 N.C.
                                       ~~
   E. E. E. E. E E      E.  E.  E  Q   Q
|--9-----------------|-10---8--12-15--14---||
|-----8--7-----7-8---|---------------------||
|-----------9--------|---------------------||
|--------------------|---------------------||
|--------------------|---------------------||
|--------------------|---------------------||
|
|  W                    E.  E.  E  Q   Q
|--------------------|---------------------||
|--------------------|---------------------||
|--------------------|--7------------------||
|-11-----------------|-----10--------------||
|--7-----------------|----------7-10---9---||
|--------------------|---------------------||


    F5
     S  S  S  S  S  S  S  S  S  S  S  S  S  S  S  S
||--14----------------------------------------------|
||o----15----15-------------------------------------|
||--------16----16----18-16----------16-18-16-19-16-|
||-----------------16-------16----16----------------|
||o----------------------------17-------------------|
||--------------------------------------------------|
|
|    W
||--------------------------------------------------|
||o-------------------------------------------------|
||--------------------------------------------------|
||---4----------------------------------------------|
||o--2----------------------------------------------|
||--------------------------------------------------|


  Db/F
   S  S  S  S  S  S  S  S  S  S  S  S  S  S  S  S
|-15----------------------------------------------|
|----15----15-------------------------------------|
|-------16----16----18-16----------16-18-16-19-16-|
|----------------17-------17----17----------------|
|----------------------------17-------------------|
|-------------------------------------------------|
|
|  W
|-------------------------------------------------|
|-------------------------------------------------|
|-------------------------------------------------|
|--5----------------------------------------------|
|--2----------------------------------------------|
|-------------------------------------------------|


  Fm6
   S  S  S  S  S  S  S  S  S  S  S  S  S  S  S  S
|-16----------------------------------------------|
|----15----15-------------------------------------|
|-------16----16----18-16----------16-18-16-19-16-|
|----------------18-------18----18----------------|
|----------------------------17-------------------|
|-------------------------------------------------|
|
|  W
|-------------------------------------------------|
|-------------------------------------------------|
|-------------------------------------------------|
|--6----------------------------------------------|
|--2----------------------------------------------|
|-------------------------------------------------|


  1.                                                  2.
  N.C.                                                Eb5Db5F5Ab5Eb/G
   PM------------------------------------------|
   S  S  S  S  S  S  S  S  S  S  S  S  S  S  S  S     W
|--------------------------------------------------||----------------||
|-------------------------------------------------o||----------------||
|-14-14-14-----------------------------------------||----------------||
|----------17-17-17--------------------------------||----------------||
|-------------------14-14-17-17-17-17-16-16-16-16-o||----------------||
|--------------------------------------------------||----------------||
|
|  PM------------------------------------------|
|  S  S  S  S  S  S  S  S  S  S  S  S  S  S  S  S     E. E. E Q  Q
|--------------------------------------------------||----------------||
|-------------------------------------------------o||----------------||
|--2--2--2-----------------------------------------||-9--7-----------||
|-----------5--5--5--------------------------------||-7--5--4-7--7---||
|--------------------2--2--5--5--5--5--4--4--4--4-o||-------2-5--4---||
|--------------------------------------------------||----------------||


   Interlude 2
    (Cm)                              (Fm/C)
    Gtrs I, II
    PM-----------------------------------------------------------------
    S S S S S S S S S S S S S S S S   S S S S S S S S S S S S S S S S
||----------------------------------|---------------------------------|
||o---------------------------------|---------------------------------|
||----------------------------------|---------------------------------|
||----------------------------------|---------------------------------|
||o---------------------------------|---------------------------------|
||--2-2-2-2-2-2-2-2-2-2-2-2-2-2-2-0-|-2-2-2-2-2-2-2-2-2-2-2-2-2-2-2-0-|


  (Cm)                              (Fm/C)
 -----------------------------------------------------------------|
  S S S S S S S S S S S S S S S S   S S S S S S S S S S S S S S S S
|---------------------------------|-----------------------------------|
|---------------------------------|-----------------------------------|
|---------------------------------|-----------------------------------|
|---------------------------------|-----------------------------------|
|---------------------------------|-----------------------------------|
|-2-2-2-2-2-2-2-2-2-2-2-2-2-2-2-0-|-2-2-2-2-2-2-2-2-2-2-2-2-2-2-2-2---|


  (Cm)                              (B°7)
  PM-----------------------------------------------------------------
  S S S S S S S S S S S S S S S S   S S S S S S S S S S S S S S S S
|---------------------------------|---------------------------------|
|---------------------------------|---------------------------------|
|---------------------------------|---------------------------------|
|-4-4-4-4-4-4-4-4-4-4-4-4-4-4-4-4-|-3-3-3-3-3-3-3-3-----------------|
|---------------------------------|-----------------5-5-5-5-4-4-4-4-|
|---------------------------------|---------------------------------|


  (Eb)                              (D°7)           (F#°7)  (G)
 -----------------------------------------------------------------|
  S S S S S S S S S S S S S S S S   S S S S S S S S S S S S S S S S
|---------------------------------|------------------------------------||
|---------------------------------|-----------------------------------o||
|---------------------------------|------------------------------------||
|---------------------------------|------------------------------------||
|-0-0-0-0-0-0-0-0-0-0-0-0-0-0-0-0-|-----------------3-3-3-3-4-4-4-4---o||
|---------------------------------|-4-4-4-4-4-4-4-4--------------------||


  (Ab)                              (Cm/G)
  PM-----------------------------------------------------------------
  S S S S S S S S S S S S S S S S   S S S S S S S S S S S S S S S S
|---------------------------------|---------------------------------|
|---------------------------------|---------------------------------|
|---------------------------------|---------------------------------|
|---------------------------------|---------------------------------|
|-5-5-5-5-5-5-5-5-5-5-5-5-5-5-5-5-|-4-4-4-4-4-4-4-4-4-4-4-4-4-4-4-4-|
|---------------------------------|---------------------------------|


  Fm                                (F#°7)          (G)
 -----------------------------------------------------------------|
  S S S S S S S S S S S S S S S S   S S S S S S S S S S S S S S S S
|---------------------------------|-----------------------------------|
|---------------------------------|-----------------------------------|
|---------------------------------|-----------------------------------|
|---------------------------------|-----------------------------------|
|-2-2-2-2-2-2-2-2-2-2-2-2-2-2-2-2-|-3-3-3-3-3-3-3-3-4-4-4-4-4-4-4-4---|
|---------------------------------|-----------------------------------|


   Outro
    N.C.(Cm)
    PM-----------------------------------------------------------------
    S S S S S S S S S S S S S S S S   S S S S S S S S S S S S S S S S
||----------------------------------|---------------------------------|
||o---------------------------------|---------------------------------|
||----------------------------------|---------------------------------|
||----------------------------------|---------------------------------|
||o-------------------2-------------|-------------------5-----4---2---|
||--5-2-2-4-2-2-5-2-2---2-2-5-2-4-2-|-5-2-2-4-2-2-5-2-2---2-2---2---2-|


 -----------------------------------------------------------------|
  S S S S S S S S S S S S S S S S   S S S S S S S S S S S S S S S S
|---------------------------------|-----------------------------------|
|---------------------------------|-----------------------------------|
|---------------------------------|-----------------------------------|
|---------------------------------|-----------------------------------|
|-------------------2-------------|-------------------5-----4---2-----|
|-5-2-2-4-2-2-5-2-2---2-2-5-2-4-2-|-5-2-2-4-2-2-5-2-2---2-2---2---2---|


  PM-------------------------------
  S S S S S S S S S S S S S S S S
|---------------------------------|
|---------------------------------|
|---------------------------------|
|---------------------------------|
|-3-3-3-3-3-3-3-3-3-3-3-3---------|
|-------------------------4-4-4-4-|


  1.                                  2.
                                      N.C.            C5
 -------------------------------|
  S S S S S S S S S S S S S S S S     E. E. E Q  Q    Q  +E   E H
|----------------------------------||---------------|----------------*|
|---------------------------------o||---------------|----------------*|
|----------------------------------||---------------|----------------*|
|----------------------------------||-2-------------|-4--(4)/--------*|
|-2-2-2-2-2-2-2-2-2-2-2-2---------o||----5----------|-4--(4)/--------*|
|-------------------------3-3-3-3--||-------2-5--4--|-2--(2)/--------*|

---------------------------------------------------------------------------

6. NEVER ENOUGH
Tuning - D,G,C,F,A,D

Pre-Intro
    Q=132
    N.C.(Dm)
   4/4
    Gtr III
    S  S  S S  S  S S S S  S S S S S S S   S S S S S S S S S S S S S S S S  4x
||---------------------------------------|----------------------------------||
||o--------------------------------------|---------------------------------o||
||---------------------------------------|----------------------------------||
||---------------------------------------|----------------------------------||
||o--------------------------------------|---------------------------------o||
||--0-12-10-0-10-12-0-8-0-12-7-0-5-7-0-5-|-0-7-3-0-2-3-0-2-0-3-0-5-0-7-2-3--||


   Intro
    N.C.(Dm)
    Gtrs I, II, III
    S  S  S S  S  S S S S  S S S S S S S   S S S S S S S S S S S S S S S S   4x
||---------------------------------------|-----------------------------------||
||o--------------------------------------|----------------------------------o||
||---------------------------------------|-----------------------------------||
||---------------------------------------|-----------------------------------||
||o--------------------------------------|----------------------------------o||
||--0-12p10-0-10h12-0-8-0-12p7-0-5h7-0-5-|-0-7p3-0-2h3-0-2-0-3-0-5-0-7p2h3---||


 Verse
  (Bbmaj7/D)      (Dm)
  Gtrs I, II
  PM------------------------------------------------------------|
  S S S S S S S S  S  S S E. S S   S S S S S S S S  S  S S E. S S
|--------------------------------|--------------------------------|
|--------------------------------|--------------------------------|
|--------------------------------|--------------------------------|
|--------------------------------|--------------------------------|
|--------------------------------|--------------------------------|
|-0-0-0-0---0-0-0-----0-0----0-0-|-0-0-0-0---0-0-0-----0-0----0-0-|
|
| Gtr IV
| H                H               H                H
|--------------------------------|-0------------------------------|
|-1----------------0-------------|-0----------------0-------------|
|-0----------------0-------------|-0----------------0-------------|
|-2---------------(2)------------|-2---------------(2)------------|
|-2---------------(2)------------|-2---------------(2)------------|
|-0---------------(0)------------|-0---------------(0)------------|


  (A7sus4b9/D)    (A7sus4/D)                       (Dm)
  PM------------------------------------------------------------|
  S S S S S S S S  S  S S E. S S   S S S S S S S S  S  S S E. S S
|--------------------------------|--------------------------------|
|--------------------------------|--------------------------------|
|--------------------------------|--------------------------------|
|--------------------------------|--------------------------------|
|--------------------------------|--------------------------------|
|-0-0-0-0---0-0-0-----0-0----0-0-|-0-0-0-0---0-0-0-----0-0----0-0-|
|
| H                H               H                H
|--------------------------------|-5------------------------------|
|-1----------------5-------------|-5----------------5-------------|
|-2----------------2-------------|-2----------------0-------------|
|-2---------------(2)------------|-2---------------(2)------------|
|-2---------------(2)------------|-2---------------(2)------------|
|-0---------------(0)------------|-0---------------(0)------------|


  (Gm)            (G5)
  PM------------------------------------------------------------|
  S S S S S S S S  S  S S E. S S   S S S S S S S S  S  S S E. S S
|--------------------------------|--------------------------------|
|--------------------------------|--------------------------------|
|--------------------------------|--------------------------------|
|--------------------------------|--------------------------------|
|--------------------------------|--------------------------------|
|-5-5-5-5---5-5-5-----5-5----5-5-|-5-5-5-5---5-5-5-----5-5----5-5-|
|
| H                H               H                H
|--------------------------------|-5------------------------------|
|-1----------------5-------------|-5----------------5-------------|
|-2----------------2-------------|-2----------------2-------------|
|-2---------------(2)------------|-2---------------(2)------------|
|-0---------------(0)------------|-0---------------(0)------------|
|--------------------------------|--------------------------------|


                  (C#°)
  PM------------------------------------------------------------|
  S S S S S S S S S S S E. S S   S S S S S S S S S S S E.     S S
|------------------------------|----------------------------------|
|------------------------------|----------------------------------|
|------------------------------|----------------------------------|
|------------------------------|----------------------------------|
|-6-6-6-6---6-6-6---6-6----6-6-|-6-6-6-6---6-6-6---6-6--------6-6-|
|------------------------------|----------------------------------|
|
| H               H              H               Q         Q
|------------------------------|-5--------------------------------|
|-----------------7------------|-7-------------------------7------|
|-8---------------8------------|-8---------------8--------(8)-----|
|-7---------------7------------|-7---------------7--------(7)-----|
|-6---------------6------------|-6---------------6--------(6)-----|
|------------------------------|----------------------------------|


  (Bbmaj7/D)      (Dm)
  PM------------------------------------------------------------|
  S S S S S S S S  S  S S E. S S   S S S S S S S S  S  S S E. S S
|--------------------------------|--------------------------------|
|--------------------------------|--------------------------------|
|--------------------------------|--------------------------------|
|--------------------------------|--------------------------------|
|--------------------------------|--------------------------------|
|-0-0-0-0---0-0-0-----0-0----0-0-|-0-0-0-0---0-0-0-----0-0----0-0-|
|
| H                H               H                H
|------------------0-------------|-3----------------0-------------|
|-1----------------0-------------|-0----------------0-------------|
|-0----------------0-------------|-0----------------0-------------|
|-2---------------(2)------------|-2---------------(2)------------|
|-2---------------(2)------------|-2---------------(2)------------|
|-0---------------(0)------------|-0---------------(0)------------|


  (Bb)                                                (Bb6)
   PM---------------------------------------------------------------|
   S S S S S S S S   S  S S E. S S    S S S S S S S S   S  S S E. S S
|----------------------------------|----------------------------------|
|----------------------------------|----------------------------------|
|----------------------------------|----------------------------------|
|----------------------------------|----------------------------------|
|--3-3-3-3---3-3-3------3-3----3-3-|--3-3-3-3---3-3-3------3-3----3-3-|
|----------------------------------|----------------------------------|
|
|  H                 H                H                 H
|----------------------------------|--8-------------------------------|
|--------------------8-------------|--8----------------10-------------|
|--9-----------------9-------------|--9-----------------9-------------|
|-10---------------(10)------------|-10---------------(10)------------|
|-10---------------(10)------------|-10---------------(10)------------|
|--8----------------(8)------------|--8----------------(8)------------|


  (Gm)            (G5)                                        (Gm)
  PM----------------------------------------------------------------|
  S S S S S S S S  S  S S E. S S   S S S S S S S S  S  S S E.     S S
|--------------------------------|------------------------------------|
|--------------------------------|------------------------------------|
|--------------------------------|------------------------------------|
|--------------------------------|------------------------------------|
|-0-0-0-0---0-0-0-----0-0----0-0-|-0-0-0-0---0-0-0-----0-0--------0-0-|
|--------------------------------|------------------------------------|
|
| H                H               H                Q          Q
|--------------------------------|-5----------------------------------|
|-1----------------5-------------|-5----------------5---------(5)-----|
|-2----------------2-------------|-2----------------2----------5------|
|-2---------------(2)------------|-2---------------(2)--------(2)-----|
|-0---------------(0)------------|-0---------------(0)--------(0)-----|
|--------------------------------|------------------------------------|


  (C#°)                           (G°/C#)          (A7b13/C#)
  PM----------------------------------------------------------|
  S S S S S S S S  S S S E. S S    S S S S S S S S S S S E. S S
|-------------------------------|-------------------------------|
|-------------------------------|-------------------------------|
|-------------------------------|-------------------------------|
|-------------------------------|-------------------------------|
|-6-6-6-6---6-6-6----6-6----6-6-|--6-6-6-6---6-6-6---6-6----6-6-|
|-------------------------------|-------------------------------|
|
| H                H               H               H
|-------------------------------|--8---------------7------------|
|-7---------------10------------|-10---------------8------------|
|-8----------------8------------|--8---------------8------------|
|-7----------------7------------|--7---------------7------------|
|-6----------------6------------|--6---------------6------------|
|-------------------------------|-------------------------------|


  N.C.
   PM-----------------------------------------------
   S  S  S  S  S  S  S  S  S  S  S  E.        S  S
|--------------------------------------------------|
|--------------------------------------------------|
|--------------------------------------------------|
|--------------------------------------------------|
|--------------------------------------------------|
|--0--0--0--0-----0--0--0-----0--0------------0--0-|
|
| Gtr III
|  PM-----------------------------------------------
|  S  S  S  S  S  S  S  S  S  S  S  S   S  S  S  S
|----------------------15--------------------------|
|-------------------17----17-----------------------|
|----------------16----------16--------------------|
|----------14-17----------------17-14--------------|
|-------14-----------------------------14----------|
|-12-15-----------------------------------15-12-10-|


 -----------------------------------------------|
   S  S  S  S  S  S  S  S  S  S  S  E.        S  S
|--------------------------------------------------|
|--------------------------------------------------|
|--------------------------------------------------|
|--------------------------------------------------|
|--------------------------------------------------|
|--0--0--0--0-----0--0--0-----0--0------------0--0-|
|
|-----------------------------------------------|
|  S  S  S  S  S  S  S  S  S  S  S  S   S  S  S  S
|----------------------15--------------------------|
|-------------------17----17-----------------------|
|----------------16----------16--------------------|
|----------14-17----------------17-14--------------|
|-------14-----------------------------14----------|
|-12-15-----------------------------------15-12-15-|


   S  S  S  S  S  S  S  S  S  S  S  E.        S  S
|--------------------------------------------------|
|--------------------------------------------------|
|--------------------------------------------------|
|--------------------------------------------------|
|--------------------------------------------------|
|--2--2--2--2-----2--2--2-----2--2------------2--2-|
|
|  PM-----------------------------------------------
|  S  S  S  S  S  S  S  S  S  S  S  S   S  S  S  S
|-------------------------14-----------------------|
|-------------------14-17----17-14-----------------|
|----------------15----------------15--------------|
|----------14-16-----------------------16-14-------|
|----13-16-----------------------------------16-13-|
|-14-----------------------------------------------|


   S  S  S  S  S  S  S  S  S  S  S  E.        S  S
|--------------------------------------------------|
|--------------------------------------------------|
|--------------------------------------------------|
|--------------------------------------------------|
|--------------------------------------------------|
|--2--2--2--2-----2--2--2-----2--2------------2--2-|
|
|-----------------------------------------------|
|  S  S  S  S  S  S  S  S  S  S  S  S   S  S  S  S
|-------------------------14-----------------------|
|-------------------14-17----17-14-----------------|
|----------------15----------------15--------------|
|----------14-16-----------------------16-14-------|
|----13-16-----------------------------------16-13-|
|-14-----------------------------------------------|


   S  S  S  S  S  S  S  S  S  S  S  E.        S  S
|--------------------------------------------------|
|--------------------------------------------------|
|--------------------------------------------------|
|--------------------------------------------------|
|--0--0--0--0-----0--0--0-----0--0------------0--0-|
|--------------------------------------------------|
|
|  PM-----------------------------------------------
|  S  S  S  S  S  S  S  S  S  S  S  S   S  S  S  S
|-------------------12-17-12-----------------------|
|----------------13----------13--------------------|
|----------12-14----------------14-12--------------|
|-------14-----------------------------14----------|
|-12-15-----------------------------------15-12----|
|-----------------------------------------------15-|


   S  S  S  S  S  S  S  S  S  S  S  E.        S  S
|--------------------------------------------------|
|--------------------------------------------------|
|--------------------------------------------------|
|--------------------------------------------------|
|--0--0--0--0-----0--0--0-----0--0------------0--0-|
|--------------------------------------------------|
|
|-----------------------------------------------|
|  S  S  S  S  S  S  S  S  S  S  S  S   S  S  S  S
|-------------------12-17-12-----------------------|
|----------------13----------13--------------------|
|----------12-14----------------14-12--------------|
|-------14-----------------------------14----------|
|-12-15-----------------------------------15-12----|
|-----------------------------------------------15-|


   S  S  S  S  S  S  S  S  S  S  S  E.        S  S
|--------------------------------------------------|
|--------------------------------------------------|
|--------------------------------------------------|
|--------------------------------------------------|
|--2--2--2--2-----2--2--2-----2--2------------2--2-|
|--------------------------------------------------|
|
|  PM-------------------------------------------|
|  S  S  S  S  S  S  S  S  S  S  S  S   S  S  S  S
|-------------------14-19-14-----------------------|
|-------------14-16----------16-14-----------------|
|----------16----------------------16--------------|
|----13-16-----------------------------16-13-------|
|-14-----------------------------------------14-12-|
|--------------------------------------------------|


   S S  S S  S S  S S  S S  S E.    S S
|----------------------------------------|
|----------------------------------------|
|----------------------------------------|
|----------------------------------------|
|--2-2--2-2----2--2-2----2--2-------2-2--|
|----------------------------------------|
|
|  E    E    E    E    E    E     Q
|----------------------------------------|
|-----------16-------------------16------|
|------16--------16--------------16------|
|-16------------------16-----------------|
|--------------------------14------------|
|----------------------------------------|


 Chorus
  (Bb7)                       D5     F         E       D
  Q  Q  H      Q  H    Q      Q  E E  Q  E E    Q  E E H
|------------|-3------------|----------------|---------------|
|------------|--------------|----------------|---------------|
|-------3----|----3---------|--------12------|-11------9\----|
|----2-------|--------------|-2--x-x-----x-x-|-----x-x-------|
|-3----------|--------------|-2--x-x-10--x-x-|--9--x-x-7\----|
|------------|---------2b3--|-0--x-x-----x-x-|-----x-x-------|


  (Bb7)                       D5     F         E       D
  Gtr I
  Q  Q  H      Q  H    Q      Q  E E  Q  E E    Q  E E H
|------------|-3------------|----------------|---------------|
|------------|--------------|----------------|---------------|
|-------3----|----3---------|--------12------|-11------9\----|
|----2-------|--------------|-2--x-x-----x-x-|-----x-x-------|
|-3----------|--------------|-2--x-x-10--x-x-|--9--x-x-7\----|
|------------|---------2b3--|-0--x-x-----x-x-|-----x-x-------|
|
| Gtr II
| Q  Q  H      Q  H    Q      Q  E E  Q  E E    Q  E E H
|------------|-3------------|----------------|---------------|
|------------|--------------|--------12------|-10------8\----|
|-------3----|----3---------|----------------|---------------|
|----2-------|--------------|-2--x-x--9--x-x-|--7--x-x-5\----|
|-3----------|--------------|-2--x-x-----x-x-|-----x-x-------|
|------------|---------2b3--|-0--x-x-----x-x-|-----x-x-------|


  (Bb7)                     F5
  Gtrs I, II
  Q  Q  H      Q  H.        E +E  Q  Q  Q    Q  Q  Q  Q
|------------|-3----------|-3-(3)----3-----|-3-----3-----|
|------------|------------|-3-(3)-3-----3--|-3--3-----3--|
|-------3----|----3-------|-0-(0)----------|-0-----------|
|----2-------|------------|-0-(0)----------|-0-----------|
|-3----------|------------|----------------|-------------|
|------------|------------|-3-(3)----------|-3-----------|


  A5                        D5            C5
         ~~~~~~~~~~~~~~
  H      H      H    H      Q.   E H      Q.   E H
|-------------|-----------|-------------|-------------|
|-------------|-----------|-------------|-------------|
|-4-----------|-----------|-9----x-9----|-7----x-7----|
|-4----/10----|-9---------|-9----x-9----|-7----x-7----|
|-2-----------|------9----|-7----x-7----|-5----x-5----|
|-------------|-----------|-------------|-------------|


  (Bb7)                                       F5
                                ~~~~~~~~~
  E E E E E E Q    E +E    +E  +E    +H       Q  Q  Q  Q    Q  Q  Q  Q
|----------------|--------------------------|-3-----3-----|-3-----3-----|
|----------------|--------------------------|-3--3-----3--|-3--3-----3--|
|----------------|-3-(3)b5r(3)-(3)b5r(3)----|-0-----------|-0-----------|
|-------------2--|--------------------------|-0-----------|-0-----------|
|-3-3-3-3-3-3----|--------------------------|-------------|-------------|
|----------------|--------------------------|-3-----------|-3-----------|


  C5/G        C#5/G#
  H    H      H    H
|-----------|-----------|
|-----------|-----------|
|-7----7----|-8----8----|
|-7----7----|-8----8----|
|-5----5----|-6----6----|
|-5----5----|-6----6----|


    S  S  S S  S  S S S S  S S S S S S S   S S S S S S S S S S S S S S S S
||---------------------------------------|-----------------------------------||
||o--------------------------------------|----------------------------------o||
||---------------------------------------|-----------------------------------||
||---------------------------------------|-----------------------------------||
||o--------------------------------------|----------------------------------o||
||--0-12p10-0-10h12-0-8-0-12p7-0-5h7-0-5-|-0-7p3-0-2h3-0-2-0-3-0-5-0-7p2h3---||


 Verse
  (Dm)
  PM---------------------------------------------------------------|
  S S S S S S S S S S S S S S S S    S S S S S S S S S S S S S S S S
|---------------------------------|----------------------------------|
|---------------------------------|----------------------------------|
|---------------------------------|----------------------------------|
|---------------------------------|-/9-9-9-9-9-9-9-9-9-9-9-9-9-9-9-9-|
|-7-7-7-7-7-7-7-7-7-7-7-7-7-7-7-7-|----------------------------------|
|---------------------------------|----------------------------------|
|
| Gtr V
| W                                  W
|---------------------------------|--0-------------------------------|
|-0-------------------------------|--0-------------------------------|
|-0-------------------------------|--0-------------------------------|
|-2-------------------------------|--2-------------------------------|
|---------------------------------|----------------------------------|
|-0-------------------------------|--0-------------------------------|


  (Gm/D)
  PM-------------------------------
  S S S S S S S S S S S S S S S S
|---------------------------------|
|---------------------------------|
|---------------------------------|
|---------------------------------|
|-7-7-7-7-7-7-7-7-7-7-7-7-7-7-7-7-|
|---------------------------------|
|
| W
|---------------------------------|
|-1-------------------------------|
|-2-------------------------------|
|-2-------------------------------|
|---------------------------------|
|-0-------------------------------|


 -----------------------------------------------|
    S  S  S  S  S  S  S  S  S  S  S  S  S  S  S  S
|--------------------------------------------------|
|--------------------------------------------------|
|--------------------------------------------------|
|-/10-10-10-10-10-10-10-10-10-10-10-10-10-10-10-10-|
|--------------------------------------------------|
|--------------------------------------------------|
|
|   W
|---0----------------------------------------------|
|---1----------------------------------------------|
|---2----------------------------------------------|
|---2----------------------------------------------|
|--------------------------------------------------|
|---0----------------------------------------------|


  (Gm)
  PM--------------------------------------------------------------|
  S S S S S S S S S S S S S S S S   S S S S S S S S S S S S S S S S
|---------------------------------|---------------------------------|
|---------------------------------|---------------------------------|
|---------------------------------|---------------------------------|
|-7-7-7-7-7-7-7-7-7-7-7-7-7-7-7-7-|---------------------------------|
|---------------------------------|-7-7-7-7-7-7-7-7-7-7-7-7-7-7-7-7-|
|---------------------------------|---------------------------------|
|
| W                                 W
|---------------------------------|-5-------------------------------|
|-5-------------------------------|-5-------------------------------|
|-5-------------------------------|-5-------------------------------|
|-7-------------------------------|-7-------------------------------|
|-0-------------------------------|-0-------------------------------|
|---------------------------------|---------------------------------|


  (C#°)
  PM-----------------------------------------------------------------------|
  S S S S S S S S   S  S  S  S  S  S  S  S   S S S S S S S S S S S S S S S S
|------------------------------------------|---------------------------------|
|------------------------------------------|---------------------------------|
|------------------------------------------|---------------------------------|
|-----------------/10-10-10-10-10-10-10-10-|-9-9-9-9-9-9-9-9-----------------|
|-6-6-6-6-6-6-6-6--------------------------|-----------------6-6-6-6-6-6-6-6-|
|------------------------------------------|---------------------------------|
|
| W                                          W
|------------------------------------------|-5-------------------------------|
|-7----------------------------------------|-7-------------------------------|
|-8----------------------------------------|-8-------------------------------|
|-7----------------------------------------|-7-------------------------------|
|-6----------------------------------------|-6-------------------------------|
|------------------------------------------|---------------------------------|


  (Dm)
  S S S S S S S S S S S S S S S S    S S S S S S S S S S S S S S S S
|---------------------------------|----------------------------------|
|---------------------------------|----------------------------------|
|---------------------------------|----------------------------------|
|---------------------------------|-/9-9-9-9-9-9-9-9-9-9-9-9-9-9-9-9-|
|-7-7-7-7-7-7-7-7-7-7-7-7-7-7-7-7-|----------------------------------|
|---------------------------------|----------------------------------|
|
| W                                  W
|---------------------------------|--3-------------------------------|
|-0-------------------------------|--0-------------------------------|
|-0-------------------------------|--0-------------------------------|
|-2-------------------------------|--2-------------------------------|
|---------------------------------|----------------------------------|
|-0-------------------------------|--0-------------------------------|


  (Bb)
   S S S S S S S S S S S S S S S S
|----------------------------------|
|----------------------------------|
|----------------------------------|
|----------------------------------|
|--3-3-3-3-3-3-3-3-3-3-3-3-3-3-3-3-|
|----------------------------------|
|
|  W
|----------------------------------|
|----------------------------------|
|--9-------------------------------|
|-10-------------------------------|
|-10-------------------------------|
|--8-------------------------------|


    S  S  S  S  S  S  S  S  S  S  S  S  S  S  S  S
|--------------------------------------------------|
|--------------------------------------------------|
|--------------------------------------------------|
|-/10-10-10-10-10-10-10-10-10-10-10-10-10-10-10-10-|
|--------------------------------------------------|
|--------------------------------------------------|
|
|   W
|---8----------------------------------------------|
|--------------------------------------------------|
|---9----------------------------------------------|
|--10----------------------------------------------|
|--10----------------------------------------------|
|---8----------------------------------------------|


  (Gm)                              (G5)
  S S S S S S S S S S S S S S S S   S S S S S S S S S S S S S S S S
|---------------------------------|---------------------------------|
|---------------------------------|---------------------------------|
|---------------------------------|---------------------------------|
|-7-7-7-7-7-7-7-7-7-7-7-7-7-7-7-7-|---------------------------------|
|---------------------------------|-7-7-7-7-7-7-7-7-7-7-7-7-7-7-9-9-|
|---------------------------------|---------------------------------|
|
| W                                 W
|---------------------------------|-5-------------------------------|
|-1-------------------------------|-5-------------------------------|
|-2-------------------------------|-2-------------------------------|
|-2-------------------------------|-2-------------------------------|
|-0-------------------------------|-0-------------------------------|
|---------------------------------|---------------------------------|


  (C#°)
  S S S S S S S S   S  S  S  S  S  S  S  S   S S S S S S S S S S S S S S S S
|------------------------------------------|---------------------------------|
|------------------------------------------|---------------------------------|
|------------------------------------------|---------------------------------|
|-----------------/10-10-10-10-10-10-10-10-|-9-9-9-9-9-9-9-9-----------------|
|-6-6-6-6-6-6-6-6--------------------------|-----------------6-6-6-6-6-6-6-6-|
|------------------------------------------|---------------------------------|
|
| W                                          W
|------------------------------------------|-5-------------------------------|
|-7----------------------------------------|-7-------------------------------|
|-8----------------------------------------|-8-------------------------------|
|-7----------------------------------------|-7-------------------------------|
|-6----------------------------------------|-6-------------------------------|
|------------------------------------------|---------------------------------|


  D
   S  S  S  S  S  S  S  S  S  S  S  S  S  S  S  S
|-------------------------------------------------|
|-------------------------------------------------|
|--9--9--9--9--9--9--9--9--9--9--9--9--9--9--9--9-|
|-------------------------------------------------|
|--7--7--7--7--7--7--7--7--7--7--7--7--7--7--7--7-|
|-------------------------------------------------|
|
| Gtr III
|  PM----------------------------------------------
|  S  S  S  S  S  S  S  S  S  S  S  S  S  S  S  S
|----------------------15-------------------------|
|-------------------17----17----------------------|
|----------------16----------16-------------------|
|----------14-17----------------17-14-------------|
|-------14----------------------------14----------|
|-12-15----------------------------------15-12-10-|


  A
    S  S  S  S  S  S  S  S  S  S  S  S  S  S  S  S
|--------------------------------------------------|
|-/12-12-12-12-12-12-12-12-12-12-12-12-12-12-12-12-|
|--------------------------------------------------|
|--/9--9--9--9--9--9--9--9--9--9--9--9--9--9--9--9-|
|--------------------------------------------------|
|--------------------------------------------------|
|
|-----------------------------------------------|
|   S  S  S  S  S  S  S  S  S  S  S  S  S  S  S  S
|-----------------------15-------------------------|
|--------------------17----17----------------------|
|-----------------16----------16-------------------|
|-----------14-17----------------17-14-------------|
|--------14----------------------------14----------|
|--12-15----------------------------------15-12-15-|


  E
   S  S  S  S  S  S  S  S  S  S  S  S  S  S  S  S
|-------------------------------------------------|
|-------------------------------------------------|
|-11-11-11-11-11-11-11-11-11-11-11-11-11-11-11-11-|
|-------------------------------------------------|
|--9--9--9--9--9--9--9--9--9--9--9--9--9--9--9--9-|
|-------------------------------------------------|
|
|  PM----------------------------------------------
|  S  S  S  S  S  S  S  S  S  S  S  S  S  S  S  S
|-------------------------14----------------------|
|-------------------14-17----17-14----------------|
|----------------15----------------15-------------|
|----------14-16----------------------16-14-------|
|----13-16----------------------------------16-13-|
|-14----------------------------------------------|


  G#
    S  S  S  S  S  S  S  S  S  S  S  S  S  S  S  S
|--------------------------------------------------|
|-/11-11-11-11-11-11-11-11-11-11-11-11-11-11-11-11-|
|--------------------------------------------------|
|--/8--8--8--8--8--8--8--8--8--8--8--8--8--8--8--8-|
|--------------------------------------------------|
|--------------------------------------------------|
|
|-----------------------------------------------|
|   S  S  S  S  S  S  S  S  S  S  S  S  S  S  S  S
|--------------------------14----------------------|
|--------------------14-17----17-14----------------|
|-----------------15----------------15-------------|
|-----------14-16----------------------16-14-------|
|-----13-16----------------------------------16-13-|
|--14----------------------------------------------|


  G
   S  S  S  S  S  S  S  S  S  S  S  S  S  S  S  S
|-------------------------------------------------|
|-10-10-10-10-10-10-10-10-10-10-10-10-10-10-10-10-|
|-------------------------------------------------|
|--7--7--7--7--7--7--7--7--7--7--7--7--7--7--7--7-|
|-------------------------------------------------|
|-------------------------------------------------|
|
|  PM----------------------------------------------
|  S  S  S  S  S  S  S  S  S  S  S  S  S  S  S  S
|-------------------12-17-12----------------------|
|----------------13----------13-------------------|
|----------12-14----------------14-12-------------|
|-------14----------------------------14----------|
|-12-15----------------------------------15-12----|
|----------------------------------------------15-|


  Bb
    S  S  S  S  S  S  S  S  S  S  S  S  S  S  S  S
|--------------------------------------------------|
|-/13-13-13-13-13-13-13-13-13-13-13-13-13-13-13-13-|
|--------------------------------------------------|
|-/10-10-10-10-10-10-10-10-10-10-10-10-10-10-10-10-|
|--------------------------------------------------|
|--------------------------------------------------|
|
|-----------------------------------------------|
|   S  S  S  S  S  S  S  S  S  S  S  S  S  S  S  S
|--------------------12-17-12----------------------|
|-----------------13----------13-------------------|
|-----------12-14----------------14-12-------------|
|--------14----------------------------14----------|
|--12-15----------------------------------15-12----|
|-----------------------------------------------15-|


  A
   S  S  S  S  S  S  S  S  S  S  S  S  S  S  S  S
|-------------------------------------------------|
|-12-12-12-12-12-12-12-12-12-12-12-12-12-12-12-12-|
|-------------------------------------------------|
|--9--9--9--9--9--9--9--9--9--9--9--9--9--9--9--9-|
|-------------------------------------------------|
|-------------------------------------------------|
|
|  PM------------------------------------------|
|  S  S  S  S  S  S  S  S  S  S  S  S  S  S  S  S
|-------------------14-19-14----------------------|
|-------------14-16----------16-14----------------|
|----------16----------------------16-------------|
|----13-16----------------------------16-13-------|
|-14----------------------------------------14-12-|
|-------------------------------------------------|


  C#
    S  S  S  S  S  S  S  S  S  S  S  S  S  S  S  S
|--------------------------------------------------|
|-/16-16-16-16-16-16-16-16-16-16-16-16-16-16-16-16-|
|--------------------------------------------------|
|-/13-13-13-13-13-13-13-13-13-13-13-13-13-13-13-13-|
|--------------------------------------------------|
|--------------------------------------------------|
|
|   E     E     E     E     E     E     Q
|--------------------------------------------------|
|--------------16----------------------16----------|
|--------16----------16----------------16----------|
|--16----------------------16----------------------|
|--------------------------------14----------------|
|--------------------------------------------------|


 Chorus
  (Bb7)                       D5     F         E       D
  Q  Q  H      Q  H    Q      Q  E E  Q  E E    Q  E E H
|------------|-3------------|----------------|---------------|
|------------|--------------|----------------|---------------|
|-------3----|----3---------|--------12------|-11------9\----|
|----2-------|--------------|-2--x-x-----x-x-|-----x-x-------|
|-3----------|--------------|-2--x-x-10--x-x-|--9--x-x-7\----|
|------------|---------2b3--|-0--x-x-----x-x-|-----x-x-------|


  (Bb7)                       D5     F         E       D
  Gtr I
  Q  Q  H      Q  H    Q      Q  E E  Q  E E    Q  E E H
|------------|-3------------|----------------|---------------|
|------------|--------------|----------------|---------------|
|-------3----|----3---------|--------12------|-11------9\----|
|----2-------|--------------|-2--x-x-----x-x-|-----x-x-------|
|-3----------|--------------|-2--x-x-10--x-x-|--9--x-x-7\----|
|------------|---------2b3--|-0--x-x-----x-x-|-----x-x-------|
|
| Gtr II
| Q  Q  H      Q  H    Q      Q  E E  Q  E E    Q  E E H
|------------|-3------------|----------------|---------------|
|------------|--------------|--------12------|-10------8\----|
|-------3----|----3---------|----------------|---------------|
|----2-------|--------------|-2--x-x--9--x-x-|--7--x-x-5\----|
|-3----------|--------------|-2--x-x-----x-x-|-----x-x-------|
|------------|---------2b3--|-0--x-x-----x-x-|-----x-x-------|


  (Bb7)                     F5
  Gtrs I, II
  Q  Q  H      Q  H.        E +E  Q  Q  Q    Q  Q  Q  Q
|------------|-3----------|-3-(3)----3-----|-3-----3-----|
|------------|------------|-3-(3)-3-----3--|-3--3-----3--|
|-------3----|----3-------|-0-(0)----------|-0-----------|
|----2-------|------------|-0-(0)----------|-0-----------|
|-3----------|------------|----------------|-------------|
|------------|------------|-3-(3)----------|-3-----------|


  A5                        D5            C5
         ~~~~~~~~~~~~~~
  H      H      H    H      Q.   E H      Q.   E H
|-------------|-----------|-------------|-------------|
|-------------|-----------|-------------|-------------|
|-4-----------|-----------|-9----x-9----|-7----x-7----|
|-4----/10----|-9---------|-9----x-9----|-7----x-7----|
|-2-----------|------9----|-7----x-7----|-5----x-5----|
|-------------|-----------|-------------|-------------|


  (Bb7)                                       F5
  Gtr I
                                ~~~~~~~~~
  E E E E E E Q    E +E    +E  +E    +H       Q  Q  Q  Q    Q  Q  Q  Q
|----------------|--------------------------|-3-----3-----|-3-----3-----|
|----------------|--------------------------|-3--3-----3--|-3--3-----3--|
|----------------|-3-(3)b5r(3)-(3)b5r(3)----|-0-----------|-0-----------|
|-------------2--|--------------------------|-0-----------|-0-----------|
|-3-3-3-3-3-3----|--------------------------|-------------|-------------|
|----------------|--------------------------|-3-----------|-3-----------|
|
| Gtr II
|                               ~~~~~~~~~
| E E E E E E Q    E +E    +E  +E    +H       Q  Q  Q  Q    Q  Q  Q  Q
|----------------|--------------------------|-3-----3-----|-3-----3-----|
|----------------|-5-(5)b6r(5)-(5)b6r(5)----|-3--3-----3--|-3--3-----3--|
|----------------|--------------------------|-0-----------|-0-----------|
|-------------2--|--------------------------|-0-----------|-0-----------|
|-3-3-3-3-3-3----|--------------------------|-------------|-------------|
|----------------|--------------------------|-3-----------|-3-----------|


  C5/G        C#5/G#
  Gtrs I, II
  H    H      H    H
|-----------|-----------|
|-----------|-----------|
|-7----7----|-8----8----|
|-7----7----|-8----8----|
|-5----5----|-6----6----|
|-5----5----|-6----6----|


 Interlude
  D5
  H                      H
|---------------------------------------------|
|---------------------------------------------|
|-9\------------------------------------------|
|-9\------------------------------------------|
|-7\------------------------------------------|
|---------------------------------------------|
|
| Gtr III
| S   S  S S  S  S S  S  S S  S  S S  S  S  S
|---------------------------------------------|
|---------------------------------------------|
|---------------------------------------------|
|--------------------12-14--------------------|
|---------------------------------------------|
|-0--10-12-0-10-12-0-------0-10-12-0-10-12-10-|


  W
|------------------------------------------|
|------------------------------------------|
|------------------------------------------|
|------------------------------------------|
|------------------------------------------|
|------------------------------------------|
|
| S  S  S S  S  S S  S  S S  S  S S S  S S
|------------------------------------------|
|-------------------15-17------------------|
|------------------------------------------|
|-----------12-14-----------12-14----------|
|-----------------------------------9-10-9-|
|-0-10-12-0-------0-------0-------0--------|


  W
|--------------------------------------------|
|--------------------------------------------|
|--------------------------------------------|
|--------------------------------------------|
|--------------------------------------------|
|--------------------------------------------|
|
| S  S  S S  S  S S  S  S S  S  S S  S  S  S
|--------------------------------------------|
|--------------------------------------------|
|--------------------------------------------|
|-------------------12-14--------------------|
|--------------------------------------------|
|-0-10-12-0-10-12-0-------0-10-12-0-10-12-10-|


  H.                            E     E
|-------------------------------------------|
|-------------------------------------------|
|-------------------------------------------|
|-------------------------------------------|
|-------------------------------------------|
|-------------------------------------7/----|
|
| S  S S S S S S  S  S S  S  S  S  S  S   S
|------------------------10-12----15-17--19-|
|----------------10-12---------12-----------|
|----------7-9---------9--------------------|
|----7-9------------------------------------|
|--------------7----------------------------|
|-0------7----------------------------------|


   ~~
   H                     +H
|------------------------------------------------|
|------------------------------------------------|
|------------------------------------------------|
|------------------------------------------------|
|------------------------------------------------|
|-12--------------------(12)\--------------------|
|
|  S  S  S S  S  S S  S   S   S  S  S S  S  S  S
|------------------------------------------------|
|------------------------------------------------|
|------------------------------------------------|
|--------------------12--14----------------------|
|------------------------------------------------|
|--0-10-12-0-10-12-0----------0-10-12-0-10-12-10-|


  W
|------------------------------------------|
|------------------------------------------|
|------------------------------------------|
|------------------------------------------|
|------------------------------------------|
|------------------------------------------|
|
| S  S  S S  S  S S  S  S S  S  S S S  S S
|------------------------------------------|
|-------------------15-17------------------|
|------------------------------------------|
|-----------12-14-----------12-14----------|
|-----------------------------------9-10-9-|
|-0-10-12-0-------0-------0-------0--------|


  H.                               E     E
|---------------------------------------------|
|---------------------------------------------|
|---------------------------------------------|
|---------------------------------------------|
|---------------------------------------------|
|----------------------------------------x----|
|
| S   S  S S  S  S S  S  S S  S  S S  S  S  S
|---------------------------------------------|
|---------------------------------------------|
|---------------------------------------------|
|--------------------12-14--------------------|
|---------------------------------------------|
|-0--10-12-0-10-12-0-------0-10-12-0-10-12-10-|


  H                          H
|----------------------------------------------------------------|
|----------------------------------------------------------------|
|----------------------------------------------------------------|
|----------------------------------------------------------------|
|----------------------------------------------------------------|
|-9/------------------------21\----------------------------------|
|
| |----6-----| |----6-----|  |-------6-------|  |------6-------|
| S  S S S S S S S S S S  S  S   S  S  S  S  S  S  S  S  S  S  S
|-------------------------------------------19-------24-------22-|
|------------------------10--------17----17-------24----22-24----|
|----------------------7--------16----16-------21----------------|
|----------7-9-------7------14-----------------------------------|
|--------7-----0-5-9---------------------------------------------|
|-0--5-7---------------------------------------------------------|


   Guitar Solo
    Q=128
    N.C.
     S  S  S  S  S  S  S  S  S  S  S  S  S  S  S  S
||--------------------------------------------------|
||o-------------------------------------------------|
||--------------------------------------------------|
||--------------------12-12-------13-13-12-12-------|
||o-10-10-13-13-10-10-------10-10-------------12-12-|
||--------------------------------------------------|


   S  S  S  S  S  S  S  S  S  S  S  S  S  S  S  S
|---------------------------------------------------||
|--------------------------------------------------o||
|---------------------------------------------------||
|-------------------12-12-------13-13-12-12---------||
|-10-10-13-13-10-10-------10-10-------------12-12--o||
|---------------------------------------------------||


  S S  S  S S S  S  S S S  S  S  S  S  S  S
|-------------------------------------------|
|-------------------------------------------|
|-------------------------------------------|
|-------------------------------------------|
|---------------10-10-----13-13-12-12-------|
|-8-8-11-11-8-8-------8-8-------------11-11-|


  S S  S  S S S  S  S S S  S  S  S  S  S  S
|-------------------------------------------|
|-------------------------------------------|
|-------------------------------------------|
|-------------------------------------------|
|---------------10-10-----13-13-12-12-------|
|-8-8-11-11-8-8-------8-8-------------11-11-|


  S S  S  S S S  S  S S S  S  S  S  S  S  S
|-------------------------------------------|
|-------------------------------------------|
|-------------------------------------------|
|---------------10-10-----13-13-12-12-------|
|-9-9-12-12-9-9-------9-9-------------12-12-|
|-------------------------------------------|


  S S  S  S S S  S  S S S  S  S  S  S S S
|-----------------------------------------|
|-----------------------------------------|
|-----------------------------------------|
|---------------10-10-----13-13-12-12-----|
|-9-9-12-12-9-9-------9-9-------------9-9-|
|-----------------------------------------|


   S  S  S  S  S  S  S  S  S  S  S  S  S  S  S  S
|-------------------------------------------------|
|-------------------------------------------------|
|-------------------------------------------------|
|-------------------12-12-------13-13-12-12-------|
|-10-10-13-13-10-10-------10-10-------------12-12-|
|-------------------------------------------------|


   S  S  S  S  S  S  S  S  S  S  S  S  S  S  S  S
|-------------------------------------------------|
|-------------------------------------------------|
|-------------------------------------------------|
|-------------------12-12-------13-13-12-12-------|
|-10-10-13-13-10-10-------10-10-------------10-10-|
|-------------------------------------------------|


   S  S  S  S  S  S  S  S  S  S  S  S  S  S  S  S
|-------------------------------------------------|
|-------------------------------------------------|
|-------------------------------------------------|
|-------------------14-14-------17-17-14-14-------|
|-12-12-16-16-12-12-------12-12-------------16-16-|
|-------------------------------------------------|


   S  S  S  S  S  S  S  S  S  S  S  S  S  S  S  S
|-------------------------------------------------|
|-------------------------------------------------|
|-------------------------------------------------|
|-------------------14-14-------17-17-14-14-------|
|-12-12-16-16-12-12-------12-12-------------16-16-|
|-------------------------------------------------|


   S  S  S  S  S  S  S  S  S  S  S  S  S  S  S  S
|-------------------------------------------------|
|-------------------------------------------------|
|-------------------------------------------------|
|-------------------17-17-------20-20-17-17-------|
|-15-15-18-18-15-15-------15-15-------------18-18-|
|-------------------------------------------------|


   S  S  S  S  S  S  S  S  S  S  S  S  S  S  S  S
|-------------------------------------------------|
|-------------------------------------------------|
|-------------------------------------------------|
|-------------------17-17-------20-20-17-17-------|
|-15-15-18-18-15-15-------15-15-------------18-18-|
|-------------------------------------------------|


   S  S  S  S  S  S  S  S  S  S  S  S  S  S  S  S
|-------------------------------------------------|
|-------------------------------------------------|
|-------------------14-14-------17-17-14-14-------|
|-12-12-16-16-12-12-------12-12-------------16-16-|
|-------------------------------------------------|
|-------------------------------------------------|


   S  S  S  S  S  S  S  S  S  S  S  S  S  S  S  S
|-------------------------------------------------|
|-------------------------------16-16-15-15-------|
|-------------------14-14-------------------------|
|-12-12-16-16-12-12-------12-12-------------16-16-|
|-------------------------------------------------|
|-------------------------------------------------|


 Unison/Harmony Lead
  N.C.
  Gtrs I, II, III
   S  S  S  S  S  S  S  S  S  S  S  S  S  S  S  S
|-------------------------------------------------|
|----------10-11-10-------15-11-------------11----|
|-------12----------12----------12-14-12-------12-|
|----12----------------12----------------12-------|
|-10----------------------------------------------|
|-------------------------------------------------|


                           |------6-------|  |------6-------|
   S  S  S  S  S  S  S  S  S  S  S  S  S  S  S  S  S  S  S  S
|-------------------------15p10----10---------------------------|
|----------10-11-10-------------11----11----11------------------|
|-------12----------12-------------------12----12----12---------|
|----12----------------12-------------------------12----12------|
|-10-------------------------------------------------------13---|
|---------------------------------------------------------------|


   S  S  S  S  S  S  S  S  S  S  S  S  S  S  S  S
|-------------10----------11----------------10----|
|----------13----13----------13----13----------13-|
|-------12----------12----------12----12----------|
|----13----------------13----------------13-------|
|-10----------------------------------------------|
|-------------------------------------------------|


                           |------6-------|  |------6-------|
   S  S  S  S  S  S  S  S  S  S  S  S  S  S  S  S  S  S  S  S
|-------------10----------------------------11-------15p11------|
|----------13----13----------------13----------13----------13---|
|-------12----------12----12----------12----------12------------|
|----13----------------13----13-10-------13---------------------|
|-10------------------------------------------------------------|
|---------------------------------------------------------------|


   S  S  S  S  S  S  S  S  S  S  S  S  S  S  S  S
|----------10-11-10-------15-11-------------11----|
|-------13----------13----------13-15-13-------13-|
|----12----------------12----------------12-------|
|-10----------------------------------------------|
|-------------------------------------------------|
|-------------------------------------------------|


                           |------6-------|  |------6-------|
   S  S  S  S  S  S  S  S  S  S  S  S  S  S  S  S  S  S  S  S
|----------10-11-10-------20-15----15-------11------------------|
|-------13----------13----------16----16-------13----13---------|
|----12----------------12----------------17-------12----12------|
|-10-------------------------------------------------------13---|
|---------------------------------------------------------------|
|---------------------------------------------------------------|


   S  S  S  S  S  S  S  S  S  S  S  S  S  S  S  S
|-------------14----------17-14----14-------------|
|----------13----13-------------13----13----13----|
|-------14----------14-------------------14----14-|
|-13-16----------------16-------------------------|
|-------------------------------------------------|
|-------------------------------------------------|


                           |------6-------|  |------6-------|
   S  S  S  S  S  S  S  S  S  S  S  S  S  S  S  S  S  S  S  S
|-------------14----------------------14-17-14------------------|
|----------13----13----------------13----------13---------------|
|-------14----------14----------14----------------14------------|
|-13-16----------------16----16----------------------16---------|
|-------------------------17----------------------------17-12---|
|---------------------------------------------------------------|


  Gtrs I, II
   S  S  S  S  S  S  S  S  S  S  S  S  S  S  S  S
|-------------------------------------------------|
|----------10-11-10-------15-11-------------11----|
|-------12----------12----------12-14-12-------12-|
|----12----------------12----------------12-------|
|-10----------------------------------------------|
|-------------------------------------------------|
|
| Gtr III
|  S  S  S  S  S  S  S  S  S  S  S  S  S  S  S  S
|-------------------------15----------------------|
|----------13-15-13----------15-------------------|
|----12-15----------15-12-------15-17-15-14-12----|
|-12-------------------------------------------13-|
|-------------------------------------------------|
|-------------------------------------------------|


                           |------6-------|  |------6-------|
   S  S  S  S  S  S  S  S  S  S  S  S  S  S  S  S  S  S  S  S
|-------------------------18-15----15---------------------------|
|----------10-11-10-------------15----15----15------------------|
|-------12----------12-------------------15----15----15---------|
|----12----------------12-------------------------17----17------|
|-10-------------------------------------------------------17---|
|---------------------------------------------------------------|
|
|                          |------6-------|  |------6-------|
|  S  S  S  S  S  S  S  S  S  S  S  S  S  S  S  S  S  S  S  S
|-------------------------22-18----18---------------------------|
|----------13-15-13-------------20----20----20------------------|
|----12-15----------15-12----------------19----19----19---------|
|-12----------------------------------------------20----20-17---|
|---------------------------------------------------------------|
|---------------------------------------------------------------|


   S  S  S  S  S  S  S  S  S  S  S  S  S  S  S  S
|-------------------------------------------------|
|-------------11----------14-11----11-------------|
|----------12----12-------------12----12----12----|
|----11-14----------14-11----------------14----14-|
|-12----------------------------------------------|
|-------------------------------------------------|
|
|  S  S  S  S  S  S  S  S  S  S  S  S  S  S  S  S
|-------------------------------------------------|
|-------------14----------17-14----14-------------|
|----------15----15-------------15----15----15----|
|----14-17----------17-14----------------17----17-|
|-16----------------------------------------------|
|-------------------------------------------------|


                                                               |------6-------|
   S  S  S  S  S  S  S  S  T  T     T     T  T  T     T     T  S  S  S  S  S  S
|----------------------------------------------15h===18p===15--------------------|
|-------------11----------------------------17----------------17-14--------------|
|----------12----12----------------15----18-------------------------15-----------|
|----11-14----------14-11-14-17----------------------------------------17-14-----|
|-12-------------------------------------------------------------------------16--|
|--------------------------------------------------------------------------------|
|
|                          |--------------6--------------|     |------6-------|
|  S  S  S  S  S  S  S  S  S     S     S     S     S     S     S  S  S  S  S  S
|-------------------------------------------------18----21----18-----------------|
|-------------14----------------------------17-------------------17--------------|
|----------15----15-------------15----18----------------------------18-15--------|
|----14-17----------17-14-17----------------------------------------------17-14--|
|-16-----------------------------------------------------------------------------|
|--------------------------------------------------------------------------------|


   S  S  S  S  S  S  S  S  S  S  S  S  S  S  S  S
|-------------------------15----------------------|
|----------15-16-15----------16----15-------16----|
|-------17----------17----------17----17-------17-|
|----17----------------17----------------17-------|
|-15----------------------------------------------|
|-------------------------------------------------|
|
|  S  S  S  S  S  S  S  S  S  S  S  S  S  S  S  S
|-------------------------20----------------------|
|----------18-20-18----------20-16-18-16----20-16-|
|----17-20----------20-17----------------17-------|
|-17----------------------------------------------|
|-------------------------------------------------|
|-------------------------------------------------|


                           |--3--|
   S  S  S  S  S  S  S  S  S  S  S  S  S  S  S  S  S
|-------------------------15-20-15s11-----------------|
|----------15-16-15-------------------13--------------|
|-------17----------17-------------------12-----------|
|----17----------------17-------------------13-10-----|
|-15----------------------------------------------10--|
|-----------------------------------------------------|
|
|                          |--3--|
|  S  S  S  S  S  S  S  S  S  S  S  S  S  S  S  S  S
|-----------------------------------------------------|
|----------18-20-18-------16-20-16--------------------|
|----17-20----------20-17----------17-----------------|
|-17----------------------------------17--------------|
|----------------------------------------18-15----15--|
|----------------------------------------------15-----|


   |------6-------|  |------6-------|  |------6-------|  |------6-------|
   S  S  S  S  S  S  S  S  S  S  S  S  S  S  S  S  S  S  S  S  S  S  S  S
|-------------------------------------------------------------------------|
|-------------------------------------------------------11-13-15-11-13-15-|
|-------------------------------------11-12-14-11-12-14-------------------|
|-------------------10-12-13-10-12-13-------------------------------------|
|--9-10-12--9-10-12-------------------------------------------------------|
|-------------------------------------------------------------------------|
|
|  |------6-------|  |------6-------|  |------6-------|  |------6-------|
|  S  S  S  S  S  S  S  S  S  S  S  S  S  S  S  S  S  S  S  S  S  S  S  S
|-------------------------------------------------------------------------|
|-------------------------------------------------------15-16-19-15-16-19-|
|-------------------------------------14-15-17-14-15-17-------------------|
|-------------------12-13-16-12-13-16-------------------------------------|
|-12-13-15-12-13-15-------------------------------------------------------|
|-------------------------------------------------------------------------|


                                                         ~~
   |------6-------|  |------6-------|  |------6-------|
   S  S  S  S  S  S  S  S  S  S  S  S  S  S  S  S  S  S  Q
|----------------------14-15-14-------------------------------|
|----------11-13-15-16----------16-15-13-11-10----------------|
|-11-12-14-------------------------------------12-11----------|
|----------------------------------------------------13-12----|
|-------------------------------------------------------------|
|-------------------------------------------------------------|
|
|                                                        ~~
|  |------6-------|  |------6-------|  |------6-------|
|  S  S  S  S  S  S  S  S  S  S  S  S  S  S  S  S  S  S  Q
|----------------14-15-17-18-15-17-14-------------------------|
|----------15-16----------------------16-15-------------------|
|-14-15-17----------------------------------17-15-14----------|
|----------------------------------------------------17-16----|
|-------------------------------------------------------------|
|-------------------------------------------------------------|


 Guitar Solo
  (Dm/A)            (Dm)
  Gtrs I, II
  E E E E E E E E     S  +S   E  E  E  E  E  E  E
|-----------------|-------------------------------|
|-8-------8-------|-/12-(12)----------12----12-14-|
|---9---9---9---9-|----------12----12----12-------|
|-----9-------9---|-------------14----------------|
|-----------------|-------------------------------|
|-----------------|-------------------------------|


  (E/B)                          (E)
   S  +S   E  E  E  E  E  E  E     S  +S   E  E  E  H
|------------------------------|-------------------------|
|-11-(11)----------11----------|-/14-(14)----------14----|
|---------11----11----11----11-|----------15----15-------|
|------------11----------11----|-------------16----------|
|------------------------------|-------------------------|
|------------------------------|-------------------------|


  (Gm/D)                         (Gm)
   S  +S   E  E  E  E  E  E  E     S  +S   E  E  E  E  E  E  E
|------------------------------|-------------------------------|
|-13-(13)----------13----------|-/17-(17)----------17----17-19-|
|---------14----14----14----14-|----------17----17----17-------|
|------------14----------14----|-------------19----------------|
|------------------------------|-------------------------------|
|------------------------------|-------------------------------|


  (A/E)                          (A)
   S  +S   E  E  E  E  E  E  E    S  +S   E  E  E  H
|------------------------------|-14-(14)----------14----|
|-16-(16)----------16----------|---------16----16-------|
|---------16----16----16----16-|------------16----------|
|------------16----------16----|------------------------|
|------------------------------|------------------------|
|------------------------------|------------------------|


  (Dm/A)                         (Dm)
   S  +S   E  E  E  E  E  E  E     S  +S   E  E  E  E  E  E  E
|-15-(15)----------15----------|-/19-(19)----------19----19-21-|
|---------17----17----17----17-|----------20----20----20-------|
|------------16----------16----|-------------21----------------|
|------------------------------|-------------------------------|
|------------------------------|-------------------------------|
|------------------------------|-------------------------------|


  (E/B)                          (E)
   S  +S   E  E  E  E  E  E  E    S  +S   E  E  E  E  E  Q
|-18-(18)----------18----------|-21-(21)----------21--------|
|---------19----19----19----19-|---------23----23----23-----|
|------------18----------18----|------------23----------23--|
|------------------------------|----------------------------|
|------------------------------|----------------------------|
|------------------------------|----------------------------|


  (Gm/Bb)                        (Gm/D)
   S  +S   E  E  E  E  E  E  E    S  +S   E  E  E  E  E  E  E
|-17-(17)----------17-------19-|-20-(20)----------20----24----|
|---------17----17----17-------|---------22----22----22----22-|
|------------17----------17----|------------21----------------|
|------------------------------|------------------------------|
|------------------------------|------------------------------|
|------------------------------|------------------------------|


  (A/C#)                         (A/E)
                                                   ~~~~~~
   S  +S   E  E  E  E  E  E  E    S  +S   E  E  E  Q.       +E
|-19-(19)----------19----------|-23-(23)----------24b26====(24)r\-|
|---------19----19----19----19-|---------24----24-----------------|
|------------20----------20----|------------23--------------------|
|------------------------------|----------------------------------|
|------------------------------|----------------------------------|
|------------------------------|----------------------------------|


 Chorus
  (Bb7)                       D5     F         E       D
  Q  Q  H      Q  H    Q      Q  E E  Q  E E    Q  E E H
|------------|-3------------|----------------|---------------|
|------------|--------------|----------------|---------------|
|-------3----|----3---------|--------12------|-11------9\----|
|----2-------|--------------|-2--x-x-----x-x-|-----x-x-------|
|-3----------|--------------|-2--x-x-10--x-x-|--9--x-x-7\----|
|------------|---------2b3--|-0--x-x-----x-x-|-----x-x-------|


  (Bb7)                       D5     F         E       D
  Gtr I
  Q  Q  H      Q  H    Q      Q  E E  Q  E E    Q  E E H
|------------|-3------------|----------------|---------------|
|------------|--------------|----------------|---------------|
|-------3----|----3---------|--------12------|-11------9\----|
|----2-------|--------------|-2--x-x-----x-x-|-----x-x-------|
|-3----------|--------------|-2--x-x-10--x-x-|--9--x-x-7\----|
|------------|---------2b3--|-0--x-x-----x-x-|-----x-x-------|
|
| Gtr II
| Q  Q  H      Q  H    Q      Q  E E  Q  E E    Q  E E H
|------------|-3------------|----------------|---------------|
|------------|--------------|--------12------|-10------8\----|
|-------3----|----3---------|----------------|---------------|
|----2-------|--------------|-2--x-x--9--x-x-|--7--x-x-5\----|
|-3----------|--------------|-2--x-x-----x-x-|-----x-x-------|
|------------|---------2b3--|-0--x-x-----x-x-|-----x-x-------|


  (Bb7)                     F5
  Gtrs I, II
  Q  Q  H      Q  H.        E +E  Q  Q  Q    Q  Q  Q  Q
|------------|-3----------|-3-(3)----3-----|-3-----3-----|
|------------|------------|-3-(3)-3-----3--|-3--3-----3--|
|-------3----|----3-------|-0-(0)----------|-0-----------|
|----2-------|------------|-0-(0)----------|-0-----------|
|-3----------|------------|----------------|-------------|
|------------|------------|-3-(3)----------|-3-----------|


  A5                        D5            C5
         ~~~~~~~~~~~~~~
  H      H      H    H      Q.   E H      Q.   E H
|-------------|-----------|-------------|-------------|
|-------------|-----------|-------------|-------------|
|-4-----------|-----------|-9----x-9----|-7----x-7----|
|-4----/10----|-9---------|-9----x-9----|-7----x-7----|
|-2-----------|------9----|-7----x-7----|-5----x-5----|
|-------------|-----------|-------------|-------------|


  (Bb7)                       F5
  Q  Q  Q  Q     Q  Q  H      E +E  Q  Q  Q    Q  Q  Q  Q
|-------------|-/6----------|-3-(3)----3-----|-3-----3-----|
|-------------|-----5-------|-3-(3)-3-----3--|-3--3-----3--|
|-------------|--------3----|-0-(0)----------|-0-----------|
|----------2--|-------------|-0-(0)----------|-0-----------|
|-3--3--3-----|-------------|----------------|-------------|
|-------------|-------------|-3-(3)----------|-3-----------|


  C5/G        C#5/G#
  H    H      H    H
|-----------|-----------|
|-----------|-----------|
|-7----7----|-8----8----|
|-7----7----|-8----8----|
|-5----5----|-6----6----|
|-5----5----|-6----6----|


   Outro
    N.C.
    S  S  S S  S  S S S S  S S S S S S S   S S S S S S S S S S S S S S S S   4x
||---------------------------------------|-----------------------------------||
||o--------------------------------------|----------------------------------o||
||---------------------------------------|-----------------------------------||
||---------------------------------------|-----------------------------------||
||o--------------------------------------|----------------------------------o||
||--0-12p10-0-10h12-0-8-0-12p7-0-5h7-0-5-|-0-7p3-0-2h3-0-2-0-3-0-5-0-7p2h3---||


  D5
  W          +W           +W           +W
|----------|------------|------------|--------*|
|----------|------------|------------|--------*|
|----------|------------|------------|--------*|
|-2--------|-(2)--------|-(2)--------|-(2)----*|
|-2--------|-(2)--------|-(2)--------|-(2)----*|
|-0--------|-(0)--------|-(0)--------|-(0)----*|

---------------------------------------------------------------------------

7. SACRIFICED SONS
Tuning - E,A,D,G,B,E

Intro
  Q=74
 6/8
  Gtr I
  Wx8
|--------|
|--------|
|--------|
|--------|
|--------|
|--------|


   Verse
    Em/B         C              Em/B         Ebm/A
    E H    +E     E  H    +E    E H    +E    E E H
||--3----------|-(3)----------|-3----------|-----2----|
||o---5----(5)-|-----5----(5)-|---5----(5)-|---4------|
||----4----(4)-|-----5----(5)-|---4----(4)-|-2--------|
||-------------|--------------|------------|----------|
||o------------|--------------|------------|----------|
||-------------|--------------|------------|----------|


  Em/B         C              Em/Bb      Eb/A  Ebm/A
  E H    +E     E  H    +E    E E H      E E E Q.
|-3----------|-(3)----------|-----3----|-----3-2-----||
|---5----(5)-|-----5----(5)-|---5------|---4--------o||
|---4----(4)-|-----5----(5)-|-3--------|-2-----------||
|------------|--------------|----------|-------------||
|------------|--------------|----------|------------o||
|------------|--------------|----------|-------------||


 Verse 2
  N.C.
 4/4                                                   5/8
  Gtr II
  <        <                         <                   <
               ~~~~~~~~~~~~              ~~~~~~~~~~
  E +Q.    E  +Q.      +W            E  +Q.    +H        E  +H
|-------------------|-------------|-------------------|------------|
|---------12-(12)---|-(12)--------|-10-(10)---(10)----|------------|
|-9-(9)-------------|-------------|-------------------|------------|
|-------------------|-------------|-------------------|-12-(12)----|
|-------------------|-------------|-------------------|------------|
|-------------------|-------------|-------------------|------------|


 4/4
  <        <                         <                           <
               ~~~~~~~~~~~~              ~~~~~~~~~~~~~~~~~~~~
  E +Q.    E  +Q.      +W            E  +Q.    +H        +H      E  +Q.
|-------------------|-------------|-------------------|-------------------|
|---------12-(12)---|-(12)--------|-10-(10)---(10)----|-(10)--------------|
|-9-(9)-------------|-------------|-------------------|-------------------|
|-------------------|-------------|-------------------|---------12-(12)---|
|-------------------|-------------|-------------------|-------------------|
|-------------------|-------------|-------------------|-------------------|


  Em                 C                  Em               C
  <
  E +Q.      H       W                  W                W
|------------------|------------------|----------------|----------------|
|------------------|------------------|----------------|----------------|
|-9-(9)------------|------------------|----------------|----------------|
|------------------|------------------|----------------|----------------|
|------------------|------------------|----------------|----------------|
|------------------|------------------|----------------|----------------|
|
| Gtr I
|            ~~~            ~~~~~~~~~~           ~~~              ~~~
| E  E  E E +H       E E E +H     +E    E E E E +H       E E E E +H
|------------------|------------------|----------------|---0------------|
|------------------|------------------|----------------|----------------|
|---------0-(0)----|-----0-(0)----(0)-|-------0-(0)----|-------0-(0)----|
|-------4----------|---4--------------|-----4----------|-----4----------|
|----2-------------|-3----------------|---2------------|-3--------------|
|-0----------------|------------------|-0--------------|----------------|


  Em               F#/C               F#                 B
  Gtr I
           ~~~            ~~~~~~~~~~         ~~~~~~~~~~           ~~~
  E E E E +H       E E E +H     +E    E E E +H     +E    E E E E +H
|----------------|------------------|------------------|-------2-(2)----|
|----------------|------------------|------------------|----------------|
|-------0-(0)----|-----3-(3)----(3)-|-----3-(3)----(3)-|-----4----------|
|-----4----------|---4--------------|---4--------------|---4------------|
|---2------------|-3----------------|------------------|-2--------------|
|-0--------------|------------------|-2----------------|----------------|


 Verse 3
  N.C.
 3/4                                 4/4
  Gtr II
  TP   TP     TP   TP     TP   TP     TP
  Q.   Q.     Q.   Q.     Q.   Q.     W
|-----------|-----------|-----------|------|
|------8----|-7---------|------8----|-7----|
|-4---------|------5----|-4---------|------|
|------5----|-4---------|------5----|-4----|
|-2---------|------3----|-2---------|------|
|-----------|-----------|-----------|------|


 3/4                                 4/4
  TP   TP     TP   TP     TP   TP     TP
  Q.   Q.     Q.   Q.     Q.   Q.     W
|-----------|-----------|-----------|------|
|------8----|-7---------|------8----|------|
|-4---------|------5----|-3---------|-8----|
|------5----|-4---------|------5----|------|
|-2---------|------3----|-1---------|-6----|
|-----------|-----------|-----------|------|


   Chorus
    $
    Csus2                   D
   3/4
    Q.    Q.     +H.        Q.    Q.     +H.
||--------3----|-(3)------|-------5----|-(5)------|
||o-------3----|-(3)------|-------7----|-(7)------|
||--5-----5----|-(5)------|-7-----7----|-(7)------|
||--5----(5)---|-(5)------|-7----(7)---|-(7)------|
||o-3----(3)---|-(3)------|-5----(5)---|-(5)------|
||-------------|----------|------------|----------|


 1.
  Csus2                   D
                                      7/8
  Q.    Q.     +H.        Q.    Q.     +H     E E E
|-------3----|-(3)------|-------5----|-(5)--------------||
|-------3----|-(3)------|-------7----|-(7)-------------o||
|-5-----5----|-(5)------|-7-----7----|-(7)--------------||
|-5----(5)---|-(5)------|-7----(7)---|-(7)----0-4-5-----||
|-3----(3)---|-(3)------|-5----(5)---|-(5)-------------o||
|------------|----------|------------|------------------||


  2.
                                     To Coda
                                                E5           Bmaj7sus4/E
 5/4               7/8                         3/4
                                                                    PM|
  Q.    H..         E E H    E   E H    E E     Q.    Q.      H     E E
|-------3---------|------------|------------||-------------|-------------|
|-------3---------|------------|------------||o-------5----|--5----------|
|-5-----5---------|------------|------------||--------4----|--3----------|
|-5----(5)--------|------------|------------||--2-----2----|--2----------|
|-3----(3)--------|------------|------------||o-2----(2)---|-(2)---------|
|-----------------|-2-3-5----5-|-3-2----3-2-||--0----(0)---|-(0)----0-0--|


  E5           Bmaj7sus4/EE5           C5/G
                                            PM|
  Q.    Q.      H.        Q.    Q.     H    E E
|------------|----------|------------|----------|
|-------5----|--5-------|-------5----|----------|
|-------4----|--3-------|-------4----|-5--------|
|-2-----2----|--2-------|-2-----2----|-5--------|
|-2----(2)---|-(2)------|-2----(2)---|-3--------|
|-0----(0)---|-(0)------|-0----(0)---|-3----3-0-|


            1.           2.
  F#5        B5           B5   F5   E5
                         4/4
       PM|
  H    E E   H    E E     Q.   Q.   E  E
|----------|-----------||----------------||
|----------|----------o||----------------||
|----------|-4---------||-4--------------||
|-4--------|-4---------||-4----3----2\---||
|-4--------|-2--------o||-2----3----2\---||
|-2----2-3-|------3-2--||------1----0\---||


 Instrumental Section
  Faster H=87
                    N.C.
 4/4
  Wx5          H     E   E   E   E
|------------|----------------------|
|------------|------<5>-<5>-<5>-<5>-|
|------------|----------------------|
|------------|----------------------|
|------------|----------------------|
|------------|----------------------|


    PM------------------------------------------------|
    E E E E E E E E   E E E E E E E E   E E E E E E E E
||------------------|-----------------|------------------||
||o-----------------|-----------------|-----------------o||
||------------------|-----------------|------------------||
||----2-1-2-0---2---|-------2---------|------------------||
||o---------------4-|---3-----2---1---|-------0---1---2-o||
||--0---------0-----|-0---0-----0---0-|-5-3-0---0---0----||


    PM        PM      PM  PM    PM  PM      PM  PM  PM
    E E E E E E E E   E E E E E E E E   E E E E E E E E
||------------------|-----------------|------------------||
||o-----------------|-----------------|-----------------o||
||------------------|-----------------|------------------||
||----2-1-2-0---2---|-------2---------|------------------||
||o---------------4-|---3-----2---1---|-------0---1---2-o||
||--0---------0-----|-0---0-----0---0-|-5-3-0---0---0----||


 5/8                                 3/8
  PM          PM          PM          PM      PM
  E E E E E   E E E E E   E E E E E   E E E   E E E
|-----------|-----------|-----------|-------|---3-2-|
|-----------|-----------|-----------|---3-2-|-------|
|-----------|-----------|---4-3-4-0-|-------|-------|
|---2-1-2-0-|---5-4-5-1-|-----------|-------|-------|
|-----------|-----------|-----------|-------|-------|
|-0---------|-0---------|-0---------|-0-----|-0-----|


   4/4                                                   7/8
    PM----------------------------------------------------------------|
    E E E E E E E E   E E E E E E E E   E E E E E E E E   E E E E E E E
||------------------|-----------------|-----------------|-----------------||
||o-----------------|-----------------|-----------------|----------------o||
||------------------|-----------------|-----------------|-----------------||
||------------------|-----------------|-----------------|-----------------||
||o-----------------|-------0-1-2-----|-----------------|-----0-1-2------o||
||--0-2-0-2-3-2-0-2-|-0-2-3-------3-0-|-2-0-2-3-2-0-2-0-|-2-3-------3-2---||


   4/4
    E E E E E E E E   E E E E E E E E
||------------------|-----------------|
||o-----------------|-----------------|
||------------------|-----------------|
||------------------|-----------------|
||o-----------------|-------0-1-2-----|
||--0-2-0-2-3-2-0-2-|-0-2-3-------3-0-|


                   5/4                     3/8
                                            PM
  E E E E E E E E   E E E E E E E E E E     E E E
|-----------------|----------------------||-------|
|-----------------|---------------------o||-------|
|-----------------|----------------------||-------|
|-----------------|----------------------||---5-4-|
|-----------------|-----0-1-2-------5-4-o||-------|
|-2-0-2-3-2-0-2-0-|-2-3-------3-2-0------||-0-----|


   Keyboard Solo
    N.C.
   4/4
    PM        PM      PM  PM    PM  PM      PM  PM  PM
    E E E E E E E E   E E E E E E E E   E E E E E E E E  4x
||------------------|-----------------|------------------||
||o-----------------|-----------------|-----------------o||
||------------------|-----------------|------------------||
||----2-1-2-0---2---|-------2---------|------------------||
||o---------------4-|---3-----2---1---|-------0---1---2-o||
||--0---------0-----|-0---0-----0---0-|-5-3-0---0---0----||


   4/4                                                   5/4
    E E E E E E E E   E E E E E E E E   E E E E E E E E   E E E E E E E E E E
||------------------|-----------------|-----------------|---------------------|
||o-----------------|-----------------|-----------------|---------------------|
||------------------|-----------------|-----------------|---------------------|
||------------------|-----------------|-----------------|---------------------|
||o-----------------|-------0-1-2-----|-----------------|-----0-1-2-------5-4-|
||--0-2-0-2-3-2-0-2-|-0-2-3-------3-0-|-2-0-2-3-2-0-2-0-|-2-3-------3-2-0-----|


 4/4
  E E E E E E E E   E E E E E E E E
|-----------------|-----------------|
|-----------------|-----------------|
|-----------------|-----------------|
|-----------------|-----------------|
|-----------------|-------0-1-2-----|
|-0-2-0-2-3-2-0-2-|-0-2-3-------3-0-|


                   5/4                   3/8
                                          PM
  E E E E E E E E   E E E E E E E E E E   E E E
|-----------------|---------------------|---------||
|-----------------|---------------------|--------o||
|-----------------|---------------------|---------||
|-----------------|---------------------|---5-4---||
|-----------------|-----0-1-2-------5-4-|--------o||
|-2-0-2-3-2-0-2-0-|-2-3-------3-2-0-----|-0-------||


                    Guitar Solo
                     N.C.
                    4/4
  Gtr III
                          ~~~~~~~~~~~~~~~~~
  Q.       Q.          E  H..
|--------|--------||-----12---------------|
|--------|--------||-/11------------------|
|--------|--------||----------------------|
|--------|--------||----------------------|
|--------|--------||----------------------|
|--------|--------||----------------------|
|
| Gtr II
| PM       PM          PM           PM
| E  E E   E  E E      E  E   E E E E E E
|--------|--------||----------------------|
|--------|----3-2-||----------------------|
|----4-3-|--------||----------------------|
|--------|--------||------2---1-2-0---2---|
|--------|--------||--------------------4-|
|-0------|-0------||---0------------0-----|


 ~~~~~~                                 T
   +Q     E      +H         +E     +E   a  E  +Q     +H
|-(12)--------------------------|---------------------------------|
|--------11b12==(11)-------(11)-|-(11)-17p11-(11)---(11)r\--------|
|-------------------------------|---------------------------------|
|-------------------------------|---------------------------------|
|-------------------------------|---------------------------------|
|-------------------------------|---------------------------------|
|
|   PM    PM           PM    PM                PM     PM     PM
|   E  E  E       E  E E E   E      E      E   E  E   E    E E E
|-------------------------------|---------------------------------|
|-------------------------------|---------------------------------|
|-------------------------------|---------------------------------|
|-----------------2-------------|---------------------------------|
|------3-------------2---1------|-----------------0--------1---2--|
|---0-----0------------0-----0--|---5------3---0------0------0----|


  H.            Q            +W                   +Q     +Q      H
|-------------------------|--------------------|--------------------------|
|-------------------------|--------------------|--------------------------|
|-------------------------|--------------------|--------------------------|
|-------------------------|--------------------|--------------------------|
|--------------10b12.5====|=(10)---------------|-(10)---(10)r---13\-------|
|-------------------------|--------------------|--------------------------|
|
| PM         PM               PM   PM    PM  PM           PM     PM   PM
| E  E E E E E  E       E     E  E E E E E E E     E  E   E   E  E  E E E
|-------------------------|--------------------|--------------------------|
|-------------------------|--------------------|--------------------------|
|-------------------------|--------------------|--------------------------|
|----2-1-2-0----2---------|----------2---------|--------------------------|
|-----------------------4-|------3-----2---1---|--------------0-----1---2-|
|-0----------0------------|---0----0-----0---0-|---5--3---0------0----0---|


                                           ~~~
  W                 W                   E  H.             E
|-----------------|-----------------|-----18------------(24)-|
|-----------------|-----------------|-/17----------------24--|
|-----------------|-----------------|------------------------|
|-----------------|-----------------|------------------------|
|-----------------|-----------------|------------------------|
|-----------------|-----------------|------------------------|
|
| PM        PM      PM  PM    PM  PM          PM  PM  PM
| E E E E E E E E   E E E E E E E E     E  E  E E E E E   E
|-----------------|-----------------|------------------------|
|-----------------|-----------------|------------------------|
|-----------------|-----------------|------------------------|
|---2-1-2-0---2---|-------2---------|------------------------|
|---------------4-|---3-----2---1---|-----------0---1-----2--|
|-0---------0-----|-0---0-----0---0-|---5--3--0---0---0------|


   ~~~~~~~~~~~~~~~~~~~~~~~~~~~~~~~~
   E   E   E   E   E   E   E   E
|-24-(24)-24-(24)-24-(24)-24-(24)-|
|-----24------24------24------24--|
|---------------------------------|
|---------------------------------|
|---------------------------------|
|---------------------------------|
|
|  PM                  PM
|  E   E   E   E   E   E   E   E
|---------------------------------|
|---------------------------------|
|---------------------------------|
|------2---1---2---0-------2------|
|------------------------------4--|
|--0-------------------0----------|


 ~~~~~~~~~~~~        ~~~~~~~~~      ~~~
   E   E   E   Q     Q    +E   a    Q.      +E     Q.      +E
|-24-(24)-24--------24---(24)-23S|=24------(24)\----------------||
|-----24-----(23)----------------|------------------------------||
|------------/21-----------------|------------------------------||
|--------------------------------|------------------------------||
|--------------------------------|---------------/13------(13)\-||
|--------------------------------|------------------------------||
|
|  PM      PM        PM    PM            PM        PM   PM
|  E   E   E   E  E  E E   E        E  E E   E     E  E E   E
|--------------------------------|------------------------------||
|--------------------------------|------------------------------||
|--------------------------------|------------------------------||
|--------------2-----------------|------------------------------||
|------3----------2----1---------|-----------0--------1-----2---||
|--0-------0---------0-----0-----|--5--3-0---------0----0-------||


    Gtr IV
               ~~~~~~~~~~~~~~~
  E  Q.        H          +E  E  H            S  S  E
|-------------14-------|-(14)--------------------------|
|---17b19--------------|--------15b17========15-15-15rS|
|----------------------|-------------------------------|
|----------------------|-------------------------------|
|----------------------|-------------------------------|
|----------------------|-------------------------------|
|
| PM----------------------------------------------------
| E  E    E E  E E E E     E  E  E     E E E  E     E
|----------------------|-------------------------------|
|----------------------|-------------------------------|
|----------------------|-------------------------------|
|----------------------|-------------------------------|
|----------------------|---------------0-1-2-----------|
|-0--2----0-2--3-2-0-2-|---0--2--3------------3-----0--|


                         7/8
                 ~~~~~~~~~~~~~
   Q     Q   S S Q.       +Q    S S S S S S  S S S S
|-----------------------|-----------------------------|
|-11--------------------|-----------------------------|
|------\11---9p7p6------|-(6)---9p7p6-----------------|
|-----------------------|-------------9p7p6-----------|
|-----------------------|-------------------10p9p8p7--|
|-----------------------|-----------------------------|
|
|------------------------------------------------|
|  E E   E E E   E  E E    E  E E   E   E    E   E
|-----------------------|-----------------------------|
|-----------------------|-----------------------------|
|-----------------------|-----------------------------|
|-----------------------|-----------------------------|
|-----------------------|-------0---1---2-------------|
|--2-0---2-3-2---0--2-0-|--2--3--------------3---2----|


 4/4
            ~~~~~~~~~~~~~~~~~~~~~~~~~~~~~~~~~~~~~~
      |--3--|
  E S S S   S +Q      +S  Q.        Q.         S  S S E    Q        +S
|--------------------------------|--------------------------------------|
|--------------------------------|-(8)b9=======8--8-8-8r----------------|
|-9---------9-(9)-----(9)-9------|-(9)--------(9)----------8b9======(8)-|
|---8-7-8------------------------|--------------------------------------|
|--------------------------------|--------------------------------------|
|--------------------------------|--------------------------------------|
|
| PM---------------------------------------------------------------------
| E E     E       E E     E  E E    E     E E  E    E    E      E E
|--------------------------------|--------------------------------------|
|--------------------------------|--------------------------------------|
|--------------------------------|--------------------------------------|
|--------------------------------|--------------------------------------|
|--------------------------------|-------------0----1----2--------------|
|-0-2-----0-------2-3-----2--0-2-|--0-----2-3-------------------3-0-----|


                                   7/8
                                            ~
                        |--3--|
  +Q    +Q    +E.   S S S S   S S   S Q     Q     +E     E.
|---------------------------------|------------------------------|
|---------------------------------|------------------------------|
|-(8)---(8)r==(8)---9p7p6h7h==9p7p|=6----------------------------|
|---------------------------------|---9-----8-----(8)\-----------|
|---------------------------------|------------------------------|
|---------------------------------|------------------------------|
|
|-----------------------------------------------------------|
|  E  E  E  E  E  E   E     E       E   E E   E E      E    E
|---------------------------------|------------------------------|
|---------------------------------|------------------------------|
|---------------------------------|------------------------------|
|---------------------------------|------------------------------|
|---------------------------------|-------0---1-2----------------|
|--2--0--2--3--2--0---2-----0-----|-2---3--------------3----2----|


 4/4
                                                             ~~~~~~~~~~~~~~~~~
  E  S  S   S   S  S   S   S  S  S  E    S  S  S    S  S  E  Q    Q.       E
|---------------------------------------18-18-18-|---------------------------|
|---19-19-(19)-18-17-(17)-19-19-18-17------------|-19p18p17S11---11----------|
|------------------------------------------------|-----------------------\11-|
|------------------------------------------------|---------------------------|
|------------------------------------------------|---------------------------|
|------------------------------------------------|---------------------------|
|
| PM--------------------------------------------------------------------------
| E  E      E      E       E     E    E     E       E     E  E E  E  E E   E
|------------------------------------------------|---------------------------|
|------------------------------------------------|---------------------------|
|------------------------------------------------|---------------------------|
|------------------------------------------------|---------------------------|
|------------------------------------------------|-------------0--1--2-------|
|-0--2------0------2-------3-----2----0-----2----|--0-----2--3---------3---0-|


                                      7/8
 ~~~~~~                            ~~~~~~~~~~~~~~~~~~~~
                    |--3--|  |--3--|
   +H          Q    S  S  S  S  S  S    +Q     Q   +Q.
|------------------------------------|----------------------|
|------------------------------------|----------------------|
|-(11)-------------------------------|----------------------|
|------------\11---14p12p11-14p12p11-|-(11)---\8---(8)------|
|------------------------------------|----------------------|
|------------------------------------|----------------------|
|
|--------------------------------------------------------|
|   E  E E E   E E  E        E           E  E  E E  E  E E
|------------------------------------|----------------------|
|------------------------------------|----------------------|
|------------------------------------|----------------------|
|------------------------------------|----------------------|
|------------------------------------|---------0-1--2-------|
|---2--0-2-3---2-0--2--------0-------|---2--3----------3-2--|


 4/4
                                       \1
   ~~~~                           ~~~~~~~~            ~~~~~
  +E     Q.       Q.       E     +E   +Q      Q.      Q
|-------------------------15--|-(15)-(15)---\10------\9---|
|-----------------------------|---------------------------|
|----------------12------(12)-|---------------------------|
|-(8)\------------------------|---------------------------|
|------/10------(10)----------|---------------------------|
|-----------------------------|---------------------------|
|
|  PM------------------------------------------------------
|  E     E  E E   E  E E   E      E    E  E   E  E E  E E
|-----------------------------|---------------------------|
|-----------------------------|---------------------------|
|-----------------------------|---------------------------|
|-----------------------------|---------------------------|
|-----------------------------|---------------0--1-2------|
|--0-----2--0-2---3--2-0---2--|---0----2--3-----------3-0-|


 ~~~~~~~~~~~~~~~
  +H        +S    Q      S  S  S
|-(9)-------(9)-/14-----14h18p14h=|
|---------------------------------|
|---------------------------------|
|---------------------------------|
|---------------------------------|
|---------------------------------|
|
|--------------------------|
|  E  E E E  E      E E     E
|---------------------------------|
|---------------------------------|
|---------------------------------|
|---------------------------------|
|---------------------------------|
|--2--0-2-3--2------0-2-----0-----|


                                                                    B5
 7/8                                   5/8                         4/4
   S  S  S  S   Q    S  S  S  S  S  S     E  S  S  S  S  S  S  E     W
|-18p14h18p14-/18---21p18h21p18h21p18-|-/21-21h24p21h24p21h24p21-||-22----|
|-------------------------------------|--------------------------||-------|
|-------------------------------------|--------------------------||-------|
|-------------------------------------|--------------------------||-------|
|-------------------------------------|--------------------------||-------|
|-------------------------------------|--------------------------||-------|
|
|  PM---------------------------|
|  E     E      E E  E     E     E        E  E     E     E     E     W
|-------------------------------------|--------------------------||-------|
|-------------------------------------|--------------------------||-------|
|-------------------------------------|--------------------------||--4----|
|-------------------------------------|------------2-------------||--4----|
|---------------0-1--2----------------|---4--5-----------5-----4-||--2----|
|--2-----3-----------------3-----2----|--------------------------||-------|


                                        C5
    Q    H.          +Q    Q   Q   Q     H.       Q     +H      H
|-----------------|-------------------|--------------|---------22----|
|-----------------|---------------19--|-19-------20--|-(20)----------|
|-/19---19--------|-(19)--19--21------|--------------|---------------|
|-----------------|-------------------|--------------|---------------|
|-----------------|-------------------|--------------|---------------|
|-----------------|-------------------|--------------|---------------|
|
| Gtr II
|  +H        H       +W                  W              +H      H
|-----------------|-------------------|--------------|---------------|
|-----------------|-------------------|--------------|---------------|
|--(4)-------4----|--(4)--------------|--5-----------|--(5)-----5----|
|--(4)-------4----|--(4)--------------|--5-----------|--(5)-----5----|
|--(2)-------2----|--(2)--------------|--3-----------|--(3)-----3----|
|-----------------|-------------------|--------------|---------------|
|
| Gtr V
|   Q    H.          +Q    Q   Q   Q     H.       Q     +H      H
|-----------------|-------------------|--------------|---------10----|
|-----------------|----------------7--|--7--------8--|--(8)----------|
|--/7----7--------|--(7)---7---9------|--------------|---------------|
|-----------------|-------------------|--------------|---------------|
|-----------------|-------------------|--------------|---------------|
|-----------------|-------------------|--------------|---------------|


                   E5
   +H       H       Q.    Q.    Q     S  S  Q.    a  H       +H      Q   Q
|-(22)----\20----|-20----19----17--|-------------17h19----|-(19)----17--------|
|----------------|-----------------|-24p22p20-------------|-------------20----|
|----------------|-----------------|----------------------|-------------------|
|----------------|-----------------|----------------------|-------------------|
|----------------|-----------------|----------------------|-------------------|
|----------------|-----------------|----------------------|-------------------|
|
|  +W               W                +H              H       +W
|----------------|-----------------|----------------------|-------------------|
|----------------|-----------------|----------------------|-------------------|
|--(5)-----------|--9--------------|-(9)-------------9----|--(9)--------------|
|--(5)-----------|--9--------------|-(9)-------------9----|--(9)--------------|
|--(3)-----------|--7--------------|-(7)-------------7----|--(7)--------------|
|----------------|-----------------|----------------------|-------------------|
|
|  +H       H       Q.    Q.    Q     S  S  Q.    a  H       +H      Q   Q
|-(10)-----\8----|--8-----7-----5--|--------------5h=7----|--(7)-----5--------|
|----------------|-----------------|-12p10p=8-------------|--------------8----|
|----------------|-----------------|----------------------|-------------------|
|----------------|-----------------|----------------------|-------------------|
|----------------|-----------------|----------------------|-------------------|
|----------------|-----------------|----------------------|-------------------|


  D5                                                              B5
   W           +Q    Q   H       +Q    H.                          W
|-17--------|-(17)------------|---------------------------------|-22----|
|-----------|-------19--------|---------------------------------|-------|
|-----------|-----------19----|-(19)----------------------------|-------|
|-----------|-----------------|---------------------------------|-------|
|-----------|-----------------|---------------------------------|-------|
|-----------|-----------------|---------------------------------|-------|
|
|  W           +H        H       +W                                W
|-----------|-----------------|---------------------------------|-------|
|-----------|-----------------|---------------------------------|-------|
|--7--------|--(7)-------7----|--(7)----------------------------|--4----|
|--7--------|--(7)-------7----|--(7)----------------------------|--4----|
|--5--------|--(5)-------5----|--(5)----------------------------|--2----|
|-----------|-----------------|---------------------------------|-------|
|
|  W           +Q    Q   H       +Q   +S  S S S S S S S S S S S    W
|--5--------|--(5)------------|---------------------------5-7-8-|-10----|
|-----------|--------7--------|-------------------5-6-7-8-------|-------|
|-----------|------------7----|--(7)--(7)-4-5-6-7---------------|-------|
|-----------|-----------------|---------------------------------|-------|
|-----------|-----------------|---------------------------------|-------|
|-----------|-----------------|---------------------------------|-------|


                                    C5
   +W             +H      Q    Q     H.       Q     +H       H
|-(22)---------|-(22)-------------|--------------|---------/22----|
|--------------|-------------/19--|-19-------20--|-(20)-----------|
|--------------|---------21-------|--------------|----------------|
|--------------|------------------|--------------|----------------|
|--------------|------------------|--------------|----------------|
|--------------|------------------|--------------|----------------|
|
|  +H     H       +W                 W              +H       H
|--------------|------------------|--------------|----------------|
|--------------|------------------|--------------|----------------|
|--(4)----4----|--(4)-------------|--5-----------|--(5)------5----|
|--(4)----4----|--(4)-------------|--5-----------|--(5)------5----|
|--(2)----2----|--(2)-------------|--3-----------|--(3)------3----|
|--------------|------------------|--------------|----------------|
|
|  +W             +H      Q    Q     H.       Q     +H       H
|-(10)---------|-(10)-------------|--------------|---------/10----|
|--------------|--------------/7--|--7--------8--|--(8)-----------|
|--------------|----------9-------|--------------|----------------|
|--------------|------------------|--------------|----------------|
|--------------|------------------|--------------|----------------|
|--------------|------------------|--------------|----------------|


                   E5
   +H       H       Q.    Q.    Q     +W             Q    Q   Q   Q
|-(22)----/20----|-19--------------|--------------|------------------|
|----------------|-------20--------|--------------|------19--20--22--|
|----------------|-------------21--|-(21)---------|-21---------------|
|----------------|-----------------|--------------|------------------|
|----------------|-----------------|--------------|------------------|
|----------------|-----------------|--------------|------------------|
|
|  +W               W                 +H     H      +W
|----------------|-----------------|--------------|------------------|
|----------------|-----------------|--------------|------------------|
|--(5)-----------|--9--------------|--(9)----9----|-(9)--------------|
|--(5)-----------|--9--------------|--(9)----9----|-(9)--------------|
|--(3)-----------|--7--------------|--(7)----7----|-(7)--------------|
|----------------|-----------------|--------------|------------------|
|
|  +H       H       Q.    Q.    Q     +W             Q    Q   Q   Q
|-(10)-----/8----|--7--------------|--------------|------------------|
|----------------|--------8--------|--------------|-------7---8--10--|
|----------------|--------------9--|--(9)---------|--9---------------|
|----------------|-----------------|--------------|------------------|
|----------------|-----------------|--------------|------------------|
|----------------|-----------------|--------------|------------------|


  D5                                                        A5
  Gtr IV
                                   ~~~~~~~~~~~~              ~~
   Q.     Q.    Q     +E    Q.     H       +H      Q   Q     W
|--------------10--|-(10)---------------|-----------------|-------|
|-22----\20--------|------\10-----------|-----------------|-10----|
|------------------|-------------\11----|-(11)----11--12--|-------|
|------------------|--------------------|-----------------|-------|
|------------------|--------------------|-----------------|-------|
|------------------|--------------------|-----------------|-------|
|
| Gtr II
|  W                  +H           H       +W                W
|------------------|--------------------|-----------------|-------|
|------------------|--------------------|-----------------|-------|
|--7---------------|--(7)----------7----|--(7)------------|--2----|
|--7---------------|--(7)----------7----|--(7)------------|--2----|
|--5---------------|--(5)----------5----|--(5)------------|--0----|
|------------------|--------------------|-----------------|-------|


          F#5                         N.C.
                                     3/4
            ~~~~~~~~~~~~              ~
   Q   Q    H       +H      Q   Q     H       +Q       W
|----------------|-----------------||----------------|---------------|
|-12--13---------|-----------------||----------------|---------------|
|---------\11----|-(11)----12--11--||-9-------(9)\---|---------------|
|----------------|-----------------||----------------|---------------|
|----------------|-----------------||----------------|---------------|
|----------------|-----------------||----------------|---------------|
|
|                                                                ~~~~
|  Q   Q    H       +H      Q   Q     q   E E  E   E   q   E E   Q
|----------------|-----------------||----------------|---------------|
|----------------|-----------------||----------------|---------------|
|----------------|-----------------||----------------|---------------|
|-----------4----|--(4)------------||----------------|---------------|
|--2---3----4----|--(4)------------||----10-9-10---9-|----10-9-[10]--|
|-----------2----|--(2)-----3---2--||-0--------------|-0-------------|


  Gtr V
                                                     ~~~
  q   E E  E E   Q  E Q  E   q   E E  E E   q   E E  Q
|--------------|-----------|--------------|--------------|
|--------------|-----------|--------------|--------------|
|--------------|-----------|--------------|--------------|
|--------------|-----------|--------------|-----9-8-[9]--|
|----10-9-10-9-|----7----7-|----10-9-10-9-|--------------|
|-0------------|-6----5----|-0------------|-0------------|
|
|                                                    ~~~
| q   E E  E E   Q  E Q  E   q   E E  E E   q   E E  Q
|--------------|-----------|--------------|--------------|
|--------------|-----------|--------------|--------------|
|--------------|-----------|--------------|--------------|
|--------------|-----------|--------------|--------------|
|----10-9-10-9-|----7----7-|----10-9-10-9-|----10-9-10---|
|-0------------|-6----5----|-0------------|-0------------|


         ~~             ~~~
  q  E E Q      E E  E  Q.     q   E E  E E
|------------|---------------|--------------|
|------------|---------10----|--------------|
|----9-8-9\--|------11-------|--------------|
|------------|----9----------|--------------|
|------------|-10------------|----10-9-10-9-|
|-8----------|---------------|-0------------|
|
|        ~~             ~~~
| q  E E Q      E E  E  Q.     q   E E  E E
|------------|---------------|--------------|
|------------|---------------|--------------|
|------------|---------------|--------------|
|----9-8-9\--|----------7----|--------------|
|------------|-10----9-------|----10-9-10-9-|
|-8----------|----7----------|-0------------|


           ~~
  q   E E  Q    q   E E  E E   Q  E Q  E
|-------------|--------------|-----------|
|-------------|--------------|-----------|
|-------------|--------------|-----------|
|-------------|--------------|-----------|
|----10-9-10--|----10-9-10-9-|----7----7-|
|-0-----------|-0------------|-6----5----|
|
|          ~~
| q   E E  Q    q   E E  E E   Q  E Q  E
|-------------|--------------|-----------|
|-------------|--------------|-----------|
|-------------|--------------|-----------|
|-------------|--------------|-----------|
|----10-9-10--|----10-9-10-9-|----7----7-|
|-0-----------|-0------------|-6----5----|


                                 Bb5  A5     D#5/BD5/A   N.C.
                           ~~~~
  q   E E  E E   q   E E   Q     Q.   Q.     Q.   Q.     q   E E  E E
|--------------|---------------|-----------|-----------|---------------|
|--------------|---------------|-----------|-----------|---------------|
|--------------|---------------|-----------|-----------|---------------|
|--------------|-----9-8--[9]--|-8----7----|-8----7----|---------------|
|----10-9-10-9-|---------------|-8----7----|-6----5----|----10-9-10-9--|
|-0------------|-0-------------|-6----5----|-6----5----|-0-------------|
|
|                          ~~~~
| q   E E  E E   q   E E   Q     Q.   Q.     Q.   Q.     q   E E  E E
|--------------|---------------|-----------|-----------|---------------|
|--------------|---------------|-----------|-----------|---------------|
|--------------|---------------|-----------|-----------|---------------|
|--------------|---------------|-8----7----|-8----7----|---------------|
|----10-9-10-9-|----10-9-[10]--|-8----7----|-6----5----|----10-9-10-9--|
|-0------------|-0-------------|-6----5----|-6----5----|-0-------------|


            ~~~~                                                      ~~~~
  q   E E   Q     q   E E  E E   Q  E Q  E   q   E E  E E   q   E E   Q
|---------------|--------------|-----------|--------------|----------------|
|---------------|--------------|-----------|--------------|----------------|
|---------------|--------------|-----------|--------------|----------------|
|---------------|--------------|-----------|--------------|-----9-8--[9]---|
|----10-9-[10]--|----10-9-10-9-|----7----7-|----10-9-10-9-|----------------|
|-0-------------|-0------------|-6----5----|-0------------|-0--------------|
|
|           ~~~~                                                      ~~~~
| q   E E   Q     q   E E  E E   Q  E Q  E   q   E E  E E   q   E E   Q
|---------------|--------------|-----------|--------------|----------------|
|---------------|--------------|-----------|--------------|----------------|
|---------------|--------------|-----------|--------------|----------------|
|---------------|--------------|-----------|--------------|----------------|
|----10-9-[10]--|----10-9-10-9-|----7----7-|----10-9-10-9-|----10-9-[10]---|
|-0-------------|-0------------|-6----5----|-0------------|-0--------------|


         ~~             ~~~
  q  E E Q      E E  E  Q.     q   E E  E E
|------------|---------------|--------------|
|------------|---------10----|--------------|
|----9-8-9\--|------11-------|--------------|
|------------|----9----------|--------------|
|------------|-10------------|----10-9-10-9-|
|-8----------|---------------|-0------------|
|
|        ~~             ~~~
| q  E E Q      E E  E  Q.     q   E E  E E
|------------|---------------|--------------|
|------------|---------------|--------------|
|------------|---------------|--------------|
|----9-8-9\--|----------7----|--------------|
|------------|-10----9-------|----10-9-10-9-|
|-8----------|----7----------|-0------------|


            ~~~~
  q   E E   Q     q   E E  E E   Q  E Q  E
|---------------|--------------|-----------|
|---------------|--------------|-----------|
|---------------|--------------|-----------|
|---------------|--------------|-----------|
|----10-9-[10]--|----10-9-10-9-|----7----7-|
|-0-------------|-0------------|-6----5----|
|
|           ~~~~
| q   E E   Q     q   E E  E E   Q  E Q  E
|---------------|--------------|-----------|
|---------------|--------------|-----------|
|---------------|--------------|-----------|
|---------------|--------------|-----------|
|----10-9-[10]--|----10-9-10-9-|----7----7-|
|-0-------------|-0------------|-6----5----|


                                 Bb5  A5     D#5/BD5/A
                           ~~~~
  q   E E  E E   q   E E   Q     Q.   Q.     Q.   Q.
|--------------|---------------|-----------|-----------|
|--------------|---------------|-----------|-----------|
|--------------|---------------|-----------|-----------|
|--------------|-----9-8--[9]--|-8----7----|-8----7----|
|----10-9-10-9-|---------------|-8----7----|-6----5----|
|-0------------|-0-------------|-6----5----|-6----5----|
|
|                          ~~~~
| q   E E  E E   q   E E   Q     Q.   Q.     Q.   Q.
|--------------|---------------|-----------|-----------|
|--------------|---------------|-----------|-----------|
|--------------|---------------|-----------|-----------|
|--------------|---------------|-8----7----|-8----7----|
|----10-9-10-9-|----10-9-[10]--|-8----7----|-6----5----|
|-0------------|-0-------------|-6----5----|-6----5----|


  N.C.
 4/4
  Gtr II
                   ~~~~~~~~~~~
  W          Q  Q  H      +W
|----------|------------|------------|
|----------|------------|------------|
|----------|------------|------------|
|-2--------|-4--5-------|------------|
|----------|-------4----|-(4)--------|
|----------|------------|------------|


  W          Q  Q  H      +H     Q  Q    W
|----------|------------|--------------|------|
|----------|------------|--------------|------|
|----------|------------|--------------|------|
|----------|------------|--------------|------|
|----------|-3--1--2----|-(2)----------|------|
|-2--------|------------|--------3--2--|-0----|


        ~~~~~~~~~~~                                       ~~~
  Q  Q  H      +W           W          Q  Q  H      +Q    H.
|------------|------------|----------|------------|-------------|
|------------|------------|----------|------------|-------------|
|------------|------------|----------|------------|-------------|
|-4--5-------|------------|----------|-------1----|-(1)---------|
|-------3----|-(3)--------|-0--------|-2--3-------|------[2]----|
|------------|------------|----------|------------|-------------|


   Verse 4
    E5
   4/4
                                          PM      PM
    E E E E E E E E   E E E E E E E E   E E E E E E E E
||------------------|-----------------|-----------------|
||o-----------------|-----------------|-----------------|
||------------------|-----------------|-----------------|
||------------------|-----------------|-----2-----------|
||o-2-2---2---2---2-|---2---2---2---2-|-------------2-0-|
||--0-0---0---0---0-|---0---0---0---0-|---0---0---0-----|


  E5
                                        PM      PM
  E E E E E E E E   E E E E E E E E   E E E E E E E E
|-----------------|-----------------|-----------------|
|-----------------|-----------------|-----------------|
|-----------------|-----------------|-----------------|
|-----------------|-----------------|-----4-----------|
|-2-2---2---2---2-|---2---2---2---2-|-------------0-2-|
|-0-0---0---0---0-|---0---0---0---0-|---0---0---0-----|


  E5
                                        PM      PM
  E E E E E E E E   E E E E E E E E   E E E E E E E E
|-----------------|-----------------|-----------------|
|-----------------|-----------------|-----------------|
|-----------------|-----------------|-----------------|
|-----------------|-----------------|-----5-----------|
|-2-2---2---2---2-|---2---2---2---2-|-------------3-1-|
|-0-0---0---0---0-|---0---0---0---0-|---0---0---0-----|


                                     1.
  C5                        G5            F5
                                                PM ~~~
  E E E E E E E E   E E E E E E E E   E E E E E E  Q
|-----------------|-----------------|-------------------||
|-----------------|-----------------|------------------o||
|-----------------|-----------------|-------------------||
|-5-5---5---5---5-|---5---5---------|-------------------||
|-3-3---3---3---3-|---3---3-5-5---5-|---5-3-3-----[2]--o||
|-----------------|---------3-3---3-|---3-1-1---1-------||


  2.              Half Time H=74
    D.S. al Coda     &
    G5B5             E5                   Bmaj7sus4/E
                    3/4
  E E E E E E E E    H.         H.         H.        +Q   Q  Q
|-----------------||---------|----------|----------|-------------|
|-----------------||---------|--5-------|--5-------|-(5)---------|
|-----------------||---------|--4-------|--3-------|-(3)---------|
|-----4-4---4---4-||-2-------|--2-------|--2-------|-(2)---------|
|---5-2-2---2---2-||-2-------|-(2)------|-(2)------|-(2)---------|
|---3-------------||-0-------|-(0)------|-(0)------|-(0)--3--2---|


  E5                   Bmaj7sus4/E
  H.         H.         H.        +Q   Q  Q
|---------|----------|----------|------------|
|---------|--5-------|--5-------|-(5)--------|
|---------|--4-------|--3-------|-(3)--------|
|-2-------|--2-------|--2-------|-(2)--------|
|-2-------|-(2)------|-(2)------|-(2)--------|
|-0-------|-(0)------|-(0)------|-(0)--3--2--|


  E5                   C5/G
                                      PM-|
  H.         H.        H.        +Q   Q  Q
|---------|----------|---------|------------|
|---------|--5-------|---------|------------|
|---------|--4-------|-5-------|-(5)--------|
|-2-------|--2-------|-5-------|-(5)--------|
|-2-------|-(2)------|-3-------|-(3)--------|
|-0-------|-(0)------|-3-------|-(3)--3--0--|


  F#5                    B5                    E5
                 PM-|
  H.        +Q   Q  Q    H.        +H       Q
|---------|------------|---------|--------------|
|---------|------------|---------|--------------|
|---------|------------|-4-------|-(4)----------|
|-4-------|-(4)--------|-4-------|-(4)----------|
|-4-------|-(4)--------|-2-------|-(2)----------|
|-2-------|-(2)--2--3--|---------|--------/12\--|


    E5                   Bmaj7sus4/E
    H.         H.         H.        +Q   Q  Q
||----------|----------|----------|--------------||
||o---------|--5-------|--5-------|-(5)---------o||
||----------|--4-------|--3-------|-(3)----------||
||--2-------|--2-------|--2-------|-(2)----------||
||o-2-------|-(2)------|-(2)------|-(2)---------o||
||--0-------|-(0)------|-(0)------|-(0)--3--2----||


  E5
                       ~~
  H.         H.        H.
|---------|----------|-------|
|---------|--5-------|-------|
|---------|--4-------|-------|
|-2-------|--2-------|-------|
|-2-------|-(2)------|-------|
|-0-------|-(0)------|-3-----|


               F#5                    B5        F5
   ~~~ PM-|                   PM-|
  +Q   Q  Q    H.        +Q   Q  Q    H.        H.
|------------|---------|------------|---------|-------|
|------------|---------|------------|---------|-------|
|------------|---------|------------|-4-------|-------|
|------------|-4-------|-(4)--------|-4-------|-3-----|
|------------|-4-------|-(4)--------|-2-------|-3-----|
|-(3)--3--3--|-2-------|-(2)--2--2--|---------|-1-----|


   Outro
    H=87
    N.C.
   4/4
    PM        PM      PM  PM    PM  PM      PM  PM  PM
    E E E E E E E E   E E E E E E E E   E E E E E E E E  4x
||------------------|-----------------|------------------||
||o-----------------|-----------------|-----------------o||
||------------------|-----------------|------------------||
||----2-1-2-0---2---|-------2---------|------------------||
||o---------------4-|---3-----2---1---|-------0---1---2-o||
||--0---------0-----|-0---0-----0---0-|-5-3-0---0---0----||


  W          Q  Q   H      +H     Q  Q     W
|----------|-------------|--------------|-------|
|----------|-------------|--------------|-------|
|----------|-------------|--------------|-------|
|----------|-------------|--------------|-------|
|-0--------|-2--3--------|-----------0--|-/6----|
|----------|-------\2----|-(2)----3-----|-------|


  Q  Q   H      +H     Q  Q    W          Q  Q   H
|-------------|--------------|----------|-------------|
|-------------|--------------|----------|-------------|
|-------------|--------------|----------|-------------|
|-------------|--------------|----------|-4--5--------|
|-7--9--------|--------------|----------|-------\4----|
|-------\7----|-(7)----3--2--|-0--------|-------------|


  +H     Q  Q     W          Q  Q   H      +Q   H.
|--------------|-----------|-------------|------------|
|--------------|-----------|-------------|------------|
|--------------|-----------|-------------|------------|
|--------------|-----------|-------------|------4-----|
|-(4)----5--7--|-----------|-------------|------------|
|--------------|-\6--------|-7--9--\2----|-(2)--------|


  W              Q   Q   H      +H       Q   Q     W
|------------|----------------|-----------------|-------------|
|------------|----------------|-----------------|-------------|
|------------|----------------|-----------------|-------------|
|------------|----------------|-----------------|-------------|
|-0----------|---2---3--------|--------------0--|-/6----------|
|------------|----------\2----|-(2)------3------|-------------|
|
| Gtr IV
|       <                        <                       <
| H     H       +H       H       H      +H         H     H
|------------|----------------|-----------------|-------------|
|------10----|-(10)-----------|-10-----(10)-----|-------10----|
|------------|----------------|-----------------|-------------|
|------------|----------------|-----------------|-------------|
|------------|----------------|-----------------|-------------|
|------------|----------------|-----------------|-------------|


    Q   Q   H      +H       Q   Q    W              Q   Q   H
|----------------|-----------------|------------|----------------|
|----------------|-----------------|------------|----------------|
|----------------|-----------------|------------|----------------|
|----------------|-----------------|------------|---4---5--------|
|---7---9--------|-----------------|------------|----------\4----|
|----------\7----|-(7)------3---2--|-0----------|----------------|
|
|                   <                      <
|                                          TP       TP
|  +H       H       H      +H        H     H       +H       H
|----------------|-----------------|------------|----------------|
|-(10)-----------|-12-----(12)-----|------12----|-(12)-----------|
|----------------|-----------------|------------|----------------|
|----------------|-----------------|------------|----------------|
|----------------|-----------------|------------|----------------|
|----------------|-----------------|------------|----------------|


  +H       Q   Q     W              Q   Q   H      +Q   H.
|-----------------|-------------|----------------|----------------||
|-----------------|-------------|----------------|----------------||
|-----------------|-------------|----------------|----------------||
|-----------------|-------------|----------------|------4---------||
|-(4)------5---7--|-------------|----------------|----------------||
|-----------------|-\6----------|---7---9--\2----|-(2)------------||
|
|  <                       <                        <
|  TP      TP              TP       TP              TP       TP
|  H      +H         H     H       +H       H       H        H
|-----------------|-------------|----------------|----------------||
|-14-----(14)-----|-------12----|-(12)-----------|-14-------14----||
|-----------------|-------------|----------------|----------------||
|-----------------|-------------|----------------|----------------||
|-----------------|-------------|----------------|----------------||
|-----------------|-------------|----------------|----------------||


 3/4
                           ~~~~
  q   E E  E E   q   E E   Q     q   E E  E E   Q  E Q  E   q   E E  E E
|--------------|---------------|--------------|-----------|--------------|
|--------------|---------------|--------------|-----------|--------------|
|--------------|---------------|--------------|-----------|--------------|
|--------------|---------------|--------------|-----------|--------------|
|----10-9-10-9-|----10-9-[10]--|----10-9-10-9-|----7----7-|----10-9-10-9-|
|-0------------|-0-------------|-0------------|-6----5----|-0------------|
|
| Gtr V
|                          ~~~~
| q   E E  E E   q   E E   Q     q   E E  E E   Q  E Q  E   q   E E  E E
|--------------|---------------|--------------|-----------|--------------|
|--------------|---------------|--------------|-----------|--------------|
|--------------|---------------|--------------|-----------|--------------|
|--------------|---------------|--------------|-----------|--------------|
|----10-9-10-9-|----10-9--10---|----10-9-10-9-|----7----7-|----10-9-10-9-|
|-0------------|-0-------------|-0------------|-6----5----|-0------------|


            ~~~~                                                      ~~~~
  q   E E   Q     q   E E  E E   Q  E Q  E   q   E E  E E   q   E E   Q
|---------------|--------------|-----------|--------------|----------------|
|---------------|--------------|-----------|--------------|----------------|
|---------------|--------------|-----------|--------------|----------------|
|-----9-8-[10]--|--------------|-----------|--------------|----------------|
|---------------|----10-9-10-9-|----9----9-|----10-9-10-9-|----10-9-[10]---|
|-0-------------|-0------------|-8----7----|-0------------|-0--------------|
|
|           ~~~~                                                      ~~~~
| q   E E   Q     q   E E  E E   Q  E Q  E   q   E E  E E   q   E E   Q
|---------------|--------------|-----------|--------------|----------------|
|---------------|--------------|-----------|--------------|----------------|
|---------------|--------------|-----------|--------------|----------------|
|---------------|--------------|-----------|--------------|----------------|
|----10-9--10---|----10-9-10-9-|----9----9-|----10-9-10-9-|----10-9-[10]---|
|-0-------------|-0------------|-8----7----|-0------------|-0--------------|


                                                      ~~~~
  q   E E  E E   Q  E Q  E   q   E E  E E   q   E E   Q
|--------------|-----------|--------------|---------------|
|--------------|-----------|--------------|---------------|
|--------------|-----------|--------------|---------------|
|--------------|-----------|--------------|----10-9-[10]--|
|----10-9-10-9-|----7----7-|----10-9-10-9-|---------------|
|-0------------|-6----5----|-0------------|-0-------------|
|
|                                                     ~~~~
| q   E E  E E   Q  E Q  E   q   E E  E E   q   E E   Q
|--------------|-----------|--------------|---------------|
|--------------|-----------|--------------|---------------|
|--------------|-----------|--------------|---------------|
|--------------|-----------|--------------|---------------|
|----10-9-10-9-|----7----7-|----10-9-10-9-|----10-9-[10]--|
|-0------------|-6----5----|-0------------|-0-------------|


  C5   F#5    Bb5  F5     E5
 3/4
  Q.   Q.     Q.   Q.     Q.   Q.
|-----------|-----------|-----------*|
|-----------|-----------|-----------*|
|-5---------|-3---------|-----------*|
|-5----4----|-3----3----|-2\--------*|
|-3----4----|-1----3----|-2\--------*|
|------2----|------1----|-0\--------*|

-----------------------------------------------------------------

8. OCTAVARIUM
Tuning - E,A,D,G,B,E

E||-------------------|-------------------|-------------------|
B||-------------------|-------------------|-------------------|
G||-------------------|-------------------|-------------------|
D||--3----------------|--3----------------|--3----------------|
A||--3----------------|--3----------------|--3----------------|
E||--1----------------|--1----------------|--1----------------|



-------------------|-------------------|-------------------|-------------------|
-------------------|-------------------|-------------------|-------------------|
--3----------------|-------------------|--6----------------|--7----------------|
--3----------------|--3----------------|--6----------------|--7----------------|
--1----------------|--3----------------|--4----------------|--5----------------|
-------------------|--1----------------|-------------------|-------------------|


                                         Fm
-------------------|------------------|--1----1--x-1-1--x-1-1-1-1-1-|
-------------------|------------------|--1----1--x-1-1--x-1-1-1-1-1-|
-------------------|------------------|--1----1--x-1-1--x-1-1-1-1-1-|
--3----------------|------------------|--3----3--x-3-3--x-3-3-3-3-3-|
--1----------------|------------------|--3----3--x-3-3--x-3-3-3-3-3-|
--1----------------|------------------|--1----1--x-1-1--x-1-1-1-1-1-|



--1----1--x-1-1--x-1-1-1-1-1-|--1----1--x-1-1--x-1-1-1-1-1-|
--1----1--x-1-1--x-1-1-1-1-1-|--1----1--x-1-1--x-1-1-1-1-1-|
--1----1--x-1-1--x-1-1-1-1-1-|--1----1--x-1-1--x-1-1-1-1-1-|
--3----3--x-3-3--x-3-3-3-3-3-|--3----3--x-3-3--x-3-3-3-3-3-|
--3----3--x-3-3--x-3-3-3-3-3-|--3----3--x-3-3--x-3-3-3-3-3-|
--1----1--x-1-1--x-1-1-1-1-1-|--1----1--x-1-1--x-1-1-1-1-1-|


                                Cm
--1----1--x-1-1--x-1-1-1-1-1-|--3----3--x-3-3--x-3-3-3-3-3-|
--1----1--x-1-1--x-1-1-1-1-1-|--4----4--x-4-4--x-4-4-4-4-4-|
--1----1--x-1-1--x-1-1-1-1-1-|--5----5--x-5-5--x-5-5-5-5-5-|
--3----3--x-3-3--x-3-3-3-3-3-|--5----5--x-5-5--x-5-5-5-5-5-|
--3----3--x-3-3--x-3-3-3-3-3-|--3----3--x-3-3--x-3-3-3-3-3-|
--1----1--x-1-1--x-1-1-1-1-1-|-----------------------------|


  A#m                        Fm
--1----1--x-1-1--x-1-1----|--1----1--x-1-1--x-1-1--1-1-|
--2----2--x-2-2--x-2-2----|--1----1--x-1-1--x-1-1--1-1-|
--3----3--x-3-3--x-3-3----|--1----1--x-1-1--x-1-1--1-1-|
--3----3--x-3-3--x-3-3----|--3----3--x-3-3--x-3-3--3-3-|
--1----1--x-1-1--x-1-1----|--3----3--x-3-3--x-3-3--3-3-|
--------------------------|--1----1--x-1-1--x-1-1--1-1-|


  D#                            G#
-----------------------------|--4--x-x-4--x-4----x-4-4--4-4-|
--4----4--x-4-4--x-4-4-4-4-4-|--4--x-x-4--x-4----x-4-4--4-4-|
--3----3--x-3-3--x-3-3-3-3-3-|--5--x-x-5--x-5----x-5-5--5-5-|
--5----5--x-5-5--x-5-5-5-5-5-|--6--x-x-6--x-6-6--x-6-6--6-6-|
--6----6--x-6-6--x-6-6-6-6-1-|--6--x-x-6--x-6-6--x-6-6--6-6-|
----------x------x-----------|--4-----------4-4----4-4--4-4-|


  Edim                       Fm              G#
--------------------------|--8-----8---8--8--4----4--4-4-|
--8----8--x-8-8----8--8-8-|--9-----9---9--9--4----4--4-4-|
--6----6--x-6-6----6--6-6-|--10----10--10-10-5----5--5-5-|
--8----8--x-8-8----8--8-8-|--10----10--10-10-6----6--6-6-|
--7----7--x-7-7----7--7-7-|--8-----8---8--8--6----6--6-6-|
----------x---------------|------------------4----4--4-4-|


  Ddim                       Fdim
----------x-----------x---|--------------------------|
--6----6--x-6-6----6--x-6-|--9----9--x-9-9----9--x-9-|
--4----4--x-4-4----4--x-4-|--7----7--x-7-7----7--x-7-|
--6----6--x-6-6----6--x-6-|--9----9--x-9-9----9--x-9-|
--5----5--x-5-5----5--x-5-|--8----8--x-8-8----8--x-8-|
----------x-----------x---|----------------------x---|


  C
--8-----8---x-8--8-----8-----8--|--8-----------------|
--8-----8---x-8--8-----8---x-8--|--8-----------------|
--9-----9---x-9--9-----9---x-9--|--9-----------------|
--10----10--x-10-10----10--x-10-|--10----------------|
--10----10--x-10-10----10--x-10-|--10----------------|
--8-----8---x-8--8-----8-----8--|--8-----------------|



-------------------------------|-------------------------------|
---------9------8--------------|-------------------------------|
-----------------------10------|---------9--------------9------|
-----10-----10-----10------10--|----------------13-------------|
--8----------------------------|-----11-----11------11-----11--|
-------------------------------|--9----------------------------|



-------------------------------|--------------------------|
---------9------8--------------|--------------------------|
-----------------------10------|---------9----------------|
-----10-----10-----10------10--|----------------13--------|
--8----------------------------|-----11-----11------------|
-------------------------------|--9-----------------------|



-------------------------------|------------------------------|
---------9------8--------------|------------------------------|
-----------------------10------|---------9------8------9------|
-----10-----10-----10------10--|------------------------------|
--8----------------------------|-----11-----11-----11-----11--|
-------------------------------|--9---------------------------|



-------------------------------|--------7-----------------|
---------9------8--------------|--9-----------8-----6-----|
-----------------------10------|-----8-----8-----8-----8--|
-----10-----10-----10------10--|--------------------------|
--8----------------------------|--------------------------|
-------------------------------|--------------------------|



----------------------------|---------------------------|
--8-------------------------|------------------------8--|
----8-----------7-----8-----|--------------8-----10-----|
------8------8-----8-----8--|--------9------------------|
---------10-----------------|-----8-----8-----8---------|
----------------------------|--7------------------------|



--11---------8--10p8---8-11-10-8----|----------10----14/x------------------|
------11--8----------8-----------11-|--10-----------------10---8-7h8p7-----|
------------------------------------|------11--------11/x----7---------9-7-|
------------------------------------|--------------------------------------|
------------------------------------|--------------------------------------|
------------------------------------|--------------------------------------|



-----------------10------12--12--|--12/0------------0-----------|
---------10----------10----------|------------------------------|
--10---------10------------------|-------6-------6------6-------|
------9--------------------------|---------7---7----------6-----|
---------------------------------|-----------7--------7---------|
---------------------------------|------------------------------|



----------0-------0-------0-------|----------5-------9----12-9-----|
----7---7---7---7-----7-----7---7-|--------5---5-------10----------|
--9-----------7-----7---7-----6---|--6---6-------6-----------------|
------7---------------------------|----7-----------7---------------|
----------------------------------|--------------------------------|
----------------------------------|--------------------------------|



--0---0--------------------|--0-2-3---------2---0---2---0---|
----3----1-----3-----1-----|--------0---------0---0---0---0-|
------------0-----0-----0--|--------------------------------|
---------------------------|----------4---------------------|
---------------------------|-------------7------------------|
---------------------------|--------------------------------|



--1--------1--------|--------1-------1---------4-----|
--------------------|--2--4----2---2-------2-----2---|
--------------------|------------1-----1-----1-----1-|
--------------------|--------------------3-----------|
--------------------|--------------------------------|
--------------------|--------------------------------|



-----------------------10--|-------------------------|------------------|
--------6/-10-10-10-10-----|-------------7-----------|------------------|
-----7---------------------|--6--------6---6---------|------------------|
--8------------------------|----7--7-7---------------|------------------|
---------------------------|-------------------------|------------------|
---------------------------|-------------------------|------------------|



-------------------------------|-------------------------------|
---------9------8--------------|-------------------------------|
-----------------------10------|---------9--------------9------|
-----10-----10-----10------10--|----------------13-------------|
--8----------------------------|-----11-----11------11-----11--|
-------------------------------|--9----------------------------|



-------------------------------|--------7-----------------|
---------9------8--------------|--9-----------8-----6-----|
-----------------------10------|-----8-----8-----8-----8--|
-----10-----10-----10------10--|--------------------------|
--8----------------------------|--------------------------|
-------------------------------|--------------------------|



----------------------------|---------------------------|
--8-------------------------|------------------------8--|
----8-----------7-----8-----|--------------8-----10-----|
------8------8-----8-----8--|--------9------------------|
---------10-----------------|-----8-----8-----8---------|
----------------------------|--7------------------------|



----------------------------|----------------------------|
--8-------------------------|----------------------------|
----8-----------7-----8-----|--------------8-----10--12--|
------8------8-----8-----8--|--------9-------------------|
---------10-----------------|-----8-----8-----8----------|
----------------------------|--7-------------------------|



----------------------------|---------------------------|
--8-------------------------|------------------------8--|
----8-----------7-----8-----|--------------8-----10-----|
------8------8-----8-----8--|--------9------------------|
---------10-----------------|-----8-----8-----8---------|
----------------------------|--7------------------------|



--11---------8--10p8---8-11-10-8----|----------10----14/x------------------|
------11--8----------8-----------11-|--10-----------------10---8-7h8p7-----|
------------------------------------|------11--------11/x----7---------9-7-|
------------------------------------|--------------------------------------|
------------------------------------|--------------------------------------|
------------------------------------|--------------------------------------|



-----------------10------12--12--|-------------------------------|
---------10----------10----------|--5-------2-----------2--------|
--10---------10------------------|------2-----2---2-1-----1------|
------9--------------------------|----2---2-----2-----2-----2----|
---------------------------------|--4----------------------------|
---------------------------------|-------------------------------|



----------0-------0-------0-------|----------5-------9----12-9-----|
----7---7---7---7-----7-----7---7-|--------5---5-------10----------|
--9-----------7-----7---7-----6---|--6---6-------6-----------------|
------7---------------------------|----7-----------7---------------|
----------------------------------|--------------------------------|
----------------------------------|--------------------------------|



---------------------------|--0-2-3---------2---0---2---0---|
--5-7-8--------7-----5-----|--------0---------0---0---0---0-|
---------5--------------4--|--------------------------------|
------------5-----5--------|----------4---------------------|
---------------------------|-------------7------------------|
---------------------------|--------------------------------|



--1--------1--------|--------1-------1---------4-----|-------------------|
--------------------|--2--4----2---2-------2-----2---|-------------------|
--------------------|------------1-----1-----1-----1-|-------------------|
--------------------|--------------------3-----------|--3----------------|
--------------------|--------------------------------|--3----------------|
--------------------|--------------------------------|--1----------------|



---------------------|------------------------|------------------------|
---------------------|------------------------|------------------------|
---------------------|-------4-----------4----|-------4-----------4----|
------------6--------|------------------------|------------------------|
---------6--6--------|--2--------2-2--2-------|--2--------2-2--2-------|
--4------4--4--------|------------------------|------------------------|



------------------------|------------------------|------------------------|
------------------------|------------------------|------------------------|
-------4-----------4----|-------4-----------4----|-------4-----------4----|
------------------------|------------------------|------------------------|
--2--------2-2--2-------|--2--------2-2--2-------|--2--------2-2--2-------|
------------------------|------------------------|------------------------|



------------------------|-------------------------|-----------------------|
------------------------|-------------------------|-----------------------|
-------4-----------4----|-------4-----4-----2--4--|------------------4----|
------------------------|----------------4--------|-----------------------|
--2--------2-2--2-------|--2--------2-------------|--2~------2-2--2-------|
------------------------|-------------------------|-----------------------|



------------------------|------------------------|------------------------|
------------------------|------------------------|------------------------|
-------4-----------4----|-------3-----------3----|------------------------|
------------------------|------------------------|-------7-----------7----|
--2--------2-2--2-------|--1--------1-1--1-------|--0--------0-0--0-------|
------------------------|------------------------|------------------------|



-------------------|------------------|------------------|------------------|
-------------------|------------------|------------------|------------------|
-------------------|------------------|------------------|------------------|
-------------------|------------------|------------------|------------------|
-------------------|------------------|------------------|------------------|
--5~---------------|------------------|------------------|------------------|



------------------|------------------|------------------|------------------|
------------------|------------------|------------------|------------------|
------------------|------------------|------------------|------------------|
------------------|------------------|------------------|------------------|
------------------|------------------|------------------|------------------|
------------------|------------------|------------------|------------------|



------------------|------------------|------------------|------------------|
------------------|------------------|------------------|------------------|
------------------|------------------|------------------|------------------|
------------------|------------------|------------------|------------------|
------------------|------------------|------------------|------------------|
------------------|------------------|------------------|------------------|



------------------|------------0--------|----------4----5----|
------------------|------------0--------|--------------------|
------------------|------------2--------|--------------------|
------------------|-------2----2--------|--------------------|
------------------|--0------------------|--------------------|
------------------|---------------------|--------------------|



----------------------|--0-------------------|------------0--------|
------------3---------|------------3---------|------------0--------|
-------2---------2----|-------2---------2----|------------2--------|
--3-------------------|----------------------|-------2----2--------|
----------------------|----------------------|--0------------------|
----------------------|----------------------|---------------------|



----------4----5----|----------------------|--0-------------------|
--------------------|------------3---------|------------3---------|
--------------------|-------2---------2----|-------2---------2----|
--------------------|--3-------------------|----------------------|
--------------------|----------------------|----------------------|
--------------------|----------------------|----------------------|



------------0--------|----------4----5----|----------------------|
------------0--------|--------------------|------------3---------|
------------2--------|--------------------|-------2---------2----|
-------2----2--------|--------------------|--3-------------------|
--0------------------|--------------------|----------------------|
---------------------|--------------------|----------------------|



--0-------------------|------------0--------|----------4----5----|
------------3---------|------------0--------|--------------------|
-------2---------2----|------------2--------|--------------------|
----------------------|-------2----2--------|--------------------|
----------------------|--0------------------|--------------------|
----------------------|---------------------|--------------------|



----------------------|--0-------------------|------------0--------|
------------3---------|------------3---------|------------0--------|
-------2---------2----|-------2---------2----|------------2--------|
--3-------------------|----------------------|-------2----2--------|
----------------------|----------------------|--0------------------|
----------------------|----------------------|---------------------|



----------4----5----|----------------------|--0-------------------|
--------------------|------------3---------|------------3---------|
--------------------|-------2---------2----|-------2---------2----|
--------------------|--3-------------------|----------------------|
--------------------|----------------------|----------------------|
--------------------|----------------------|----------------------|



----------------------|--2-------------------|----------------------|
------------2---------|------------2---------|------------1---------|
-------2---------2----|-------2---------2----|-------2---------2----|
--4-------------------|----------------------|--3-------------------|
----------------------|----------------------|----------------------|
----------------------|----------------------|----------------------|



--0-------------------|--------------------------|--------------------------|
-------0--------------|--------------3-----------|--------------3-----------|
------------2---------|--------0--------0-----0--|--------0--------0-----0--|
-----------------3----|-----4-----4--------4-----|-----4-----4--------4-----|
----------------------|--5-----------------------|--5-----------------------|
----------------------|--------------------------|--------------------------|



--------------1-----------|--------------1-----------|--0----0-----0----------|
--------1--------1-----1--|--------1--------1-----1--|--0----0--0--0----0--0--|
-----2-----2--------2-----|-----2-----2--------2-----|--2----2--2--2----2--2--|
--3-----------------------|--3-----------------------|--2----2--2--2----2--2--|
--------------------------|--------------------------|--0----0-----0----------|
--------------------------|--------------------------|------------------------|



--0----0-----0----------|--0----0-----0----------|--0----0-----0----------|
--0----0--0--0----0--0--|--0----0--0--0----0--0--|--0----0--0--0----0--0--|
--2----2--2--2----2--2--|--2----2--2--2----2--2--|--2----2--2--2----2--2--|
--2----2--2--2----2--2--|--2----2--2--2----2--2--|--2----2--2--2----2--2--|
--0----0-----0----------|--0----0-----0----------|--0----0-----0----------|
------------------------|------------------------|------------------------|



--------------------------|--------------------------|
--------------3-----------|--------------3-----------|
--------0--------0-----0--|--------0--------0-----0--|
-----4-----4--------4-----|-----4-----4--------4-----|
--5-----------------------|--5-----------------------|
--------------------------|--------------------------|



--------------1-----------|--------------1-----------|--0----0-----0----------|
--------1--------1-----1--|--------1--------1-----1--|--0----0--0--0----0--0--|
-----2-----2--------2-----|-----2-----2--------2-----|--2----2--2--2----2--2--|
--3-----------------------|--3-----------------------|--2----2--2--2----2--2--|
--------------------------|--------------------------|--0----0-----0----------|
--------------------------|--------------------------|------------------------|



--0----0-----0----------|--0----0-----0----------|--0----0-----0----------|
--0----0--0--0----0--0--|--0----0--0--0----0--0--|--0----0--0--0----0--0--|
--2----2--2--2----2--2--|--2----2--2--2----2--2--|--2----2--2--2----2--2--|
--2----2--2--2----2--2--|--3----3--3--3----3--2--|--3----3--3--3----3--3--|
--0----0-----0----------|--0----0-----0----------|--0----0-----0----------|
------------------------|------------------------|------------------------|



--0----0-----0----------|--0----0-----0----------|--0----0-----0----------|
--0----0--0--0----0--0--|--0----0--0--0----0--0--|--3----3--3--3----3--3--|
--2----2--2--2----2--2--|--2----2--2--2----2--2--|--2----2--2--2----2--2--|
--4----4--4--4----4--4--|--4----4--4--4----4--4--|--0----0--0--0----0--0--|
--0----0-----0----------|--0----0-----0----------|--0----0-----0----------|
------------------------|------------------------|------------------------|



--0----0-----0----------|--0----0-----0----------|--0----0-----0----------|
--3----3--3--3----3--3--|--0----0--0--0----0--0--|--0----0--0--0----0--0--|
--2----2--2--2----2--2--|--2----2--2--2----2--2--|--2----2--2--2----2--2--|
--0----0--0--0----0--0--|--2----2--2--2----2--2--|--2----2--2--2----2--2--|
--0----0-----0----------|--0----0-----0----------|--0----0-----0----------|
------------------------|------------------------|------------------------|



--0----0-----0----------|--0----0-----0----------|--0----0-----0----------|
--0----0--0--0----0--0--|--0----0--0--0----0--0--|--0----0--0--0----0--0--|
--2----2--2--2----2--2--|--2----2--2--2----2--2--|--2----2--2--2----2--2--|
--3----3--3--3----3--2--|--3----3--3--3----3--3--|--4----4--4--4----4--4--|
--0----0-----0----------|--0----0-----0----------|--0----0-----0----------|
------------------------|------------------------|------------------------|



--0----0-----0----------|--------------------|--------------------|
--0----0--0--0----0--0--|--3-----------------|--7-----------------|
--2----2--2--2----2--2--|--2-----------------|-----7--------------|
--4----4--4--4----4--4--|--0--------------7--|--------------------|
--0----0-----0----------|--0-----------------|--------------------|
------------------------|--------------------|--------------------|



------------0--------|----------4----5----|----------------------|
------------0--------|--------------------|------------3---------|
------------2--------|--------------------|-------2---------2----|
-------2----2--------|--------------------|--3-------------------|
--0------------------|--------------------|----------------------|
---------------------|--------------------|----------------------|



--0-------------------|------------0--------|----------4----5----|
------------3---------|------------0--------|--------------------|
-------2---------2----|------------2--------|--------------------|
----------------------|-------2----2--------|--------------------|
----------------------|--0------------------|--------------------|
----------------------|---------------------|--------------------|



--0----------------|------------------|------------0--------|
--0----------------|------------------|------------0--------|
--2----------------|------------------|------------2--------|
--2----------------|------------------|-------2----2--------|
--0----------------|------------------|--0------------------|
-------------------|------------------|---------------------|



----------4----5----|----------------------|--0-------------------|
--------------------|------------3---------|------------3---------|
--------------------|-------2---------2----|-------2---------2----|
--------------------|--3-------------------|----------------------|
--------------------|----------------------|----------------------|
--------------------|----------------------|----------------------|



------------0--------|----------4----5----|----------------------|
------------0--------|--------------------|------------3---------|
------------2--------|--------------------|-------2---------2----|
-------2----2--------|--------------------|--3-------------------|
--0------------------|--------------------|----------------------|
---------------------|--------------------|----------------------|



--0-------------------|------------0--------|----------4----5----|
------------3---------|------------0--------|--------------------|
-------2---------2----|------------2--------|--------------------|
----------------------|-------2----2--------|--------------------|
----------------------|--0------------------|--------------------|
----------------------|---------------------|--------------------|



----------------------|--0-------------------|----------------------|
------------3---------|------------3---------|------------2---------|
-------2---------2----|-------2---------2----|-------2---------2----|
--3-------------------|----------------------|--4-------------------|
----------------------|----------------------|----------------------|
----------------------|----------------------|----------------------|



--2-------------------|----------------------|--0-------------------|
------------2---------|------------1---------|-------0--------------|
-------2---------2----|-------2---------2----|------------2---------|
----------------------|--3-------------------|-----------------3----|
----------------------|----------------------|----------------------|
----------------------|----------------------|----------------------|



-------------------|------------------|---------------3----|------1------------|
--3----------------|------------------|--1-----------------|------1------------|
--0----------------|------------------|--2-----------------|-------------------|
--4----------------|------------------|--3------------3----|-------------------|
--5----------------|------------------|--3-----------------|-------------------|
-------------------|------------------|--1-----------------|-------------------|



---------------0----|-------------------|---------------------|
--------------------|------0------------|---------------------|
--2-----------------|-------------------|--2---------------2--|
--2-----------------|-------------------|--2------------2-----|
--0-----------------|-------------------|--0------------------|
--------------------|-------------------|---------------------|



--0---------------------|-------------------|--------------------------|
-----0------------------|-------------------|--------------------------|
------------------------|-------------------|--------------2-----------|
------------------------|--3----------------|--------3--------3-----3--|
------------------------|--3----------------|-----3-----3--------3-----|
------------5--4--3--2--|--1----------------|--1-----------------------|



--------------------------|--------------------------|--------------------|
--------------------------|--------------------------|-----------2--------|
--------------4-----------|--------------4-----------|--2-----------------|
--------5-----------5-----|--------5-----------5-----|--2-----------------|
--5--5-----5-----5-----5--|--5--5-----5-----5-----5--|--0-----------------|
--3-----------------------|--3-----------------------|--------------------|



----------------------|--------------------|----------------------|
--0-------------------|-----------1--------|--0-------------------|
-------2--------------|--2-----------------|-------2--------------|
------------0----2----|--3-----------------|------------2----3----|
----------------------|--0-----------------|----------------------|
----------------------|--------------------|----------------------|



--------------------|----------------------|---------------------|
-----------2--------|--0-------------------|--0-------------0----|
--2-----------------|-------2--------------|--2--------2---------|
--4-----------------|------------0----2----|--3------------------|
--0-----------------|----------------------|--3------------------|
--------------------|----------------------|--1------------------|



------------0----1----|--------------------|----------------------|
--1----3--------------|-----------2--------|--0-------------------|
----------------------|--2-----------------|-------2--------------|
----------------------|--2-----------------|------------0----2----|
----------------------|--0-----------------|----------------------|
----------------------|--------------------|----------------------|



--------------------|----------------------|--------------------|
-----------1--------|--0-------------------|-----------2--------|
--2-----------------|-------2--------------|--2-----------------|
--3-----------------|------------2----3----|--4-----------------|
--0-----------------|----------------------|--0-----------------|
--------------------|----------------------|--------------------|



----------------------|-------------------|------------------|
--0-------------------|--3----------------|------------------|
-------2--------------|--2----------------|------------------|
------------0----2----|--0----------------|------------------|
----------------------|--0----------------|------------------|
----------------------|-------------------|------------------|



-------------------|------------------|-------------------|--------------------|
-------------------|------------------|-------------------|--------------------|
-------------------|------------------|-------------------|--------------------|
--2----------------|------------------|--2----------------|--9-----------------|
-------------------|------------------|-------------------|--------------------|
--0----------------|------------------|--0----------------|--7------------7/---|



-------------------|-------------------|-------------------|
-------------------|-------------------|-------------------|
-------------------|-------------------|-------------------|
--2----------------|--9----------------|--2----------------|
-------------------|-------------------|-------------------|
--0----------------|--7----------------|--0----------------|



------------------------|------------------------------|
------------------------|------------------------------|
------------------------|------------------------------|
------------------------|------------------------------|
--5---4---2-------------|----------7-7-7-7-----7-7-7-7-|
--------------5---4--2--|--0---0-----------0-0---------|



------------------------------|------------------------------|
------------------------------|------------------------------|
------------------------------|------------------------------|
------------------------------|------------------------------|
----------7-7-7-7-----7-7-7-7-|----------7-7-7-7-----7-7-7-7-|
--0---0-----------0-0---------|--0---0-----------0-0---------|



------------------------|------------------------------|
----------0-------0--0--|------------------------------|
------------------------|------------------------------|
------------------------|------------------------------|
--2---2-------2---------|----------7-7-7-7-----7-7-7-7-|
------------------------|--0---0-----------0-0---------|



------------------------|------------------------------|
------------------------|------------------------------|
------------------------|------------------------------|
------------------------|------------------------------|
--5---4---2-------------|----------7-7-7-7-----7-7-7-7-|
--------------5---4--2--|--0---0-----------0-0---------|



------------------------|------------------------|
------------------------|------------------------|
------------------------|------------------------|
------------------------|------------------------|
--5---4---2----------2--|--4---4---4---4---4--4--|
--------------5---4-----|------------------------|



----------------------------------|------------------------|
----------------------------------|------------------------|
----------------------------------|------------------------|
----------------------------------|------------------------|
--3-3-3-3-3-3-3-3-3-3-3-3-3-3-3-3-|--4---4---4---4---4--4--|
----------------------------------|------------------------|



----------------------------------|------------------------------|
----------------------------------|------------------------------|
----------------------------------|------------------------------|
----------------------------------|------------------------------|
----------------------------------|----------7-7-7-7-----7-7-7-7-|
--5-5-5-5-5-5-5-5-5-5-5-5-5-5-5-5-|--0---0-----------0-0---------|



------------------------|------------------------------|
------------------------|------------------------------|
------------------------|------------------------------|
------------------------|------------------------------|
--5---4---2-------------|----------7-7-7-7-----7-7-7-7-|
--------------5---4--2--|--0---0-----------0-0---------|



------------------------|------------------------------|
------------------------|------------------------------|
------------------------|------------------------------|
------------------------|------------------------------|
--5---4---2----------2--|----------7-7-7-7-----7-7-7-7-|
--------------5---4-----|--0---0-----------0-0---------|



------------------------|------------------------------|
------------------------|------------------------------|
------------------------|------------------------------|
------------------------|------------------------------|
--5---4---2-------------|----------7-7-7-7-----7-7-7-7-|
--------------5---4--2--|--0---0-----------0-0---------|



------------------------|------------------------|
------------------------|------------------------|
------------------------|------------------------|
------------------------|------------------------|
--5---4---2----------2--|--4---4---4---4---4--4--|
--------------5---4-----|------------------------|



----------------------------------|------------------------|
----------------------------------|------------------------|
----------------------------------|------------------------|
----------------------------------|------------------------|
--3-3-3-3-3-3-3-3-3-3-3-3-3-3-3-3-|--4---4---4---4---4--4--|
----------------------------------|------------------------|



----------------------------------|------------------------|
----------------------------------|------------------------|
----------------------------------|------------------------|
----------------------------------|------------------------|
----------------------------------|--4---4---4---4---4--4--|
--5-5-5-5-5-5-5-5-5-5-5-5-5-5-5-5-|------------------------|



----------------------------------|------------------------|
----------------------------------|------------------------|
----------------------------------|------------------------|
----------------------------------|------------------------|
--3-3-3-3-3-3-3-3-3-3-3-3-3-3-3-3-|--4---4---4---4---4--4--|
----------------------------------|------------------------|



----------------------------------|----------------|----------------|
----------------------------------|----------------|----------------|
----------------------------------|----------------|----------------|
----------------------------------|----------------|----------------|
----------------------------------|----------------|----------------|
--5-5-5-5-5-5-5-5-5-5-5-5-5-5-5-5-|--4---4---3--3--|--2---2---1--1--|



----------------------|------------------|----------------|----------------|
----------------------|------------------|----------------|----------------|
----------------------|------------------|----------------|----------------|
----------------------|------------------|----------------|----------------|
----------7-7-7-7-7-7-|----------7-7-7-7-|--4---4---3--3--|--2---2---1--1--|
--0---0---------------|--0---0-----------|----------------|----------------|



----------------------|------------------|--------------------|
----------------------|------------------|--------------------|
----------------------|------------------|--------------------|
----------7-7-7-7-7-7-|----------7-7-7-7-|--------------------|
--0---0---------------|--0---0-----------|--------------------|
----------------------|------------------|--4--4--4--3--3--3--|



--------------------------|--------------------|---------------------------|
--------------------------|--------------------|---------------------------|
--------------------------|--------------------|---------------------------|
--------------------------|--------------------|---------------------------|
--------------------------|--6--6--5--5--4--4--|--3---2---1----------------|
--2--2--2--1--1--1--0--0--|--------------------|--------------5---4--3--2--|



--------------------------|--------------------------|
--------------------------|--------------------------|
--------------------------|--------------------------|
--------------3-----3-----|--------------3-----3-----|
--------------------------|--------------------------|
--1-1-1-1-1-1----1-----1--|--1-1-1-1-1-1----1-----1--|



--------------------------|--------------------------|
--------------------------|--------------------------|
--------------------------|--------------------------|
--------------3-----3-----|--------------3-----3-----|
--------------------------|--------------------------|
--1-1-1-1-1-1----1-----1--|--1-1-1-1-1-1----1-----1--|



--------------------------|--------------------------|
--------------------------|--------------------------|
--------------------------|--------------------------|
--------------3-----3-----|--------------3-----3-----|
--------------------------|--------------------------|
--1-1-1-1-1-1----1-----1--|--1-1-1-1-1-1----1-----1--|



--------------------------|--------------------------|
--------------------------|--------------------------|
--------------------------|--------------------------|
--------------3-----3-----|--------------3-----3-----|
--------------------------|--------------------------|
--1-1-1-1-1-1----1-----1--|--1-1-1-1-1-1----1-----1--|



--------------------------|--------------------------|
--------------------------|--------------------------|
--------------------------|--------------------------|
--------------3-----3-----|--------------3-----3-----|
--------------------------|--------------------------|
--1-1-1-1-1-1----1-----1--|--1-1-1-1-1-1----1-----1--|



--------------------------|-------------------|--------------------------|
--------------------------|-------------------|--------------------------|
--------------------------|-------------------|--------------------------|
--------------3-----3-----|----------3---3--3-|--------------3-----3-----|
--------------------------|-------------------|--------------------------|
--1-1-1-1-1-1----1-----1--|--1---1------------|--1-1-1-1-1-1----1-----1--|



--------------------------|--------------------------|
--------------------------|--------------------------|
--------------------------|--------------------------|
--------------3-----3-----|--------------3-----3-----|
--------------------------|--------------------------|
--1-1-1-1-1-1----1-----1--|--1-1-1-1-1-1----1-----1--|



--------------------------|--------------------------|
--------------------------|--------------------------|
--------------------------|--------------------------|
--8-----8-----5-----------|--------------3-----3-----|
----8-----8-----6---6-----|--------------------------|
------6-----6-----6---6-3-|--1-1-1-1-1-1----1-----1--|



--------------------------|--------------------------|-------------------|
--------------------------|--------------------------|-------------------|
--------------------------|--------------------------|-------------------|
--------------3-----3-----|--------------3-----3-----|----------3---3--3-|
--------------------------|--------------------------|-------------------|
--1-1-1-1-1-1----1-----1--|--1-1-1-1-1-1----1-----1--|--1---1------------|



--------------------------|--------------------------|
--------------------------|--------------------------|
--------------------------|--------------------------|
--------------3-----3-----|--------------3-----3-----|
--------------------------|--------------------------|
--1-1-1-1-1-1----1-----1--|--1-1-1-1-1-1----1-----1--|



--------------------------|--------------------------|----------------|
--------------------------|--------------------------|----------------|
--------------------------|------------------3-----3-|----------3-----|
--------------3-----3-----|------3-----5---3-----5---|-------------3--|
--------------------------|----4-----6---4-----6-----|--1---1---------|
--1-1-1-1-1-1----1-----1--|--6-----8-----------------|----------------|



-----------------|-----------------|----------------|----------------|
-----------------|-----------------|----------------|----------------|
----------3------|-----------------|----------------|----------3-----|
-----------------|----------3------|----------3-----|-------------3--|
--1---1----------|-----------------|-------------3--|--1---1---------|
-----------------|--1---1----------|--1---1---------|----------------|



-----------------|-----------------|----------------|----------------|
-----------------|-----------------|----------------|----------------|
----------3------|-----------------|----------------|----------3-----|
-----------------|----------3------|----------3-----|-------------3--|
--1---1----------|-----------------|-------------3--|--1---1---------|
-----------------|--1---1----------|--1---1---------|----------------|



-----------------|-----------------|----------------|----------------|
-----------------|-----------------|----------------|----------------|
----------3------|-----------------|----------------|----------3-----|
-----------------|----------3------|----------3-----|-------------3--|
--1---1----------|-----------------|-------------3--|--1---1---------|
-----------------|--1---1----------|--1---1---------|----------------|



-----------------|-----------------|--------------------|--------------------|
-----------------|-----------------|--------------------|--------------------|
----------3------|-----------------|--------------------|--------------------|
-----------------|----------3------|----------5----5----|--------------3-----|
--1---1----------|-----------------|----------3----3----|-----------------3--|
-----------------|--1---1----------|--1---1-------------|--1-1-1-1-1-1-------|



--------------------|--------------------|------------------|------------------|
--------------------|--------------------|------------------|------------------|
--------------------|--------------------|------------------|------------------|
--------------3-----|--------------3-----|------------------|------------3-----|
-----------------3--|-----------------3--|--4---3-----------|---------------3--|
--1-1-1-1-1-1-------|--1-1-1-1-1-1-------|----------6---3---|--1-1--1--1-------|



------------------|------------------|---------------------|------------------|
------------------|------------------|---------------------|------------------|
------------------|------------------|---------------------|------------------|
------------3-----|------------3-----|-------------3-5-----|------------3-----|
---------------3--|---------------3--|--1-1--3--4----------|---------------3--|
--1-1--1--1-------|--1-1--1--1-------|------------------3--|--1-1--1--1-------|



------------------|------------------|------------------|------------------|
------------------|------------------|------------------|------------------|
------------------|------------------|------------------|------------------|
------------3-----|------------3-----|------------------|------------3-----|
---------------3--|---------------3--|--4---3-----------|---------------3--|
--1-1--1--1-------|--1-1--1--1-------|----------6---3---|--1-1--1--1-------|



------------------|------------------|------------------|------------------|
------------------|------------------|------------------|------------------|
------------------|------------------|------------------|------------------|
------------3-----|------------3-----|--------------5---|------------3-----|
---------------3--|---------------3--|------3---4-------|---------------3--|
--1-1--1--1-------|--1-1--1--1-------|--6---------------|--1-1--1--1-------|



------------------|------------------|--------------------------|
------------------|------------------|--------------------------|
------------------|------------------|--------------------------|
------------3-----|------------3-----|--------------------------|
---------------3--|---------------3--|--4-4-4-3-3-3-------------|
--1-1--1--1-------|--1-1--1--1-------|--------------6-6-6-3-3-3-|



------------------|------------------|------------------|
------------------|------------------|------------------|
------------------|------------------|------------------|
------------3-----|------------3-----|------------3-----|
---------------3--|---------------3--|---------------3--|
--1-1--1--1-------|--1-1--1--1-------|--1-1--1--1-------|



--------------------------|----------------|-----------------|-----------------|
--------------------------|----------------|-----------------|-----------------|
--------------------------|----------3-----|----------3------|-----------------|
--------------------5-5-5-|-------------3--|-----------------|----------3------|
--------3-3-3-4-4-4-------|--1---1---------|--1---1----------|-----------------|
--6-6-6-------------------|----------------|-----------------|--1---1----------|



----------------|----------------|-----------------|-----------------|
----------------|----------------|-----------------|-----------------|
----------------|----------3-----|----------3------|-----------------|
----------3-----|-------------3--|-----------------|----------3------|
-------------3--|--1---1---------|--1---1----------|-----------------|
--1---1---------|----------------|-----------------|--1---1----------|



----------------|----------------|-----------------|-----------------|
----------------|----------------|-----------------|-----------------|
----------------|----------3-----|----------3------|-----------------|
----------3-----|-------------3--|-----------------|----------3------|
-------------3--|--1---1---------|--1---1----------|-----------------|
--1---1---------|----------------|-----------------|--1---1----------|



----------------|----------------|-----------------|-----------------|
----------------|----------------|-----------------|-----------------|
----------------|----------3-----|----------3------|-----------------|
----------3-----|-------------3--|-----------------|----------3------|
-------------3--|--1---1---------|--1---1----------|-----------------|
--1---1---------|----------------|-----------------|--1---1----------|



--------------------|----------------|--------------------|----------------|
--------------------|----------------|--------------------|----------------|
--------------------|----------------|--------------------|----------------|
----------5----5----|------3---------|-----------6--------|------9---------|
----------3----3----|----------------|--------------------|----------------|
--1---1-------------|--1-------1--3--|--4---4--4----4--6--|--7-------7--9--|



--------------------------|----------------|--------------------|
--------------------------|----------------|--------------------|
--------------------------|----------------|--------------------|
--------------12--11------|------3---------|-----------6--------|
--------------------------|--x-------------|--------------------|
--10---10--10---------13/-|--1-------1--3--|--4---4--4----4--6--|



----------------|-----------------------------|----------------|
----------------|-----------------------------|----------------|
----------------|-----------------------------|----------------|
------9---------|--------------12-------------|------3---------|
----------------|-----------------------------|----------------|
--7-------7--9--|--10---10--10-----10--13--0--|--1-------1--3--|



--------------------|----------------|--------------------------|
--------------------|----------------|--------------------------|
--------------------|----------------|--------------------------|
-----------6--------|------9---------|--------------12----------|
--------------------|----------------|--------------------------|
--4---4--4----4--6--|--7-------7--9--|--10---10--10-----10--13/-|



----------------|--------------|--------------|------------------|----------|
----------------|--------------|--------------|------------------|----------|
----------------|--------------|--------------|------------------|----------|
------3---------|--------------|--------------|------------------|----------|
--x-------------|--------------|--2-2-2-2-2-2-|--5-------4-------|--6-------|
--1-------1--3--|--4-4-4-4-4-4-|--------------|------4-------3---|----------|



---------|----------|-----------|----------|---------|----------|-----------|
---------|----------|-----------|----------|---------|----------|-----------|
---------|----------|-----------|----------|---------|----------|-----------|
---------|--3-------|--2--------|----------|---------|--3-------|--2--------|
--5------|----------|-----------|--6-------|--5------|----------|-----------|
---------|----------|-----------|----------|---------|----------|-----------|



----------------------|--------------------|----------------------|
----------------------|--------------------|----------------------|
--------------------3-|--4---3----3-4-3----|--------------------6-|
--3-5-6-5-3-5-3-5-6---|---------6----------|--6-8-9-8-6-8-6-8-9---|
----------------------|--------------------|----------------------|
----------------------|--------------------|----------------------|



--------------------|----------------------|--------------------|
--------------------|----------------------|--------------------|
--7---6----6-7-6----|--------------------3-|--4---3----3-4-3----|
---------9----------|--3-5-6-5-3-5-3-5-6---|---------6----------|
--------------------|----------------------|--------------------|
--------------------|----------------------|--------------------|



----------------------|-----------------------|----------------------|
----------------------|-----------------------|----------------------|
--------------------6-|--7---6----6-7-6-------|--------------------3-|
--6-8-9-8-6-8-6-8-9---|---------9-------------|--3-5-6-5-3-5-3-5-6---|
----------------------|-----------------------|----------------------|
----------------------|--------------------0--|----------------------|



--------------------|----------------------|--------------------|
--------------------|----------------------|--------------------|
--4---3----3-4-3----|--------------------6-|--7---6----6-7-6----|
---------6----------|--6-8-9-8-6-8-6-8-9---|---------9----------|
--------------------|----------------------|--------------------|
--------------------|----------------------|--------------------|



----------------------------|-------------|--------------|
----------------------------|-------------|--------------|
--------------------------9-|--10---9-----|--13---12--10-|
--9-11-12-11-9-11-9-11-12---|----------12-|--------------|
----------------------------|-------------|--------------|
----------------------------|-------------|--------------|



-----------------------------------|--10-7------------|--9-6---------|
--9---9-10----10-11----11-12----12-|-------8----------|------7-------|
----9------10-------11-------12----|---------7--------|--------6-----|
-----------------------------------|-----------9------|----------8---|
-----------------------------------|-------------10-5-|------------9-|
-----------------------------------|------------------|--------------|



--12-9--------------|--11-8----------------|--10-7-------------|--9-6---------|
-------10-----------|-------9--------------|-------8-----------|------7-------|
----------9---------|---------8------------|---------7---------|--------6-----|
------------11------|-----------10---------|-----------9-------|----------8---|
---------------12---|--------------11---11-|-------------10----|------------9-|
------------------9-|-----------------8----|----------------10-|--------------|



--12-9--------------|--11-8-----------------------8-11-8-----|
-------10-----------|-------9-------------------9--------9---|
----------9---------|---------8---------------8------------8-|
------------11------|-----------10---------10----------------|
---------------12---|--------------11---11-------------------|
------------------9-|-----------------8----------------------|



-------------------|----------------|------------------|----------------|
--1----------------|----------------|------------------|----------------|
--x----------------|----------------|------------------|----------------|
--3----------------|----------------|------------------|----------------|
--3----------------|----------------|------------------|----------------|
--1----------------|----------------|------------------|----------------|



-------------------|----------------|------------------|----------------|
--1----------------|----------------|------------------|----------------|
--x----------------|----------------|------------------|----------------|
--3----------------|----------------|------------------|----------------|
--3----------------|----------------|------------------|----------------|
--1----------------|----------------|------------------|----------------|



-----------------------------------------|------------------------------------|
-----------------------------------------|------------------------------------|
-----------------------------------------|------------------------------------|
----------------------------------8-9-11-|--9-8-9-11-12-11-9-8-9-11-9-8-------|
--8-10-11-10-8-7-8-10-8-7-8-10-11--------|------------------------------11-10-|
-----------------------------------------|------------------------------------|



-----------------------------------------|------------------------------------|
-----------------------------------------|------------------------------------|
-----------------------------------------|------------------------------------|
----------------------------------8-9-11-|--9-8-9-11-12-11-9-8-9-11-9-8-------|
--8-10-11-10-8-7-8-10-8-7-8-10-11--------|------------------------------11-10-|
-----------------------------------------|------------------------------------|



-----------------------------------------|------------------------------------|
-----------------------------------------|------------------------------------|
-----------------------------------------|------------------------------------|
----------------------------------8-9-11-|--9-8-9-11-12-11-9-8-9-11-9-8-------|
--8-10-11-10-8-7-8-10-8-7-8-10-11--------|------------------------------11-10-|
-----------------------------------------|------------------------------------|



-----------------------------------------|------------------------------------|
-----------------------------------------|------------------------------------|
-----------------------------------------|------------------------------------|
----------------------------------8-9-11-|--9-8-9-11-12-11-9-8-9-11-9-8-------|
--8-10-11-10-8-7-8-10-8-7-8-10-11--------|------------------------------11-10-|
-----------------------------------------|------------------------------------|



-----------------------------------------|------------------------------------|
-----------------------------------------|------------------------------------|
-----------------------------------------|------------------------------------|
----------------------------------8-9-11-|--9-8-9-11-12-11-9-8-9-11-9-8-------|
--8-10-11-10-8-7-8-10-8-7-8-10-11--------|------------------------------11-10-|
-----------------------------------------|------------------------------------|



-----------------------------------------|
-----------------------------------------|
-----------------------------------------|
----------------------------------8-9-11-|
--8-10-11-10-8-7-8-10-8-7-8-10-11--------|
-----------------------------------------|



----------------------------------------------------|
----------------------------------------------------|
----------------------------------------------------|
--9-8-9-11-12-11-9-8-9-11-9-8---------------8-------|
------------------------------11-10-8-10-11---11-10-|
----------------------------------------------------|



--------------------------------------------------|
--------------------------------------------------|
--------------------------------------------------|
-----------------------------------------11-12-14-|
--11-13-14-13-11-10-11-13-11-10-11-13-14----------|
--------------------------------------------------|



--------------------------------------------|
--------------------------------------------|
--------------------------------------------|
--12-11-12-14-15-14-12-11-12-14-12-11-------|
--------------------------------------14-13-|
--------------------------------------------|



--------------------------------------------------|
--------------------------------------------------|
--------------------------------------------------|
-----------------------------------------11-12-14-|
--11-13-14-13-11-10-11-13-11-10-11-13-14----------|
--------------------------------------------------|



--------------------------------------------------------------|
--------------------------------------------------------------|
--------------------------------------------------------------|
--12-11-12-14-15-14-12-11-12-14-12-11-------------------------|
--------------------------------------14-13-11-10-11-13-11-10-|
--------------------------------------------------------------|



--------------------------------------------------|
--------------------------------------------------|
--------------------------------------------------|
-----------------------------------------11-12-14-|
--11-13-14-13-11-10-11-13-11-10-11-13-14----------|
--------------------------------------------------|



--------------------------------------------|
--------------------------------------------|
--------------------------------------------|
--12-11-12-14-15-14-12-11-12-14-12-11-------|
--------------------------------------14-13-|
--------------------------------------------|



--------------------------------------------------|
--------------------------------------------------|
--------------------------------------------------|
-----------------------------------------11-12-14-|
--11-13-14-13-11-10-11-13-11-10-11-13-14----------|
--------------------------------------------------|



--------------------------------------------------------------|
--------------------------------------------------------------|
--------------------------------------------------------------|
--12-11-12-14-15-14-12-11-12-14-12-11----------------11-------|
--------------------------------------14-13-11-13-14----14-13-|
--------------------------------------------------------------|



--------------------------------------------------|
--------------------------------------------------|
--------------------------------------------------|
-----------------------------------------14-15-17-|
--14-16-17-16-14-13-14-16-14-13-14-16-17----------|
--------------------------------------------------|



--------------------------------------------|
--------------------------------------------|
--------------------------------------------|
--15-14-15-17-18-17-15-14-15-17-15-14-------|
--------------------------------------17-16-|
--------------------------------------------|



--------------------------------------------------|
--------------------------------------------------|
--------------------------------------------------|
-----------------------------------------14-15-17-|
--14-16-17-16-14-13-14-16-14-13-14-16-17----------|
--------------------------------------------------|



--------------------------------------------------------------|
--------------------------------------------------------------|
--------------------------------------------------------------|
--15-14-15-17-18-17-15-14-15-17-15-14----------------14-------|
--------------------------------------17-16-14-16-17----17-16-|
--------------------------------------------------------------|



--------------------------------------------------|
--------------------------------------------------|
-----------------------------------------12-13-15-|
--12-14-15-14-12-11-12-14-12-11-12-14-15----------|
--------------------------------------------------|
--------------------------------------------------|



--------------------------------------------|
--------------------------------------------|
--13-12-13-15-16-15-13-12-13-15-13-12-------|
--------------------------------------15-14-|
--------------------------------------------|
--------------------------------------------|



--------------------------------------------------|
--------------------------------------------------|
-----------------------------------------12-13-15-|
--12-14-15-14-12-11-12-14-12-11-12-14-15----------|
--------------------------------------------------|
--------------------------------------------------|



--------------------------------------------------------------|
--------------------------------------------------------------|
--13-12-13-15-16-15-13-12-13-15-13-12----------------12-------|
--------------------------------------15-14-12-14-15----15-14-|
--------------------------------------------------------------|
--------------------------------------------------------------|



--------------------------------------------------|
--------------------------------15----------15-17-|
-----------------------15-16-18----18-16-18-------|
--15-17-18-17-15-17-18----------------------------|
--------------------------------------------------|
--------------------------------------------------|



-----------------------18-19-21-22-21-19-21-22-24-|--19----17-18-19-17----|
--18-20-21-20-18-20-21----------------------------|-----20-------------20-|
--------------------------------------------------|-----------------------|
--------------------------------------------------|-----------------------|
--------------------------------------------------|-----------------------|
--------------------------------------------------|-----------------------|



--18-16-14----------|--21----19-20-21-19-17-|--20-18-16----------------|
-----------17-15-13-|-----22----------------|-----------19-17-15-------|
--------------------|-----------------------|--------------------17-15-|
--------------------|-----------------------|--------------------------|
--------------------|-----------------------|--------------------------|
--------------------|-----------------------|--------------------------|



--19----17-18-19-17----|--18-16-14----------|--21----19-20-21-19-17-|
-----20-------------20-|-----------17-15-13-|-----22----------------|
-----------------------|--------------------|-----------------------|
-----------------------|--------------------|-----------------------|
-----------------------|--------------------|-----------------------|
-----------------------|--------------------|-----------------------|



--20-18-16-------18-16-14-------16-14-12-------14-12-10-------|-------------|
-----------19-17----------17-15----------15-13----------13-11-|--9~---9/-x--|
--------------------------------------------------------------|-------------|
--------------------------------------------------------------|-------------|
--------------------------------------------------------------|-------------|
--------------------------------------------------------------|-------------|


  G   D#  G  G#    F   C#  D#  E/5-   G   D#  G  G#    A           G#
--7-------7--8--|--5---------------|--7-------7--8--|--9---9--9----8----|
--8---8---8--9--|--6---6---8---9---|--8---8---8--9--|--10--10-10---9----|
--7---8---7--8--|--5---6---8---9---|--7---8---7--8--|--9---9--9----8----|
------8---------|------6---8---8---|------8---------|-------------------|
----------------|------------------|----------------|-------------------|
----------------|------------------|----------------|-------------------|


  G   D#  G  G#    F   C#  D#  E/5-   G   D#  G  G#    A
--7-------7--8--|--5---------------|--7-------7--8--|--9---9--9----9---9--9----|
--8---8---8--9--|--6---6---8---9---|--8---8---8--9--|--10--10-10---10--10-10---|
--7---8---7--8--|--5---6---8---9---|--7---8---7--8--|--9---9--9----9---9--9----|
------8---------|------6---8---8---|------8---------|--------------------------|
----------------|------------------|----------------|--------------------------|
----------------|------------------|----------------|--------------------------|


  A           G#
--9---9--9----8------|--8----------------------------|-------------------|
--10--10-10---9------|----9---9------7---------------|-------------------|
--9---9--9----8------|------8---9------7-----6-------|-------------------|
---------------------|------------10-----8-----7-----|-------------------|
---------------------|---------------------9-----6---|--2----------------|
---------------------|-----------------------------7-|--0----------------|



-------------------|-----------------------9------|--------------------------|
-------------------|--13--11-9--11-13-------------|--11--9-8--11-9--8--------|
-------------------|-------------------10-----10--|-------------------10-----|
--4----------------|------------------------------|-----------------------11-|
--2----------------|------------------------------|--------------------------|
-------------------|------------------------------|--------------------------|



-------------------------------|-----------------------------|
--13--11-9--11-13------14------|--11--9-8--11-9--------------|
-------------------10------10--|-----------------10----------|
-------------------------------|---------------------11------|
-------------------------------|-------------------------11--|
-------------------------------|-----------------------------|



-------------------------------|--------------------------|
--13--11-9--11-13------14------|--11--9-8--11-9--8--------|
-------------------10------10--|-------------------10-----|
-------------------------------|-----------------------11-|
-------------------------------|--------------------------|
-------------------------------|--------------------------|



-------------------------------|--4-2-0-7-4-0-4-2-0-7-4-0-4-2-0-0-|
--13--11-9--11-13------14------|----------------------------------|
-------------------10------10--|----------------------------------|
-------------------------------|----------------------------------|
-------------------------------|----------------------------------|
-------------------------------|----------------------------------|



--10-9-0-9-7-0-7-5-0-5-4-0-4-2-0-0-|--4-2-0-7-4-0-4-2-0-7-4-0-4-2-0-0-|
-----------------------------------|----------------------------------|
-----------------------------------|----------------------------------|
-----------------------------------|----------------------------------|
-----------------------------------|----------------------------------|
-----------------------------------|----------------------------------|



--7-5-0-9-7-0-10-9-0-12-10-0-14-12-0-0-|
---------------------------------------|
---------------------------------------|
---------------------------------------|
---------------------------------------|
---------------------------------------|



--12-10-0-16-12-0-12-10-0-16-12-0-12-10-0-0-|
--------------------------------------------|
--------------------------------------------|
--------------------------------------------|
--------------------------------------------|
--------------------------------------------|



--19-17-0-17-16-0-16-14-0-14-12-0-12-10-0-0-|----------------------|
--------------------------------------------|----------------------|
--------------------------------------------|--------------------6-|
--------------------------------------------|--6-8-9-8-6-8-6-8-9---|
--------------------------------------------|----------------------|
--------------------------------------------|----------------------|



----------------------|------------------------|--------------------6-|
----------------------|----------------------8-|--9-8-6-8-9-8-6-8-9---|
--7-6---6-7-6---6-7-9-|--7-9-10-9-7-9-7-9-10---|----------------------|
------9-------9-------|------------------------|----------------------|
----------------------|------------------------|----------------------|
----------------------|------------------------|----------------------|



--------------------------------------|-----------19-18-16----------24-22-21-|
-----------------------------17-15-14-|--------------------------------------|
--16-15-13----------------------------|--16-15-13----------21-19-18----------|
--------------------14-12-11----------|--------------------------------------|
-----------14-13-11-------------------|--------------------------------------|
--------------------------------------|--------------------------------------|



--18-21----18-------------------------|--------------------------|
--------20-------20-------------------|--------------------------|
--------------21----18-21----18-------|--------------------------|
--------------------------20----17-20-|-----17-------------------|
--------------------------------------|--19-------19----16----13-|
--------------------------------------|--------21----18----15----|



-----------------|----------------|----------------|----------------|
-----------------|----------------|----------------|----------------|
-----------------|----------------|----------------|----------------|
--3--------------|----------------|----------------|----------------|
--3--------------|----------------|----------------|----------------|
--1--------------|----------------|----------------|----------------|



----------------|----------------|----------------|----------------|
----------------|----------------|----------------|----------------|
----------------|----------------|----------------|----------------|
----------------|----------------|----------------|----------------|
----------------|----------------|----------------|----------------|
----------------|----------------|----------------|----------------|



------------------------------|------------------------------|
------------------------------|------------------------------|
------------------------------|------------------------------|
--3--3--3--3--3--3--3----3----|--3--3--3--3--3--3--3----3----|
------------------------------|------------------------------|
------------------------------|------------------------------|



------------------------------|------------------------------|
------------------------------|------------------------------|
------------------------------|------------------------------|
--3--3--3--3--3--3--3----3----|--3--3--3--3--3--3--3----3----|
------------------------------|------------------------------|
------------------------------|------------------------------|



------------------------------|------------------------------|
------------------------------|------------------------------|
------------------------------|------------------------------|
--3--3--3--3--3--3--3----3----|--3--3--3--3--3--3--3----3----|
------------------------------|------------------------------|
------------------------------|------------------------------|



------------------------------|------------------------------|
------------------------------|------------------------------|
------------------------------|------------------------------|
--3--3--3--3--3--3--3----3----|--3--3--3--3--3--3--3----3----|
------------------------------|------------------------------|
------------------------------|------------------------------|



------------------------------|------------------------------|
------------------------------|------------------------------|
------------------------------|------------------------------|
--3--3--3--3--3--3--3----3----|--3--3--3--3--3--3--3----3----|
------------------------------|------------------------------|
------------------------------|------------------------------|



------------------------------|------------------------------|
------------------------------|------------------------------|
------------------------------|------------------------------|
--3--3--3--3--3--3--3----3----|--3--3--3--3--3--3--3----3----|
------------------------------|------------------------------|
------------------------------|------------------------------|



------------------------------|------------------------------|
------------------------------|------------------------------|
------------------------------|------------------------------|
--3--3--3--3--3--3--3----3----|--3--3--3--3--3--3--3----3----|
------------------------------|------------------------------|
------------------------------|------------------------------|



------------------------------|------------------------------|
------------------------------|------------------------------|
------------------------------|------------------------------|
--3--3--3--3--3--3--3----3----|--3--3--3--3--3--3--3----3----|
------------------------------|------------------------------|
------------------------------|------------------------------|



--------------------------|--------------------------|
--------------------------|--------------------------|
--------------------------|--------------------------|
--------------3-----3-----|--------------3-----3-----|
--------------------------|--------------------------|
--1-1-1-1-1-1----1-----1--|--1-1-1-1-1-1----1-----1--|



--------------------------|--------------------------|
--------------------------|--------------------------|
--------------------------|--------------------------|
--------------3-----3-----|--------------3-----3-----|
--------------------------|--------------------------|
--1-1-1-1-1-1----1-----1--|--1-1-1-1-1-1----1-----1--|



--------------------------|--------------------------|
--------------------------|--------------------------|
--------------------------|--------------------------|
--------------3-----3-----|--------------3-----3-----|
--------------------------|--------------------------|
--1-1-1-1-1-1----1-----1--|--1-1-1-1-1-1----1-----1--|



--------------------------|--------------------------|------------------------|
--------------------------|--------------------------|------------------------|
--------------------------|--------------------------|------------------------|
--------------3-----3-----|--------------3-----3-----|------------------------|
--------------------------|--------------------------|--3-3-3-3-3-3-3----3----|
--1-1-1-1-1-1----1-----1--|--1-1-1-1-1-1----1-----1--|--1-1-1-1-1-1-1----1----|



------------------------|------------------------|------------------------|
------------------------|------------------------|------------------------|
------------------------|------------------------|------------------------|
------------------------|------------------------|------------------------|
--3-3-3-3-3-3-3----3----|--3-3-3-3-3-3-3----3----|--3-3-3-3-3-3-3----3----|
--1-1-1-1-1-1-1----1----|--1-1-1-1-1-1-1----1----|--1-1-1-1-1-1-1----1----|



------------------------|------------------------|------------------------|
------------------------|------------------------|------------------------|
------------------------|------------------------|------------------------|
--3-3-3-3-3-3-3----3----|--3-3-3-3-3-3-3----3----|--3-3-3-3-3-3-3----3----|
--3-3-3-3-3-3-3----3----|--3-3-3-3-3-3-3----3----|--3-3-3-3-3-3-3----3----|
--1-1-1-1-1-1-1----1----|--1-1-1-1-1-1-1----1----|--1-1-1-1-1-1-1----1----|



------------------------|------------------------|-----------------------------|
------------------------|------------------------|-----------------------------|
------------------------|------------------------|-----------------------------|
--3-3-3-3-3-3-3----3----|--3-3-3-3-3-3-3----3----|--3-3-3-3-3-3-3----3----3----|
--3-3-3-3-3-3-3----3----|--3-3-3-3-3-3-3----3----|--3-3-3-3-3-3-3----3----3----|
--1-1-1-1-1-1-1----1----|--1-1-1-1-1-1-1----1----|--1-1-1-1-1-1-1----1----1----|



------------------------|--------------------------------|
------------------------|--------------------------------|
------------------------|--------------------------------|
--3-3-3-3-3-3-3----3----|--3-3-3-3-3-3-3----3----3----3--|
--3-3-3-3-3-3-3----3----|--3-3-3-3-3-3-3----3----3----3--|
--1-1-1-1-1-1-1----1----|--1-1-1-1-1-1-1----1----1----1--|



------------------------|-----------------------------|-----------------------|
------------------------|-----------------------------|-----------------------|
------------------------|-----------------------------|-----------------------|
--3-3-3-3-3-3-3----3----|--3-3-3-3-3-3-3----3----3----|--3-3-3-3-3-3-3--------|
--3-3-3-3-3-3-3----3----|--3-3-3-3-3-3-3----3----3----|--3-3-3-3-3-3-3--------|
--1-1-1-1-1-1-1----1----|--1-1-1-1-1-1-1----1----1----|--1-1-1-1-1-1-1--------|



-----------------------------|-------------------|------------------|
-----------------------------|-------------------|------------------|
-----------------------------|-------------------|------------------|
--3-3-3-3-3-3-3----3----3----|--3----------------|------------------|
--3-3-3-3-3-3-3----3----3----|--3----------------|------------------|
--1-1-1-1-1-1-1----1----1----|--1----------------|------------------|



------------------|------------------|------------------|------------------|
------------------|------------------|------------------|------------------|
------------------|------------------|------------------|------------------|
------------------|------------------|------------------|------------------|
------------------|------------------|------------------|------------------|
------------------|------------------|------------------|------------------|



-------------------|--------------------|-------------------|------------------|
-------------------|--------------------|-------------------|------------------|
--5----------------|--------------5--5--|--3----------------|------------------|
--5----------------|--------------5--5--|--3----------------|------------------|
--3----------------|--------------3--3--|--1----------------|------------------|
-------------------|--------------------|-------------------|------------------|



-------------------|--------------------|-------------------|
-------------------|--------------------|-------------------|
-------------------|--------------------|-------------------|
--3----------------|--------------3--3--|--5----------------|
--3----------------|--------------3--3--|--6----------------|
--1----------------|--------------1--1--|--3----------------|



--------------------|-------------------|--------------------|
--------------------|-------------------|--------------------|
--------------------|-------------------|--------------------|
--------------------|--6----------------|--------------6--6--|
--------------------|--6----------------|--------------6--6--|
--------------3--3--|--4----------------|--------------4--4--|



--------------------|--------------------|-------------------|
--------------------|--------------------|-------------------|
--------------------|--------------------|-------------------|
--------------------|--------------------|--3----------------|
--------------------|--7------------7----|-------------------|
--0------------0----|--------------------|--1----------------|



-------------------|-------------------|--------------------|
-------------------|-------------------|--------------------|
-------------------|-------------------|--------------------|
-------------------|-------------------|--------------------|
--6----------------|--5----------------|--------------5--5--|
-------------------|-------------------|--------------------|



--------------------|--------------------|--------------------|
--------------------|--------------------|--------------------|
--------------------|--------------------|--------------------|
--------------------|--------------------|--------------------|
--------------------|--------------------|--------------------|
--1------------1----|--4------------4----|--0------------0----|



--------------------|-------------------|-------------------|
--------------------|-------------------|-------------------|
--------------------|--7----------------|----------7--------|
--2-----------------|--7----------------|----------7--------|
-----------3--------|--5----------------|----------5--------|
--------------------|-------------------|-------------------|



-------------------|-------------------|-------------------|-------------------|
-------------------|-------------------|-------------------|-------------------|
-------------------|-------------------|-------------------|-------------------|
-------------------|-------------------|-------------------|-------------------|
--4----------------|----------4--------|--3----------------|----------3--------|
-------------------|-------------------|-------------------|-------------------|



-------------------|-------------------|-------------------|------------------|
-------------------|-------------------|-------------------|------------------|
-------------------|-------------------|--3----------------|------------------|
-------------------|-------------------|--3----------------|------------------|
--2----------------|----------2--------|--1----------------|------------------|
-------------------|-------------------|-------------------|------------------|



-------------------|------------------|-------------------|-------------------|
-------------------|------------------|-------------------|-------------------|
--5----------------|------------------|-------------------|-------------------|
--5----------------|------------------|-------------------|-------------------|
--3----------------|------------------|--5----------------|----------5--------|
-------------------|------------------|-------------------|-------------------|



-------------------|-------------------|-------------------|-------------------|
-------------------|-------------------|-------------------|-------------------|
-------------------|-------------------|-------------------|-------------------|
-------------------|-------------------|-------------------|-------------------|
--4----------------|----------4--------|--3----------------|----------3--------|
-------------------|-------------------|-------------------|-------------------|



-------------------|-------------------|-------------------|------------------|
-------------------|-------------------|-------------------|------------------|
-------------------|-------------------|--3----------------|------------------|
-------------------|-------------------|--3----------------|------------------|
--2----------------|----------2--------|--1----------------|------------------|
-------------------|-------------------|-------------------|------------------|



----------------------|----------------------|----------------------|
----------------------|----------------------|----------------------|
----------------------|----------------------|----------------------|
----------------------|-----------------5----|--5----5----5----5----|
--3----3----3----3----|--3----3----3----3----|--3----3----3----3----|
----------------------|----------------------|----------------------|



----------------------|--------------------|----------------------|
----------------------|--------------------|----------------------|
--5----5----5----5----|----------12r-------|--12--------10--------|
--5----5----5----5----|--------------------|----------------------|
--3----3----3----3----|--------------------|----------------------|
----------------------|--------------------|----------------------|



---------------------|--------------------|----------------------|
---------------------|--------------------|----------------------|
--9------------------|--8--------9b-------|--10------------12r---|
---------------14/---|--x-----------------|----------------------|
---------------------|--------------------|----------------------|
---------------------|--------------------|----------------------|



---------------------------|--------------------|-----------------------|
---------------------------|--------------------|-----------------------|
--12--------10-------12p10-|--------------------|--10b-------10---------|
---------------------------|--13----------------|------------------8----|
---------------------------|--------------------|-----------------------|
---------------------------|--------------------|-----------------------|



-------------------|---------------------|---------------------|
-------------------|---------------------|---------------------|
----------------8--|--8--------7----8----|--8b-----------------|
-------------------|---------------------|---------9--9--------|
-------------------|---------------------|---------------------|
-------------------|---------------------|---------------------|



---------------------------|----------------------|----------------------------|
---------------------------|----------------------|----------------------------|
----------10----8----10----|--10b-----------------|----------12----10----12----|
---------------------------|----------8--8--------|----------------------------|
---------------------------|----------------------|----------------------------|
---------------------------|----------------------|----------------------------|



-----------------------|----------------------------|---------11--11~-------|
-----------------------|---------12/-9----8h---9----|--9b-------------------|
--12r---13-------------|----------------------------|-----------------------|
--------------------9--|--9-------------------------|-----------------------|
-----------------------|----------------------------|-----------------------|
-----------------------|----------------------------|-----------------------|



--------------10----11----|--11r-------------------|
--------------------------|------------12--12------|
--------------------------|------------------------|
--------------------------|------------------------|
--------------------------|------------------------|
--------------------------|------------------------|



-------------13----11----13----|--13r-----------------|--------20r-------------|
------12/-x--------------------|----------------13----|-----------------20/22--|
-------------------------------|----------------------|------------------------|
-------------------------------|----------------------|------------------------|
-------------------------------|----------------------|------------------------|
-------------------------------|----------------------|------------------------|



-------------------------------------------|
--22~---22/-x--12/-19--20--22--19----------|
-----------------------------------19------|
---------------------------------------19--|
-------------------------------------------|
-------------------------------------------|



----------------------------------------------|
--------------------------------------10/-12--|
----------------------------------------------|
--16--17--19--16----------16/-19~-------------|
------------------17--------------------------|
----------------------17----------------------|



--------------------------------------------------|
--12----------------------------------------------|
----------10--10h12-10h12-10h12-10h12-10h12-10h12-|
--------------------------------------------------|
--------------------------------------------------|
--------------------------------------------------|



---------------------------------10-12-13-|--12----------------------17----|
------------------------10-12-13----------|--------------------17----------|
--10~-----------9-10-12-------------------|----------13--14----------------|
--------9-10-12---------------------------|--------------------------------|
------------------------------------------|--------------------------------|
------------------------------------------|--------------------------------|



--16------------------------|----------14------------------|
----------------17----17----|--17----------15p-14--15--14b-|
----------------------------|------------------------------|
----------------------------|------------------------------|
----------------------------|------------------------------|
----------------------------|------------------------------|



-----------------------------|--------------------------17----|
----------15/-x--14----15----|--15b---------------17----------|
-----------------------------|----------13--14----------------|
-----------------------------|--------------------------------|
-----------------------------|--------------------------------|
-----------------------------|--------------------------------|



--16~---------------|--12--14--15~-----------|------------------|
--------------------|------------------------|------------------|
--------------------|------------------------|------------------|
--------------------|------------------------|------------------|
--------------------|------------------------|------------------|
--------------------|------------------------|------------------|



--15--17--19~-----------|------------------|----------------------------|
------------------------|------------------|--18~-----------------18----|
------------------------|------------------|----------------------------|
------------------------|------------------|----------------15----------|
------------------------|------------------|----------------------------|
------------------------|------------------|----------------------------|



--------------------|------------------------|
--18~---------------|--18----20----21~-------|
--------------------|------------------------|
--------------------|------------------------|
--------------------|------------------------|
--------------------|------------------------|



--------------------------------8--9--11--|--13~---------------|
-----------------------------9------------|--------------------|
-------------------------10---------------|--------------------|
------10------8--10--11-------------------|--------------------|
----------11------------------------------|--------------------|
------------------------------------------|--------------------|



--13/-x--------------------------------10-11-|--13----15----16~-------|
---------------------------------11-13-------|------------------------|
------------------------10-12-13-------------|------------------------|
---------------10-12-13----------------------|------------------------|
------------13-------------------------------|------------------------|
---------13----------------------------------|------------------------|



------------------------------------------|--16----18----19~-------|
------------------------------16--18--20--|------------------------|
------------------15--17--18--------------|------------------------|
------15--17--18--------------------------|------------------------|
------------------------------------------|------------------------|
------------------------------------------|------------------------|



------------------------------------------------------14-16-18-|
---------------------------------------------14-16-17----------|
------------------------------13-15-16-15-16-------------------|
---------------13-14-16-14-16----------------------------------|
------13-14-16-------------------------------------------------|
---------------------------------------------------------------|



--19----21----22~-------|------------------|--23~---------------|
------------------------|------------------|--------------------|
------------------------|------------------|--------------------|
------------------------|------------------|--------------------|
------------------------|------------------|--------------------|
------------------------|------------------|--------------------|



------------------|------------------|------------------|------------------||
------------------|------------------|------------------|------------------||
------------------|------------------|------------------|------------------||
------------------|------------------|------------------|------------------||
------------------|------------------|------------------|------------------||
------------------|------------------|------------------|------------------||
comments
print report bad tab
3 comments total.
0 reply
atached to rock wrote on December 23 2006, 12:32 pm

good tabs thx

0 reply
petrucci07 wrote on March 14 2007, 04:08 pm

the root of all eveil tab sucks.we all know its octaves at the bridge, with wah!

0 reply
cjdabest wrote on December 12 2009, 04:30 am

Great Tab, and to petrucci07, you have no clue how its actually played. For all you know, the bridge could be played the way the tabber tabbed it, while the bass plays an octave lower...theres a lot of scenarios petrucci07

I want to post or [tab]
guest
You may want to rate the tab now too:
select rating
Please do not post tabs as comments. Select "correction" instead!