Oops, an error
Loading. Please wait.

Octavarium Bass Tab

ver1
ver1

Whole song

Interactive

More versions @911Tabs.com
10,039 views 18 this week
5 commentsread comments
1 2 3 4 5
excellent!
x 7
Autoscroll
+/-
esc
set tempo
stop
Contributor
Hey! There's an official Ultimate Guitar app which is ideal
for learning songs when you're away from computer. Get the app
WARNING: You are trying to view
                                    content from Ultimate-Guitar.com
                                    in an unauthorized application,
                                    which is prohibited.

                                    Please use an official Ultimate
                                    Guitar Tabs application for iPhone,
                                    iPad or Android to access legitimate
                                    chords, guitar, bass, and drum tabs
                                    from Ultimate-Guitar.com database.

                                    Type "ultimate guitar tabs" in Apple
                                    App Store's or Android Market's
                                    search to find the application.
OCTAVARIUM (Bassline)
                          As recorded by Dream Theater
                        (From the 2005 Album OCTAVARIUM)

Words by Mike Portnoy, John Petrucci, and James LaBrie

Music by Dream Theater


Gtr I (B E A D G C) - 'John Myung RBXJM2'

 Synth Intro   Continuum     Lapsteel Guitar
  Q=62
 4/4
  Gtr I
  Wx10          Wx33          Wx17
|-------------|-------------|---------|
|-------------|-------------|---------|
|-------------|-------------|---------|
|-------------|-------------|---------|
|-------------|-------------|---------|
|-------------|-------------|---------|


 Band Enters (3:49)
  Q=66
  H    +H       H    +H       H    +H       H    +H
|-------------|-------------|-------------|-------------|
|-------------|-------------|-------------|-------------|
|-------------|-------------|-------------|-------------|
|-------------|-8----(8)----|-------------|-1----(1)----|
|-1----(1)----|-------------|-1----(1)----|-------------|
|-------------|-------------|-------------|-------------|


  H    +H       H    +H       H    +H       W          +W
|-------------|-------------|-------------|----------|--------||
|-------------|-------------|-------------|----------|--------||
|-------------|-------------|-------------|----------|--------||
|-------------|-4----(4)----|-5----(5)----|-1--------|-(1)----||
|-1----(1)----|-------------|-------------|----------|--------||
|-------------|-------------|-------------|----------|--------||


 Acoustic Guitar and Flute
  Wx15
|---------|
|---------|
|---------|
|---------|
|---------|
|---------|


  I - Someone LVocals Enter
                             3/4
   Wx4          Wx16          H.
||------------|-------------|-------|
||------------|-------------|-------|
||------------|-------------|-------|
||------------|-------------|-------|
||------------|-------------|-------|
||------------|-------------|-------|


 4/4
  Wx2          H.       E  E    H     +Q.   S S    Q.    E Q.   S  S
|------------|---------------|------------------|----------------------|
|------------|---------10----|--------------8-9-|-10-------------------|
|------------|------------10-|-11----(11)-------|-------10-------------|
|------------|---------------|------------------|----------8----9-10---|
|------------|---------------|------------------|----------------------|
|------------|---------------|------------------|----------------------|


   H     E  E  E  E    Q   +E   E  Q   E  E
|-------------------|-----------------------|
|-------12----10----|-----------------------|
|----------13----13-|-----------------12-13-|
|-11----------------|-13--(13)-13-13--------|
|-------------------|-----------------------|
|-------------------|-----------------------|


   Q   +E   E  Q   E  E    Q   +E   E  Q   E  E
|-----------------------|------------------------|
|-10--(10)-----------10-|-12--(12)--------10-12--|
|-----------------13----|------------------------|
|----------13-13--------|----------13-13---------|
|-----------------------|------------------------|
|-----------------------|------------------------|


   Q   +E   S  S  Q   +E   S  S    Q   Q   Q   Q
|-------------------------------|-----------------|
|-13--(13)-13-15-16--(16)-15-13-|-12--------------|
|-------------------------------|-----13--12------|
|-------------------------------|-------------10--|
|-------------------------------|-----------------|
|-------------------------------|-----------------|


   E  E  Q   +Q.    E    Q   Q   Q   Q
|---------------------|------------------|
|----10-10--(10)---10-|-12---------------|
|---------------------|-----13--10-------|
|-11------------------|-------------10---|
|---------------------|------------------|
|---------------------|------------------|


  E  E  H     +Q     Q  +Q   E  E  Q
|------------------|------------------|
|------------------|--------------14--|
|---12-12----(12)--|-9--(9)--9-14-----|
|-9----------------|------------------|
|------------------|------------------|
|------------------|------------------|


  Q  +Q    Q   +Q      Q   +Q    S  S  S  E  S  S S
|-------------------|-------------------------------|
|-9--(9)------------|-----------14-13-11------------|
|---------11--(11)--|-12--(12)-----------14-12-11-9-|
|-------------------|-------------------------------|
|-------------------|-------------------------------|
|-------------------|-------------------------------|


  Q  +Q    Q   +Q      E  E  H     +Q
|-------------------|-------------------|
|-9--(9)------------|-------------------|
|---------11--(11)--|-10----------------|
|-------------------|----10-10----(10)--|
|-------------------|-------------------|
|-------------------|-------------------|


  E E H    +Q      Q   +S   S  S  S  Q   +Q
|---------------|------------------------------|
|-9-------------|-10--(10)---------------------|
|---9-9----(9)--|-------------12----12--(12)---|
|---------------|----------12----12------------|
|---------------|------------------------------|
|---------------|------------------------------|


                      H=H
  H    +E  E E +E     E +E  E E E E E E
|----------5--------|-------------------|
|-------------------|-------------------|
|-6----(6)---6-(6)\-|-3-(3)-3-3-3-3-3-3-|
|-------------------|-------------------|
|-------------------|-------------------|
|-------------------|-------------------|


                      "As far as I could tell..."
                   Slightly Faster Q=77
   E E E E E E E E     Q  +E. S E E +Q     8x
|------------------||----------------------||
|------------------||o--------------------o||
|-/6-6-6-6-6-6-6-6-||----------------------||
|------------------||--2--(2)-2-2-2-(2)----||
|------------------||o--------------------o||
|------------------||----------------------||


  Q  +E. S S +S  S S S +S  S S
|------------------------------|
|------------------------------|
|------------------------------|
|-2--(2)-2-2-(2)-2-2-2-(2)-2-2-|
|------------------------------|
|------------------------------|


  Q  +E. S S +S  S S S +S  S S   Q  +E. S E E E +E
|------------------------------|--------------------|
|------------------------------|--------------------|
|------------------------------|--------------------|
|-1--(1)-1-1-(1)-1-1-1-(1)-1-1-|-0--(0)-0-0-0-0-(0)-|
|------------------------------|--------------------|
|------------------------------|--------------------|


                                                               H.=H
  H    +Q.   E   H    +Q.   E   H    +Q.   E   H    +Q   E E   H    +H
|--------------|--------------|--------------|-9----(9)--9---|-------------||
|--------------|--------------|--------------|-------------9-|-------------||
|--------------|-7----(7)-----|--------------|---------------|-7----(7)----||
|-0----(0)---7-|------------7-|-7----(7)---7-|---------------|-------------||
|--------------|--------------|--------------|---------------|-------------||
|--------------|--------------|--------------|---------------|-------------||


  II - Medicate (Awakening)
   Faster Q=129
  4/4
   Q  Q  Q  Q    E S S S S Q  S S S S E   q  q  E q  E   S S E E E E Q.
||-------------|------------------------|--------------|-------------------|
||-------------|------------------------|--------------|-------------------|
||-------7-----|---7-5---5-7--7-5---5-7-|-------7------|-------------------|
||-------------|-------7----------7-----|--------------|-------3-----------|
||-5-----------|------------------------|-5--5----5--5-|-5-3-5---5-3-------|
||-------------|------------------------|--------------|-------------3-----|


  E E q  H       E S S S S Q  S S S S E   q  E E q  q    E E E E E E S S E
|--------------|------------------------|--------------|--------------------|
|--------------|------------------------|--------------|--------------------|
|-7-5-7--------|---7-5---5-7--7-5---5-7-|--------7--7--|--------------------|
|--------------|-------7----------7-----|--------------|-------------3-3-5--|
|--------5\----|------------------------|-5----5-------|-------3-4-5--------|
|--------------|------------------------|--------------|-3-4-5--------------|


  Q  E E Q  Q    E S S S S Q  S S S S E
|--------------|------------------------|
|--------------|------------------------|
|--------7-----|---7-5---5-7--7-5---5-7-|
|--------------|-------7----------7-----|
|-5----5-------|------------------------|
|--------------|------------------------|


  E E Q  Q  Q    E S S S S Q  S S S S E
|--------------|---------------------------|
|--------------|---------------------------|
|--------7-----|---7-5---5-7--7-5---5-7----|
|--------------|-------7----------7--------|
|-5-5----------|---------------------------|
|--------------|---------------------------|


  Q  Q  Q  Q    E S S S S Q  S S S S E
|-------------|------------------------|
|-------------|------------------------|
|-------7-----|---7-5---5-7--7-5---5-7-|
|-------------|-------7----------7-----|
|-5-----------|------------------------|
|-------------|------------------------|


  Q  Q  Q  Q    E S S S S E S S S S E E
|-------------|----------------------------|
|-------------|-------------5h7-----7------|
|-------7-----|---7-5---5-7-----7p5--------|
|-------------|-------7--------------------|
|-5-----------|-----------------------3----|
|-------------|----------------------------|


   Vocals Enter/Verse #1
    Q  E E Q  Q    E E E S S Q  E +E
||---------------|---------------------|
||o--------------|---------------------|
||---------7-----|-----------7--7-(7)\-|
||---------------|---------------------|
||o-5----5-------|-5-5---5-5-----------|
||---------------|---------------------|


  Q  E S S E +E   Q    E E E S S E E E +E
|--------------------|------------------------|
|--------------------|------------------------|
|----------7-(7)\----|-----------7---7-(7)\---|
|--------------------|------------------------|
|-5----5-5-----------|-5-5---5-5---5----------|
|--------------------|------------------------|


  1.
  Q  E S S Q  Q    E E E S S Q  E +E
|----------------|---------------------|
|----------------|---------------------|
|----------7-----|-----------7--7-(7)\-|
|----------------|---------------------|
|-5----5-5-------|-5-5---5-5-----------|
|----------------|---------------------|


  Q  E S S Q  E E   E S S E E E E E E
|-----------------|----------------------||
|-----------------|---------------------o||
|----------7------|-------7---7---7------||
|-----------------|----------------------||
|-5----5-5----5---|---5-5---5---5---5---o||
|-----------------|----------------------||


  2.
  Q  +Q   Q  +Q     E E +E  S S E +E  E +E
|-----------------|-------------------------|
|-----------------|-------------------------|
|---------4--(4)--|-------------4-(4)-4-(4)-|
|-----------------|-------------------------|
|-2--(2)----------|-2-2-(2)-2-2-------------|
|-----------------|-------------------------|


  Q  +E  S S Q  +Q     E E E E E +E  E +E
|--------------------|-----------------------|
|--------------------|-----------------------|
|--------------------|-----------------------|
|--------------------|-----------------------|
|-1--(1)-1-1-1--(1)--|-1-1-1-1-1-(1)-1-(1)---|
|--------------------|-----------------------|


  E +E  E E E +E  E E   E +E  E E E +E  E E
|---------------------|---------------------|
|---------------------|---------------------|
|---------------------|---------------------|
|---------------------|---------------------|
|---------------------|---------------------|
|-3-(3)-3-3-3-(3)-3-3-|-3-(3)-3-3-3-(3)-3-3-|


  E +E  E E E +E  E E   E E E E E E E +E
|---------------------|--------------------|
|---------------------|--------------------|
|---------------------|--------------------|
|---------------------|--------------------|
|-1-(1)-1-1-1-(1)-1-1-|-1-1-1-1-1-1-1-(1)--|
|---------------------|--------------------|


  Q  +E  E E +E  +E  E   E +E  E E E +E  E E
|----------------------|---------------------|
|----------------------|---------------------|
|----------------------|---------------------|
|----------------------|---------------------|
|-5--(5)-5-5-(5)-(5)-5-|-5-(5)-5-5-5-(5)-5-5-|
|----------------------|---------------------|


  Q  +E  E E +E  +E  E   E E E +E  E +E  E +E
|----------------------|------------------------|
|----------------------|------------------------|
|----------------------|------------------------|
|----------------------|------------------------|
|-5--(5)-5-5-(5)-(5)-5-|-5-5-5-(5)-5-(5)-5-(5)--|
|----------------------|------------------------|


  Q  +E  E Q  +E  E   Q  Q  +H       E +E  E E E E E E   E E E E E E E E
|-------------------|--------------|-------------------|------------------|
|-------------------|--------------|-------------------|------------------|
|-------------------|--------------|-------------------|------------------|
|-------------------|--------------|-------------------|------------------|
|-------------------|--------------|-1-(1)-1-1-1-1-1-1-|-1-1-1-1-1-1-1-1--|
|-3--(3)-3-3--(3)-3-|-3--3--(3)----|-------------------|------------------|


 Chorus
  Q  +E  E Q  +Q      Q  E E E E E E   Q  +E  E Q  +Q      E +E  E E E E E E
|-------------------|----------------|-------------------|--------------------|
|-------------------|----------------|-------------------|--------------------|
|----------7--(7)\--|--------7---5h7-|----------7--(7)\--|--------------------|
|-------------------|----------------|-------------------|--------------------|
|-5--(5)-5----------|-5--5-5---5-----|-5--(5)-5----------|-5-(5)-5-5-5--------|
|-------------------|----------------|-------------------|-------------3-3-3--|


  Q  +E  E Q  +Q      Q  Q  E E E E   Q  +Q   Q  +Q     E E E E E E E E
|-------------------|---------------|-----------------|------------------|
|-------------------|---------------|-----------------|------------------|
|----------7--(7)\--|-------7---5h7-|-----------------|------------------|
|-------------------|---------------|-----------------|------------------|
|-5--(5)-5----------|-5--5----5-----|-5--(5)--5--(5)--|-5-5-5-3-5-5-5-3--|
|-------------------|---------------|-----------------|------------------|


  Q  +E  E Q  +Q      Q  +Q   E E E E   Q  +E  E Q  +E  E   Q  Q  Q  Q
|-------------------|-----------------|-------------------|--------------|
|-------------------|-----------------|-------------------|--------------|
|----------7--(7)\--|---------7---5h7-|----------3--(3)---|-------3------|
|-------------------|-----------------|-------------------|--------------|
|-5--(5)-5----------|-5--(5)----5-----|-1--(1)-1--------1-|-1--1-----1---|
|-------------------|-----------------|-------------------|--------------|


                                                      <
  Q  +E  E Q  +E  E   E +E  E E E E E E   H    +Q.    E     +H.       Q
|-------------------|-------------------|----------------|-----------------|
|-------------------|-------------------|------------<3>-|-(<3>)-----------|
|----------4--(4)---|-----------4-------|----------------|-----------------|
|-------------------|-------------------|----------------|------------5\---|
|-2--(2)-2--------2-|-2-(2)-2-2---2-2-2-|----------------|-----------------|
|-------------------|-------------------|-3----(3)-------|-----------------|


 Verse #2
  Q  Q  H       E E E S S Q  Q    Q  E S S Q  Q    E E E S S E E E E
|-------------|-----------------|----------------|--------------------|
|-------------|-----------------|----------------|--------------------|
|-------7\----|-----------7--7--|----------7-----|-----------7---7-5--|
|-------------|-----------------|----------------|--------------------|
|-5-----------|-5-5---5-5-------|-5----5-5-------|-5-5---5-5---5------|
|-------------|-----------------|----------------|--------------------|


  Q  E E Q  Q    E E E S S Q  Q    W          +W
|--------------|-----------------|----------|--------|
|--------------|-----------------|----------|--------|
|--------7-----|-----------7--7--|----------|--------|
|--------------|-----------------|----------|--------|
|-5----5-------|-5-5---5-5-------|-5--------|-(5)----|
|--------------|-----------------|----------|--------|


  Q  E E Q  +Q      E E E S S Q  Q
|-----------------|-----------------|
|-----------------|-----------------|
|--------7--(7)\--|-----------7--7--|
|-----------------|-----------------|
|-5----5----------|-5-5---5-5-------|
|-----------------|-----------------|


  Q  E S S Q  +Q      E E E S S E E E +E
|-------------------|-----------------------|
|-------------------|-----------------------|
|----------7--(7)\--|-----------7---7-(7)\--|
|-------------------|-----------------------|
|-5----5-5----------|-5-5---5-5---5---------|
|-------------------|-----------------------|


  Q  E E Q  +Q      E E E S S Q  E +E
|-----------------|---------------------|
|-----------------|---------------------|
|--------7--(7)\--|-----------7--7-(7)\-|
|-----------------|---------------------|
|-5----5----------|-5-5---5-5-----------|
|-----------------|---------------------|


  H    E  E   Q      +E    E   E   +E    E   E   E  E
|-----------------|-----------------------------------|
|-----------------|-----------------------------------|
|--------<5>------|-------<5>-----------<5>-----------|
|------------<5>--|-(<5>)-----<5>-(<5>)-----<5>-------|
|-----------------|-----------------------------<5>-0-|
|-----------------|-----------------------------------|


  Q  E E Q  +Q      E E E S S Q  E +E
|-----------------|---------------------|
|-----------------|---------------------|
|--------7--(7)\--|-----------7--7-(7)\-|
|-----------------|---------------------|
|-5----5----------|-5-5---5-5-----------|
|-----------------|---------------------|


  Q  E S S Q  +E  E   E E E S S E E E +E
|-------------------|-----------------------|
|-------------------|-----------------------|
|----------7--(7)---|-----------7---7-(7)\--|
|-------------------|-----------------------|
|-5----5-5----------|-5-5---5-5---5---------|
|-------------------|-----------------------|


  Q  +E  E Q  +Q     E E E S S E E Q     Q  +E  E Q  +Q     E E +H.
|------------------|-------------------|------------------|------------|
|------------------|-------------------|------------------|------------|
|----------4--(4)--|-----------4---4\--|------------------|------------|
|------------------|-------------------|------------------|------------|
|-2--(2)-2---------|-2-2---2-2---2-----|-1--(1)-1-1--(1)--|-1-1-(1)----|
|------------------|-------------------|------------------|------------|


  H    +Q.   E   Q  Q  +Q   E E   H    +Q.   E   Q  E E E E E E
|--------------|----------------|--------------|-----------------|
|--------------|----------------|--------------|-----------------|
|--------------|----------------|--------------|--------3---3----|
|--------------|----------------|------------3-|-----------------|
|--------------|----------------|-1----(1)-----|-1--1-1---1---1--|
|-3----(3)---3-|-3--3--(3)--3-3-|--------------|-----------------|


  Q  E E Q  +Q     Q  Q  E E E E   Q  E E E E E E   E +E  E +E   E E E E
|----------------|---------------|----------------|-----------------------|
|----------------|---------------|--------5-------|-----------------------|
|--------7--(7)--|-------7---5h7-|----5h7---7-5h7-|-------7-(7)\----------|
|----------------|---------------|----------------|-----------------------|
|-5----5---------|-5--5----5-----|-5--------------|-5-(5)--------5-4-3-2--|
|----------------|---------------|----------------|-----------------------|


  E +E  E E E +Q   E   E +E  E E E +E  E E
|--------------------|---------------------|
|--------------------|---------------------|
|--------------------|---------------------|
|--------------------|---------------------|
|-1-(1)-1-1-1-(1)--1-|-1-(1)-1-1-1-(1)-1-1-|
|--------------------|---------------------|


  Q  +E  E Q  +E  E   E +E  E E E E E E
|-------------------|--------------------|
|-------------------|--------------------|
|-------------------|--------------------|
|-------------------|--------------------|
|-3--(3)-3-3--(3)-3-|-3-(3)-3-3-3-3-3-3--|
|-------------------|--------------------|


 Chorus
  Q  +E  E Q  +Q      Q  E E E E E E   Q  +E  E Q  +Q      E E E E E E E E
|-------------------|----------------|-------------------|------------------|
|-------------------|----------------|-------------------|---5--------------|
|----------7--(7)\--|--------7---5h7-|----------7--(7)\--|-7---7-5-7---5h7--|
|-------------------|----------------|-------------------|-----------7------|
|-5--(5)-5----------|-5--5-5---5-----|-5--(5)-5----------|------------------|
|-------------------|----------------|-------------------|------------------|


  Q  +E  E Q  +E  E   E E E E Q  +Q      Q  +E  E Q  +E  E   E E E E E E E E
|-------------------|------------------|-------------------|------------------|
|-------------------|---5--------------|-------------------|------------------|
|-------------------|-7-----5h7--(7)\--|-------------------|------------------|
|-------------------|-----7------------|-------------------|------------------|
|-5--(5)-5-5--(5)-5-|------------------|-5--(5)-5-5--(5)-5-|-5-5-5-3-5-5-5-3--|
|-------------------|------------------|-------------------|------------------|


  Q  +E  E Q  +Q      Q  E E E E E E
|-------------------|----------------|
|-------------------|----------------|
|----------7--(7)\--|--------7---5h7-|
|-------------------|----------------|
|-5--(5)-5----------|-5--5-5---5-----|
|-------------------|----------------|


  Q  +E  E Q  +E  E   E +E  E +E  E +E  E E
|-------------------|------------------------|
|-------------------|------------------------|
|----------3--(3)---|-------------3-(3)------|
|-------------------|------------------------|
|-1--(1)-1--------1-|-1-(1)-1-(1)-------1-1--|
|-------------------|------------------------|


  Q  +E  E Q  +E  E   E +E  E +E  E +E  E E
|-------------------|-----------------------|
|-------------------|-----------------------|
|----------4--(4)---|-------------4-(4)-----|
|-------------------|-----------------------|
|-2--(2)-2--------2-|-2-(2)-2-(2)-------2-2-|
|-------------------|-----------------------|


  E E E E E E E E   E E E E E E E +E
|-----------------|--------------------||
|-----------------|--------------------||
|-----------------|--------------------||
|-----------------|--------------------||
|-----------------|--------------------||
|-3-3-3-3-3-3-3-3-|-3-3-3-3-3-3-3-(3)--||


  III - Full Circle/Instrumental
   Q=116
   W          +W           W          H.       Q
||----------|------------|----------|--------------|
||----------|------------|----------|--------------|
||----------|------------|----------|--------------|
||----------|------------|----------|-2-------/9\--|
||-0--------|-(0)--------|-0--------|--------------|
||----------|------------|----------|--------------|


  W          W          W          E +S  E +S  E +S  E +S  E E
|----------|----------|----------|------------------------------|
|----------|----------|----------|------------------------------|
|----------|----------|----------|------------------------------|
|----------|-2--------|----------|-5-(5)-4-(4)-2-(2)------------|
|-0--------|----------|-0--------|-------------------5-(5)-4-2--|
|----------|----------|----------|------------------------------|


  E +S  E S E +S  S E E E   E +S  E S E +S  S E E E
|-------------------------|-------------------------|
|-------------------------|-------------------------|
|-------------------------|-------------------------|
|-----------7-(7)-7---7-7-|-----------7-(7)-7---7-7-|
|-0-(0)-0-0---------0-----|-0-(0)-0-0---------0-----|
|-------------------------|-------------------------|


    E +S  E S E +S  S E E E   E +S  E S S +E  S E E E
||--------------------------|----------------------------||
||o-------------------------|-----------4-(4)-4---4-----o||
||--------------------------|----------------------------||
||------------7-(7)-7---7---|-2-(2)-2-2---------2---2----||
||o-0-(0)-0-0---------0---0-|---------------------------o||
||--------------------------|----------------------------||


  E +S  E S E +S  S E E E   E +S  E +S  E +S  E +S  E E
|-------------------------|-----------------------------|
|-------------------------|-----------------------------|
|-------------------------|-----------------------------|
|-----------7-(7)-7---7-7-|-5-(5)-4-(4)-2-(2)---------2-|
|-0-(0)-0-0---------0-----|-------------------5-(5)-4---|
|-------------------------|-----------------------------|


  S E S S S E. S S S E S S   S S S S S S S S S S S S S S S S
|--------------------------|-----------------------------------|
|--------------------------|-----------------------------------|
|--------------------------|-----------------------------------|
|-4-4-4-4-4-4--4-4-4-4-4-4-|-3-3-3-3-3-3-3-3-3-3-3-3-3-3-3-3---|
|--------------------------|-----------------------------------|
|--------------------------|-----------------------------------|


  S E S S S E. S S S E S S   S S S S S S S S S S S S S S S S
|--------------------------|---------------------------------|
|--------------------------|---------------------------------|
|--------------------------|---------------------------------|
|-4-4-4-4-4-4--4-4-4-4-4-4-|-0-0-0-0-0-0-0-0-0-0-0-0-0-0-0-0-|
|--------------------------|---------------------------------|
|--------------------------|---------------------------------|


  E +S  E S E +S  S E E E   E +S  E +S  E +S  E +S  E E
|-------------------------|-------------------------------|
|-------------------------|-------------------------------|
|-------------------------|-------------------------------|
|-----------7-(7)-7---7---|-5-(5)-4-(4)-2-(2)-------------|
|-0-(0)-0-0---------0---0-|-------------------5-(5)-4-2---|
|-------------------------|-------------------------------|


  E +S  E S E +S  S E E E   S S S S S S S S S S S S S S S S
|-------------------------|---------------------------------|
|-------------------------|---------------------------------|
|-------------------------|---------------------------------|
|-----------7-(7)-7---7---|-5-5-5-4-4-4-2-2-2-----------2-2-|
|-0-(0)-0-0---------0---0-|-------------------5-5-5-4-4-----|
|-------------------------|---------------------------------|


  E +S  E S E +S  S E E E   E +S  E +S  E +S  E +S  E E
|-------------------------|-----------------------------|
|-------------------------|-----------------------------|
|-------------------------|-----------------------------|
|-----------7-(7)-7---7---|-5-(5)-4-(4)-2-(2)-----------|
|-0-(0)-0-0---------0---0-|-------------------5-(5)-4-2-|
|-------------------------|-----------------------------|


  E +S  E S E +S  S E E E   E +S  E +S  E +S  E +S  E E
|-------------------------|-----------------------------|
|-------------------------|-----------------------------|
|-------------------------|-----------------------------|
|-----------7-(7)-7---7---|-5-(5)-4-(4)-2-(2)---------2-|
|-0-(0)-0-0---------0---0-|-------------------5-(5)-4---|
|-------------------------|-----------------------------|


    S E S S S E. S S S E S S   S S S S S S S S S S S S S S S S
||---------------------------|-----------------------------------|
||o--------------------------|-----------------------------------|
||---------------------------|-----------------------------------|
||--4-4-4-4-4-4--4-4-4-4-4-4-|-3-3-3-3-3-3-3-3-3-3-3-3-3-3-3-3---|
||o--------------------------|-----------------------------------|
||---------------------------|-----------------------------------|


  S E S S S E. S S S E S S   S S S S S S S S S S S S S S S S
|--------------------------|----------------------------------||
|--------------------------|---------------------------------o||
|--------------------------|----------------------------------||
|-4-4-4-4-4-4--4-4-4-4-4-4-|-0-0-0-0-0-0-0-0-0-0-0-0-0-0-0-0--||
|--------------------------|---------------------------------o||
|--------------------------|----------------------------------||


 5/8                     6/8
  E. E. E E   E. E. E E   E +S  E S S +S  S S S S
|-----------|-----------|----------------------------|
|-----------|-----------|----------------------------|
|-----------|-----------|----------------------------|
|-----------|-----------|-----------7-(7)-7-7-7-7----|
|-4--4--3-3-|-2--2--1-1-|-0-(0)-0-0------------------|
|-----------|-----------|----------------------------|


 5/8
  E +S  E S E E   E. E. E E   E. E. E E
|---------------|-----------|-----------|
|---------------|-----------|-----------|
|---------------|-----------|-----------|
|-----------7-7-|-4--4--3-3-|-2--2--1-1-|
|-0-(0)-0-0-----|-----------|-----------|
|---------------|-----------|-----------|


 6/8                       5/8
  E +S  E S S +S  S S S S   E +S  E S E E
|-------------------------|---------------|
|-------------------------|---------------|
|-----------7-(7)-7-7-7-7-|-----------7-7-|
|-0-(0)-0-0---------------|-0-(0)-0-0-----|
|-------------------------|---------------|
|-------------------------|---------------|


 6/8           4/4               3/4                         3/8
  E E E E E E   E E E E E E E E   E E E E E E   E. E. E. E.   E E E
|-------------|-----------------|-------------|-------------|-------|
|-------------|-----------------|-------------|-------------|-------|
|-------------|-----------------|-------------|-------------|-------|
|-------------|-----------------|-6-6-5-5-4-4-|-3--2--1--0--|-------|
|-4-4-4-3-3-3-|-2-2-2-1-1-1-0-0-|-------------|-------------|-4-3-2-|
|-------------|-----------------|-------------|-------------|-------|


    Faster Q=127
   7/8
    S S S S S S E E E E   S S S S S S E E E E
||----------------------|---------------------|
||o---------------------|---------------------|
||--------------3---3---|-------------3---3---|
||----------------------|---------------------|
||o-1-1-1-1-1-1---1---1-|-1-1-1-1-1-1---1---1-|
||----------------------|---------------------|


  S S S S S S E E E E   S S S S S S E E E E
|---------------------|----------------------||
|---------------------|---------------------o||
|-------------3---3---|-------------3---3----||
|---------------------|----------------------||
|-1-1-1-1-1-1---1---1-|-1-1-1-1-1-1---1---1-o||
|---------------------|----------------------||


    S S S S S S E E E E   S S S S S S E E E E   S S S S S S E E E E
||----------------------|---------------------|---------------------|
||o---------------------|---------------------|---------------------|
||--------------3---3---|-------------3---3---|-------------3---3---|
||----------------------|---------------------|---------------------|
||o-1-1-1-1-1-1---1---1-|-1-1-1-1-1-1---1---1-|-1-1-1-1-1-1---1---1-|
||----------------------|---------------------|---------------------|


 1.                   2.
 6/8                  3/4
  E. E S E S S S S     S S S S S S S S S S S S
|-------------------||----------------------------|
|------------------o||----------------------------|
|--------3-3-3-3-3--||-8-----8-----5--------------|
|-------------------||---8-----8-----6---6--------|
|-1--1-1-----------o||-----6-----6-----6---6-3----|
|-------------------||----------------------------|


   7/8
    S S S S S S E E E E   S S S S S S E E E E   S S S S S S E E E E
||----------------------|---------------------|---------------------|
||o---------------------|---------------------|---------------------|
||--------------3---3---|-------------3---3---|-------------3---3---|
||----------------------|---------------------|---------------------|
||o-1-1-1-1-1-1---1---1-|-1-1-1-1-1-1---1---1-|-1-1-1-1-1-1---1---1-|
||----------------------|---------------------|---------------------|


 1.                   2.
 6/8                  3/4
  E. E S E S S S S     S S S S S S S S S S S S
|-------------------||---------------------------|
|------------------o||-----------------3-----3---|
|--------3-3-3-3-3--||-----3-----5---3-----5-----|
|-------------------||---4-----6---4-----6-------|
|-1--1-1-----------o||-6-----8-------------------|
|-------------------||---------------------------|


                                              1.,2.,3.      4.
   5/8         6/8                            5/8           7/8
                      ~~~~~~~         ~~~~~~
    E. E. E E   E. E. E +Q      E. E. E +Q     E. E. E E  4x E. E. E E E E
||------------|---------------|--------------|------------||----------------|
||o-----------|---------------|--------------|-----------o||----------------|
||--------8---|-------8-(8)\--|-------3-(3)--|-------3----||----------------|
||----------8-|---------------|--------------|---------3--||-------3---3----|
||o-6--6------|-6--6----------|-1--1---------|-1--1------o||-1--1-----------|
||------------|---------------|--------------|------------||----------------|


                                             1.              2.
   5/8                                       6/8             3/4
    S E E S E E   S E E S E E   S E E S E E   E. E. E. E.     S E E E S E E
||--------------|-------------|-------------|--------------||---------------|
||o-------------|-------------|-------------|-------------o||---------------|
||----------3---|---------3---|---------3---|--------------||---------3-5---|
||------------3-|-----------3-|-----------3-|-4--3--1------||-1-1-3-4-------|
||o-1-1-1-1-----|-1-1-1-1-----|-1-1-1-1-----|----------3--o||-------------3-|
||--------------|-------------|-------------|--------------||---------------|


                                             1.              2.
   5/8                                       6/8             3/4
    S E E S E E   S E E S E E   S E E S E E   E. E. E. E.     E. E. E. E.
||--------------|-------------|-------------|--------------||-------------|
||o-------------|-------------|-------------|-------------o||-------------|
||----------3---|---------3---|---------3---|--------------||----------5--|
||------------3-|-----------3-|-----------3-|-4--3--1------||-1--3--4-----|
||o-1-1-1-1-----|-1-1-1-1-----|-1-1-1-1-----|----------3--o||-------------|
||--------------|-------------|-------------|--------------||-------------|


   5/8
    S E E S E E   S E E S E E   S E E S E E
||--------------|-------------|-------------|
||o-------------|-------------|-------------|
||----------3---|---------3---|---------3---|
||------------3-|-----------3-|-----------3-|
||o-1-1-1-1-----|-1-1-1-1-----|-1-1-1-1-----|
||--------------|-------------|-------------|


 1.                          2.
 6/8                         3/4
  S S S S S S S S S S S S     S S S S S S S S S S S S
|--------------------------||--------------------------|
|-------------------------o||--------------------------|
|--------------------------||-------------------5-5-5--|
|-4-4-4-3-3-3-1-1-1--------||-1-1-1-3-3-3-4-4-4--------|
|-------------------3-3-3-o||--------------------------|
|--------------------------||--------------------------|


                                              1.,2.,3.      4.
   5/8         6/8                            5/8           7/8
                      ~~~~~~~         ~~~~~~
    E. E. E E   E. E. E +Q      E. E. E +Q     E. E. E E     E. E. E E E E
||------------|---------------|--------------|------------||----------------||
||o-----------|---------------|--------------|-----------o||----------------||
||--------8---|-------8-(8)\--|-------3-(3)--|-------3----||----------------||
||----------8-|---------------|--------------|---------3--||-------3---3----||
||o-6--6------|-6--6----------|-1--1---------|-1--1------o||-1--1-----------||
||------------|---------------|--------------|------------||----------------||


   Instrumental
   5/8         6/8            5/8
    E. E. E E   E. E S E E E   E. E. E E
||------------|--------------|-----------|
||o-----------|--------------|-----------|
||-----3------|--------6-----|----9------|
||------------|--------------|-----------|
||o-1-----1-3-|-4--4-4---4-6-|-7-----7-9-|
||------------|--------------|-----------|


 1.                     2.
 6/8                    7/8
   E.  E  S  E  E  E      E.  E  S  E  E  E E
|---------------------||----------------------|
|--------------------o||----------------------|
|-----------12--------||-----------12---------|
|---------------------||----------------------|
|-10--10-10----10-13-o||-10--10-10----10-13-0-|
|---------------------||----------------------|


 5/8         6/8            5/8
  E. E. E E   E. E S E E E   E. E. E E
|-----------|--------------|-----------|
|-----------|--------------|-----------|
|----3------|--------6-----|----9------|
|-----------|--------------|-----------|
|-1-----1-3-|-4--4-4---4-6-|-7-----7-9-|
|-----------|--------------|-----------|


 6/8                  5/8         6/8
   E.  E  S  E  E  E   E. E. E E   S S S S S S S S S S S S
|--------------------|-----------|---------------------------|
|--------------------|-----------|---------------------------|
|-----------12-------|----3------|---------------------------|
|--------------------|-----------|-------------2-2-2-2-2-2---|
|-10--10-10----10-13-|-1-----1-3-|-4-4-4-4-4-4---------------|
|--------------------|-----------|---------------------------|


               7/16     6/16   7/16
  E. E. E. E.   E Q  S   E Q    E Q  S
|-------------|--------|------|--------|
|-------------|--------|------|--------|
|-------------|--------|------|--------|
|-5-----4-----|--------|------|--------|
|----4-----3--|--------|------|--------|
|-------------|-4------|-3----|-6------|


 8/16     7/16     6/16   7/16     8/16
  E Q  E   E Q  S   E Q    E Q  S   E Q  E
|--------|--------|------|--------|---------|
|--------|--------|------|--------|---------|
|--------|--------|------|--------|---------|
|--------|--------|------|--------|---------|
|--------|--------|------|--------|---------|
|-5------|-4------|-3----|-6------|-5-------|


  Q=121
 5/8                          6/8
  S  S  S  S S  S  S  S  S S   E. E  S S S E E
|----------------------------|-----------------|
|----------------------------|-----------------|
|--------------------------8-|-9--8----8-9-8---|
|-8-10-11-10-8-10-11-10-11---|------11---------|
|----------------------------|-----------------|
|----------------------------|-----------------|


 5/8                   6/8
  S S S S S S S S S S   E. E S S S E E
|---------------------|----------------|
|-------------------6-|-7--6---6-7-6---|
|-6-8-9-8-6-8-9-8-9---|------9---------|
|---------------------|----------------|
|---------------------|----------------|
|---------------------|----------------|


 5/8                          6/8
  S  S  S  S S  S  S  S  S S   E. E  S S S E E
|----------------------------|-----------------|
|----------------------------|-----------------|
|--------------------------8-|-9--8----8-9-8---|
|-8-10-11-10-8-10-11-10-11---|------11---------|
|----------------------------|-----------------|
|----------------------------|-----------------|


 5/8                   7/8
  S S S S S S S S S S   E. E S S S E E E
|---------------------|--------------------|
|-------------------6-|-7--6---6-7-6-------|
|-6-8-9-8-6-8-9-8-9---|------9-------------|
|---------------------|----------------7---|
|---------------------|--------------------|
|---------------------|--------------------|


 5/8                          6/8
  S  S  S  S S  S  S  S  S S   E. E  S S S E E
|----------------------------|-----------------|
|----------------------------|-----------------|
|--------------------------8-|-9--8----8-9-8---|
|-8-10-11-10-8-10-11-10-11---|------11---------|
|----------------------------|-----------------|
|----------------------------|-----------------|


 5/8                   6/8
  S S S S S S S S S S   E. E S S S E E
|---------------------|----------------|
|-------------------6-|-7--6---6-7-6---|
|-6-8-9-8-6-8-9-8-9---|------9---------|
|---------------------|----------------|
|---------------------|----------------|
|---------------------|----------------|


 5/8                          6/8
  S  S  S  S S  S  S  S  S S    E. E  S  E.  E  S
|----------------------------|--------------------|
|--------------------------9-|-10--9----13--12----|
|-9-11-12-11-9-11-12-11-12---|-------12--------15-|
|----------------------------|--------------------|
|----------------------------|--------------------|
|----------------------------|--------------------|


   S  S  S  S  S  S  S  S  S  S  S  S
|-12----12-13----13-14----14-15----15-|
|----13-------14-------15-------16----|
|-------------------------------------|
|-------------------------------------|
|-------------------------------------|
|-------------------------------------|


 7/16     6/16   7/16     8/16     7/16     6/16
  E Q  S   E Q    E Q  S   E Q  E   E Q  S   E Q
|--------|------|--------|--------|--------|------|
|--------|------|--------|--------|--------|------|
|--------|------|--------|--------|--------|------|
|--------|------|--------|--------|--------|------|
|--------|------|--------|--------|--------|------|
|-4------|-3----|-6------|-5------|-4------|-3----|


 7/16     4/4
  E Q  S   E E  S  S S  S  S S S  S  S  S S S
|--------|---------------------8-12-15-12-8---|
|--------|-------------------8--------------8-|
|--------|-----10---------10------------------|
|--------|--------11---11---------------------|
|--------|-----------8------------------------|
|-6------|-5----------------------------------|


    H=82
   4/4        7/8            4/4          7/8
    W          +H     +Q.     +W           +H     +Q.
||-----------|--------------|------------|----------------||
||o----------|--------------|------------|---------------o||
||-----------|--------------|------------|----------------||
||-----------|--------------|------------|----------------||
||o-1--------|-(1)----(1)---|-(1)--------|-(1)----(1)----o||
||-----------|--------------|------------|----------------||


   4/4                         7/8
    S S S S E +E  S S S S E E   S S S S E +E  S S S S E
||----------------------------|-------------------------|
||o---------------------------|-------------------------|
||----------3-(3)---------3---|---------3-(3)---------3-|
||----------------------------|-------------------------|
||o-1-1-1-1-------1-1-1-1---1-|-1-1-1-1-------1-1-1-1---|
||----------------------------|-------------------------|


 4/4                         7/8
  S S S S E +E  S S S S E E   S S S S E +E  S S S S E
|---------------------------|--------------------------||
|---------------------------|-------------------------o||
|---------3-(3)---------3---|---------3-(3)---------3--||
|---------------------------|--------------------------||
|-1-1-1-1-------1-1-1-1---1-|-1-1-1-1-------1-1-1-1---o||
|---------------------------|--------------------------||


 4/4                           7/8
  S S S S E +E  S S S S E +E    S S S S E +E  E +E  E
|-----------------------------|-----------------------|
|-----------------------------|-----------------------|
|---------3-(3)---------3-(3)-|---------3-(3)-3-(3)---|
|-----------------------------|-----------------------|
|-1-1-1-1-------1-1-1-1-------|-1-1-1-1-------------1-|
|-----------------------------|-----------------------|


 4/4                           5/4
  S S S S E +E  S S S S E +E    S S S S E +E  S S S S E +E  E +E
|-----------------------------|-----------------------------------|
|-----------------------------|-----------------------------------|
|---------5-(5)---------5-(5)-|---------5-(5)---------5-(5)-5-(5)-|
|-----------------------------|-----------------------------------|
|-3-3-3-3-------3-3-3-3-------|-3-3-3-3-------3-3-3-3-------------|
|-----------------------------|-----------------------------------|


 4/4                           7/8
  S S S S E +E  S S S S E +E    S S S S E +E  E +E  E
|-----------------------------|-----------------------|
|-----------------------------|-----------------------|
|---------6-(6)---------6-(6)-|---------6-(6)-6-(6)---|
|-----------------------------|-----------------------|
|-4-4-4-4-------4-4-4-4-------|-4-4-4-4-------------4-|
|-----------------------------|-----------------------|


 4/4                           5/4
  S S S S E +E  S S S S E +E    S S S S E +E  S S S S E +E  E +E
|-----------------------------|-----------------------------------|
|-----------------------------|-----------------------------------|
|---------8-(8)---------8-(8)-|---------8-(8)---------8-(8)-8-(8)-|
|-----------------------------|-----------------------------------|
|-6-6-6-6-------6-6-6-6-------|-6-6-6-6-------6-6-6-6-------------|
|-----------------------------|-----------------------------------|


 4/4                           7/8
  S S S S E +E  S S S S E +E    S S S S E +E  E +E  E
|-----------------------------|-----------------------|
|-----------------------------|-----------------------|
|---------9-(9)---------9-(9)-|---------9-(9)-9-(9)---|
|-----------------------------|-----------------------|
|-7-7-7-7-------7-7-7-7-------|-7-7-7-7-------------7-|
|-----------------------------|-----------------------|


 4/4                           5/4
  S S S S E +E  S S S S E +E    S S S S E +E  S S S S E +E  E +E
|-----------------------------|-----------------------------------|
|---------6-(6)---------6-(6)-|---------6-(6)---------6-(6)-6-(6)-|
|-----------------------------|-----------------------------------|
|-4-4-4-4-------4-4-4-4-------|-4-4-4-4-------4-4-4-4-------------|
|-----------------------------|-----------------------------------|
|-----------------------------|-----------------------------------|


 4/4                           7/8
  S S S S E +E  S S S S E +E    S S S S E +E  E +E  E
|-----------------------------|-----------------------|
|---------7-(7)---------7-(7)-|---------7-(7)-7-(7)---|
|-----------------------------|-----------------------|
|-5-5-5-5-------5-5-5-5-------|-5-5-5-5-------------5-|
|-----------------------------|-----------------------|
|-----------------------------|-----------------------|


 4/4                           5/4
  S S S S E +E  S S S S E +E    S S S S E +E  S S S S E +E  E +E
|-----------------------------|------------------------------------|
|---------9-(9)---------9-(9)-|---------9-(9)---------9-(9)--------|
|-----------------------------|------------------------------------|
|-7-7-7-7-------7-7-7-7-------|-7-7-7-7-------7-7-7-7-------7-(7)\-|
|-----------------------------|------------------------------------|
|-----------------------------|------------------------------------|


 4/4            7/8           4/4
  H    +Q   Q    H    +Q   E   H    +Q   Q
|--------------|-------------|--------------|
|--------------|-------------|--------------|
|--------------|-------------|--------------|
|--------------|-------------|--------------|
|-1----(1)--1--|-3----(3)--3-|-4----(4)--6--|
|--------------|-------------|--------------|


 5/4               4/4
  Q  Q  +H     Q    Q  Q  Q  Q    Q  Q  Q  Q
|-----------------|-------------|---------------|
|-----------------|-------------|---------------|
|-----------------|-------------|---------------|
|--------------5--|-4--------7--|-8-------------|
|-6--7--(7)-------|----3--4-----|----7--9-------|
|-----------------|-------------|----------8----|


  Q=138
 7/16     6/16   7/16     8/16     7/16
  E Q  S   E Q    E Q  S   E Q  E   E Q  S
|--------|------|--------|--------|--------|
|--------|------|--------|--------|--------|
|--------|------|--------|--------|--------|
|--------|------|--------|--------|--------|
|--------|------|--------|--------|--------|
|-4------|-3----|-6------|-5------|-4------|


 6/16   7/16     4/4               2/4
  E Q    E Q  S   E E E E E E E E   E +E   Q
|------|--------|-----------------|-------------|
|------|--------|-----------------|-------------|
|------|--------|-4---2---0-------|-------------|
|------|--------|-------------3---|-------------|
|------|--------|-----------------|-6-(6)\------|
|-3----|-6------|-----------------|-------------|


    Q=122                                1.              2.
   5/8         6/8           5/8         6/8             3/4
    E. E. E E   E. E. E. E.   E. E. E E   E. E. E. E.     E S E S E S E S
||------------|-------------|-----------|--------------||------------------|
||o-----------|-------------|-----------|-------------o||------------------|
||------------|-------------|-----------|--------------||------------------|
||--------6---|-------------|-------6---|-4-----2------||------------------|
||o----6----7-|-8-----7-----|----6----7-|----1-----0--o||------------------|
||--4---------|----7-----6--|-4---------|--------------||-4-4-4---4-4-4----|


                   7/8             4/4
  E S E S E S E S   E. E. E E. E.   E H    Q  E   E H    Q  E
|-----------------|---------------|-------------|-------------|
|-----------------|---------------|-------------|-------------|
|-----------------|---------------|-------------|-------------|
|-----------------|-5-------3-----|-------------|-2-----------|
|-----------------|----3-------2--|-0-----------|-------------|
|-4-4-4---3-3-3---|---------------|-------------|-------------|


  Q=125
 7/8              6/8               7/8
  E. E S E E E E   E E S S E S E S   E S E S E E E E   E. E S E E E E
|----------------|-----------------|-----------------|-----------------|
|----------------|-----------------|-----------------|-----------------|
|--------3---3---|---------3-------|-------------3---|------------6----|
|----------------|-----------------|-----------------|----------6------|
|-1--1-1---1-----|-1-1-1-1---1-1-1-|-1-1-1-1-1-------|-3--3-3-4-----4--|
|----------------|-----------------|-----------------|-----------------|


                  6/8             7/8
  E. E S E E E E   E S E S E E E   E. E S E E E E
|----------------|---------------|----------------|
|----------------|---------------|----------------|
|--------3---3---|---------3-----|--------3-------|
|----------------|---------------|----------------|
|-1--1-1---1-----|-1-1-1-1---1-1-|-1--1-1-----1---|
|----------------|---------------|----------------|


 4/4
  E. E S E. S E E E   E. E S E. E. E S S
|-------------------|--------------------|
|-------------------|--------------------|
|-------------------|--------------------|
|--------7--7-------|--------7-----------|
|-0--0-0------0-0-0-|-0--0-0----4--5-7-7-|
|-------------------|--------------------|


  E. E S E. S E E E   E. E S E +E  E E E
|-------------------|--------------------|
|-------------------|--------------------|
|-------------------|--------9-(9)-------|
|--------7--7---7---|--------------------|
|-0--0-0------0---0-|-7--7-7-------7-7-7-|
|-------------------|--------------------|


  E. E S E. S E E E   E. E S E. S E E E
|-------------------|--------------------|
|-------------------|--------------------|
|--------6--6---6---|--------7--7---7----|
|-------------------|--------------------|
|-4--4-4------4---4-|-5--5-5------5---5--|
|-------------------|--------------------|


 5/8
  S  S  S  S S  S S  S  S S   S S  S S S S  S S S  S
|---------------------------|------------------------|
|---------------------------|------------------------|
|-------------------------8-|-9-8----8-9-8----8-9-11-|
|-8-10-11-10-8-10-8-10-11---|-----11-------11--------|
|---------------------------|------------------------|
|---------------------------|------------------------|


  S  S  S  S S  S S  S  S S    S S  S S  S S  S S  S  S
|---------------------------|----------------------------|
|-------------------------9-|-10-9----9-10-9----9-10-12--|
|-9-11-12-11-9-11-9-11-12---|------12--------12----------|
|---------------------------|----------------------------|
|---------------------------|----------------------------|
|---------------------------|----------------------------|


 6/8
   S  S  S  S  S S  S  S S  S  S  S    S  S  S  S  S  S  S  S  S  S  S  S
|--------------------------13-11-10-|----------20-19-17-------------------|
|-13-12-10--------------------------|-13-12-10-------------------18-16-15-|
|------------------11-10-8----------|-------------------18-17-15----------|
|----------11-10-8------------------|-------------------------------------|
|-----------------------------------|-------------------------------------|
|-----------------------------------|-------------------------------------|


                                 2/4
   S  S S S  S S S S  S S  S  S   S S S S S S S S
|----10---7---------------------|-------------------||
|-12----9------9---6------------|-------------------||
|-----------11---8------8-------|-------------------||
|--------------------10------10-|---7---4---1-------||
|-------------------------12----|-9---6---3---0-3---||
|-------------------------------|-------------------||


  IV - Intervals
   Q=130
  7/8
   H    +Q.     +H     +Q.     +H     +Q.
||------------|--------------|--------------|
||------------|--------------|--------------|
||------------|--------------|--------------|
||------------|--------------|--------------|
||-1----(1)---|-(1)----(1)---|-(1)----(1)---|
||------------|--------------|--------------|


  +H     +Q.       H    Q.     H    Q.
|--------------||------------|-------------||
|--------------||o-----------|------------o||
|--------------||------------|-------------||
|--------------||------------|-------------||
|-(1)----(1)---||o-----------|------------o||
|--------------||------------|-------------||


    S S S S S S E E E E   S S S S S S E E E E
||----------------------|---------------------|
||o---------------------|---------------------|
||----------------------|---------------------|
||----------------------|---------------------|
||o-1-1-1-1-1-1-1---1---|-1-1-1-1-1-1-1---1---|
||----------------------|---------------------|


  S S S S S S E E E E   S S S S S S E E E E   4x
|---------------------|-----------------------||
|---------------------|----------------------o||
|---------------------|-----------------------||
|---------------------|-----------------------||
|-1-1-1-1-1-1-1---1---|-1-1-1-1-1-1-1---1----o||
|---------------------|-----------------------||


    S S S S S S E E E E   S S S S S S E E E E
||----------------------|---------------------|
||o---------------------|---------------------|
||--------------3---3---|-------------3---3---|
||----------------------|---------------------|
||o-1-1-1-1-1-1---1---1-|-1-1-1-1-1-1---1---1-|
||----------------------|---------------------|


  S S S S S S E E E E   S S S S S S E E E E
|---------------------|-----------------------||
|---------------------|----------------------o||
|-------------3---3---|-------------3---3-----||
|---------------------|-----------------------||
|-1-1-1-1-1-1---1---1-|-1-1-1-1-1-1---1---1--o||
|---------------------|-----------------------||


    S S S S S S E E E E   S S S S S S E E E E
||----------------------|---------------------|
||o---------------------|---------------------|
||----------------------|---------------------|
||----------------------|---------------------|
||o-1-1-1-1-1-1-1---1---|-1-1-1-1-1-1-1---1---|
||----------------------|---------------------|


  S S S S S S E E E E   S S S S S S E E E E
|---------------------|-----------------------||
|---------------------|----------------------o||
|---------------------|-----------------------||
|---------------------|-----------------------||
|-1-1-1-1-1-1-1---1---|-1-1-1-1-1-1-1---1----o||
|---------------------|-----------------------||


 "Trapped inside this..."
                       9/8
  S S S S S S E E E E   S S S S S S E E E E E E
|---------------------|-------------------------|
|---------------------|-------------------------|
|---------------------|-------------------------|
|---------------------|-------------------------|
|-1-1-1-1-1-1-1---1---|-1-1-1-1-1-1-1---1---1---|
|---------------------|-------------------------|


 7/8                   10/8
  S S S S S S E E E E   S S S S S S E E E E E E E
|---------------------|---------------------------|
|---------------------|---------------------------|
|---------------------|---------------------------|
|---------------------|---------------------------|
|-1-1-1-1-1-1-1---1---|-1-1-1-1-1-1-1---1---1---1-|
|---------------------|---------------------------|


 7/8                   9/8
  S S S S S S E E E E   S S S S S S E E E E E E
|---------------------|-------------------------|
|---------------------|-------------------------|
|---------------------|-------------------------|
|---------------------|-------------------------|
|-1-1-1-1-1-1-1---1---|-1-1-1-1-1-1-1---1---1---|
|---------------------|-------------------------|


 7/8                  9/8
  S S S S S S E Q  E   S S S S S S E E E E E E
|--------------------|----------------------------|
|--------------------|----------------------------|
|--------------------|----------------------------|
|--------------------|----------------------------|
|-1-1-1-1-1-1-1------|-1-1-1-1-1-1-1---1---1------|
|--------------------|----------------------------|


  Q=123
 4/4                                                            2/4
  W          +W           +W           +W           +W             H
|----------|------------|------------|------------|------------|---------||
|----------|------------|------------|------------|------------|---------||
|----------|------------|------------|------------|------------|---------||
|----------|------------|------------|------------|------------|-/12\----||
|-1--------|-(1)--------|-(1)--------|-(1)--------|-(1)--------|---------||
|----------|------------|------------|------------|------------|---------||


  V - Razor's Edge
  4/4
   W          +H.      E E   W          +W
||----------|--------------|----------|--------|
||----------|--------------|----------|--------|
||----------|--------------|----------|--------|
||-3--------|-(3)------3-3-|-1--------|-(1)----|
||----------|--------------|----------|--------|
||----------|--------------|----------|--------|


  W          +H.      E E   W          +H.      E E
|----------|--------------|----------|---------------|
|----------|--------------|----------|---------------|
|----------|--------------|----------|---------------|
|----------|--------------|----------|---------------|
|-1--------|-(1)------1-1-|-3--------|-(3)------3-3--|
|----------|--------------|----------|---------------|



  W          +H.      E E   Q  +E  E  Q  +E  E   W
|----------|--------------|--------------------|------|
|----------|--------------|--------------------|------|
|----------|--------------|--------------------|------|
|----------|--------------|----------/7--(7)-7-|-8----|
|-4--------|-(4)------4-4-|-0--(0)-0-----------|------|
|----------|--------------|--------------------|------|


  W          W          +H.      E E   H    +Q   Q
|----------|----------|--------------|---------------|
|----------|----------|--------------|---------------|
|----------|----------|--------------|---------------|
|-6--------|-5--------|-(5)------5-5-|---------------|
|----------|----------|--------------|-1----(1)--1---|
|----------|----------|--------------|---------------|


                                            "We move in circles..."
  H    +Q   Q    H    +Q   Q     H    H      H    +Q.   E   Q  H    +Q
|--------------|--------------|------------|--------------|---------------|
|--------------|--------------|------------|--------------|---------------|
|--------------|--------------|------------|--------------|---------------|
|--------------|--------------|-/7----3----|-5----(5)---5-|-5--5----(5)---|
|-4----(4)--4--|-0----(0)--0--|------------|--------------|---------------|
|--------------|--------------|------------|--------------|---------------|


  H    +Q   Q    Q  Q  +H       W          W
|--------------|--------------|----------|------|
|--------------|--------------|----------|------|
|--------------|--------------|----------|------|
|-4----(4)--4--|-4--4--(4)----|-3--------|-3----|
|--------------|--------------|----------|------|
|--------------|--------------|----------|------|


  Q  E E Q  +E  E   Q  E E Q  Q    Q.   E Q.   E   Q  E E Q.   E
|-----------------|--------------|---------------|----------------|
|-----------------|--------------|---------------|----------------|
|-----------------|--------------|---------------|----------------|
|-2--2-2-2--(2)-2-|-2--2-2-2--2--|-1----1-1----1-|-1--1-1-1----1--|
|-----------------|--------------|---------------|----------------|
|-----------------|--------------|---------------|----------------|


  Q  Q  Q  Q    Q  Q  Q  Q    H    +Q.   E   Q  H    +Q
|-------------|-------------|--------------|---------------|
|-------------|-------------|--------------|---------------|
|-------------|-------------|--------------|---------------|
|-3--3--3--3--|-3--3--3--3--|-5----(5)---5-|-5--5----(5)---|
|-------------|-------------|--------------|---------------|
|-------------|-------------|--------------|---------------|


  H    +Q   E E   Q  E E Q  Q    H    +Q.   E   Q  H    +Q
|---------------|--------------|--------------|---------------|
|---------------|--------------|--------------|---------------|
|---------------|--------------|--------------|---------------|
|-4----(4)--4-4-|-4--4-4-4--4--|-3----(3)---3-|-3--3----(3)---|
|---------------|--------------|--------------|---------------|
|---------------|--------------|--------------|---------------|


  Q  +E  E H      Q  Q  +H       Q  E E Q  E E   Q  +E  E Q  Q
|---------------|--------------|---------------|-----------------|
|---------------|--------------|---------------|-----------------|
|---------------|--------------|---------------|-----------------|
|-2--(2)-2-2----|-2--2--(2)----|-1--1-1-1--1-1-|-1--(1)-1-1--1---|
|---------------|--------------|---------------|-----------------|
|---------------|--------------|---------------|-----------------|


  Q  Q  Q  Q    Q  Q  Q  Q    E E E E E E E E   E E E E E E E +E
|-------------|-------------|-----------------|--------------------||
|-------------|-------------|-----------------|--------------------||
|-------------|-------------|-----------------|--------------------||
|-3--3--3--3--|-3--3--3--3--|-3-3-3-3-3-3-3-3-|-3-3-3-3-3-3-3-(3)--||
|-------------|-------------|-----------------|--------------------||
|-------------|-------------|-----------------|--------------------||


  Finale
   W          W          W          H    H
||----------|----------|----------|-----------|
||----------|----------|----------|-----------|
||----------|----------|----------|-----------|
||----------|----------|-4--------|-4----4----|
||-1--------|-1--------|----------|-----------|
||----------|----------|----------|-----------|


  W          W          W          W
|----------|----------|----------|------|
|----------|----------|----------|------|
|----------|----------|----------|------|
|----------|----------|----------|------|
|-1--------|-1--------|-4--------|-4----|
|----------|----------|----------|------|


  W          W          H    +Q.   E   W
|----------|----------|--------------|------|
|----------|----------|--------------|------|
|----------|----------|--------------|------|
|-1--------|-1--------|-1----(1)---1-|-1----|
|----------|----------|--------------|------|
|----------|----------|--------------|------|


  W          W          H    H      W
|----------|----------|-----------|------|
|----------|----------|-----------|------|
|----------|----------|-----------|------|
|-1--------|-1--------|-----------|------|
|----------|----------|-4----4----|-4----|
|----------|----------|-----------|------|


  H    +Q.   E   W          W          W
|--------------|----------|----------|------|
|--------------|----------|----------|------|
|--------------|----------|----------|------|
|--------------|----------|----------|------|
|-3----(3)---3-|-3--------|-4--------|-4----|
|--------------|----------|----------|------|


  W          W          H    +Q   Q    W
|----------|----------|--------------|------|
|----------|----------|--------------|------|
|----------|----------|--------------|------|
|----------|----------|--------------|------|
|-3--------|-3--------|-2----(2)--2--|-2----|
|----------|----------|--------------|------|


  H    +Q   Q    W          W          W
|--------------|----------|----------|------|
|--------------|----------|----------|------|
|--------------|----------|----------|------|
|-2----(2)--2--|-2--------|-7--------|-4----|
|--------------|----------|----------|------|
|--------------|----------|----------|------|


  H    +Q   Q    W          W          H    +Q   Q
|--------------|----------|----------|---------------|
|--------------|----------|----------|---------------|
|--------------|----------|----------|---------------|
|-5----(5)--5--|-5--------|-7--------|-4----(4)--4---|
|--------------|----------|----------|---------------|
|--------------|----------|----------|---------------|


  H    +Q   Q    W          W          W
|--------------|----------|----------|------|
|--------------|----------|----------|------|
|--------------|----------|----------|------|
|-3----(3)--3--|-3--------|----------|------|
|--------------|----------|-0--------|-0----|
|--------------|----------|----------|------|


  H    +Q   Q    W          Q  Q  Q  +Q     +W
|--------------|----------|---------------|--------|
|--------------|----------|---------------|--------|
|--------------|----------|---------------|--------|
|--------------|-5--------|-4--4--4--(4)--|-(4)----|
|-1----(1)--1--|----------|---------------|--------|
|--------------|----------|---------------|--------|


  Q  E E Q  E E   Q  E E Q  Q    Q  E E Q  E E   H    H
|---------------|--------------|---------------|-----------|
|---------------|--------------|---------------|-----------|
|---------------|--------------|---------------|-----------|
|-1--1-1-1--1-1-|-1--1-1-1--1--|-4--4-4-4--4-4-|-4----4----|
|---------------|--------------|---------------|-----------|
|---------------|--------------|---------------|-----------|


  H    H      Q  Q  Q  +Q       H     +Q    Q     W
|-----------|---------------|------------------|-------||
|-----------|---------------|------------------|-------||
|-----------|---------------|------------------|-------||
|-7----7----|-7--7--7--(7)--|-/10----(10)--10--|-10----||
|-----------|---------------|------------------|-------||
|-----------|---------------|------------------|-------||


  Outro
   Slow Q=120
   W          +W           W          +W
||----------|------------|----------|--------|
||----------|------------|----------|--------|
||----------|------------|----------|--------|
||----------|------------|-4--------|-(4)----|
||-1--------|-(1)--------|----------|--------|
||----------|------------|----------|--------|


                                     H.=H
  W          +W           W          +W
|----------|------------|----------|--------|
|----------|------------|----------|--------|
|----------|------------|----------|--------|
|-5--------|-(5)--------|-1--------|-(1)----|
|----------|------------|----------|--------|
|----------|------------|----------|--------|


  W          +W           +W           +W
|----------|------------|------------|--------*|
|----------|------------|------------|--------*|
|----------|------------|------------|--------*|
|----------|------------|------------|--------*|
|-1--------|-(1)--------|-(1)--------|-(1)----*|
|----------|------------|------------|--------*|


Duration Legend
---------------
W - whole; H - half; Q - quarter; E - 8th; S - 16th; T - 32nd; X - 64th; a - acciaccatura
+ - note tied to previous; . - note dotted; .. - note double dotted
Uncapitalized letters represent notes that are staccato (1/2 duration)
Irregular groupings are notated above the duration line
Duration letters will always appear directly above the note/fret number it represents the
duration for.  Duration letters with no fret number below them represent rests.  Multi-
bar rests are notated in the form Wxn, where n is the number of bars to rest for.  Low
melody durations appear below the staff

Tablature Legend
----------------
 h   - hammer-on
 p   - pull-off
 b   - bend
 pb  - pre-bend
 r   - bend release (if no number after the r, then release immediately)
 /\  - slide into or out of (from/to "nowhere")
 s   - legato slide
 S   - shift slide
  - natural harmonic
[n]  - artificial harmonic
n(n) - tapped harmonic
 ~   - vibrato
 tr  - trill
 T   - tap
 TP  - trem. picking
 PM  - palm muting
\n/  - tremolo bar dip; n = amount to dip
 \n  - tremolo bar down
 n/  - tremolo bar up
/n\  - tremolo bar inverted dip
 =   - hold bend; also acts as connecting device for hammers/pulls
 <>  - volume swell (louder/softer)
 x   - on rhythm slash represents muted slash
 o   - on rhythm slash represents single note slash

Misc Legend
-----------
 |  - bar
||  - double bar
||o - repeat start
o|| - repeat end
*|  - double bar (ending)
 :  - bar (freetime)
 $  - Segno
 &  - Coda
Tempo markers -  = BPM(8/16=s8/s16), where s8 = swing 8ths, s16 = swing 16ths
comments
print report bad tab
5 comments total. Showing first comments. show 2 bad comments
+2 reply
goldenarrow25 wrote on January 9 2011, 07:53 pm

Fantastic tab. Keep up the great work.

I want to post or [tab]
guest
You may want to rate the tab now too:
select rating
Please do not post tabs as comments. Select "correction" instead!