Oops, an error
Loading. Please wait.

On The Backs Of Angels Bass Tab

ver1
ver1

Whole song

More versions @911Tabs.com
2,983 views 39 this week
no commentswrite comment
1 2 3 4 5
accurate
x 2
Autoscroll
+/-
esc
set tempo
stop
Contributor
WARNING: You are trying to view
                                    content from Ultimate-Guitar.com
                                    in an unauthorized application,
                                    which is prohibited.

                                    Please use an official Ultimate
                                    Guitar Tabs application for iPhone,
                                    iPad or Android to access legitimate
                                    chords, guitar, bass, and drum tabs
                                    from Ultimate-Guitar.com database.

                                    Type "ultimate guitar tabs" in Apple
                                    App Store's or Android Market's
                                    search to find the application.
  On The Backs of Angels                              


                                                                   Dream Theater




G||-------|-------|-------|-------|-------|-------|-------|-------|-------|
D||-------|-------|-------|-------|-------|-------|-------|-------|-------|
A||-------|-------|-------|-------|-------|-------|-------|-------|-------|
E||-------|-------|-------|-------|-------|-------|-------|-------|-------|
B||-------|-------|-------|-------|-------|-------|-------|-------|-------|


-------|-------|-------|-------|-------|-------|-------|-------|-------|-------|
-------|-------|-------|-------|-------|-------|-------|-------|-------|-------|
-------|-------|-------|-------|-------|-------|-------|-------|-------|-------|
-------|-------|-------|-------|-------|-------|-------|-------|-------|-------|
-------|-------|-------|-------|-------|-------|-------|-------|-------|-------|


                                                  W                 
-------|-------|-------|-------|-------|-------|-------------------|
-------|-------|-------|-------|-------|-------|-------------------|
-------|-------|-------|-------|-------|-------|-------------------|
-------|-------|-------|-------|-------|-------|--0----------------|
-------|-------|-------|-------|-------|-------|-------------------|


  W                   H.              W                 
-------------------|---------------|-------------------|
-------------------|---------------|-------------------|
-------------------|---------------|-------------------|
--L----------------|--L------------|--0----------------|
-------------------|---------------|-------------------|


  Q.     H        E  E  E     Q.     Q    E     H.            
--7------6--------7--5--4--|--3--------------|---------------|
---------------------------|---------4----5--|--3------------|
---------------------------|-----------------|---------------|
---------------------------|-----------------|---------------|
---------------------------|-----------------|---------------|


  W                   W                   H.              W                 
-------------------|-------------------|---------------|-------------------|
-------------------|-------------------|---------------|-------------------|
-------------------|-------------------|---------------|-------------------|
--0----------------|--L----------------|--L------------|--0----------------|
-------------------|-------------------|---------------|-------------------|


  Q.     H        E  E  E     Q.     Q    E     Q.     Q    E   
---------------------------|-----------------|-----------------|
--5------4--------5--3--2--|--1--------------|-----------------|
---------------------------|---------2----3--|--1--------------|
--L------L-----------------|-----------------|---------2----1--|
---------------------------|-----------------|-----------------|


  W                   W                   W                   W                 
-------------------|-------------------|-------------------|-------------------|
-------------------|-------------------|-------------------|-------------------|
-------------------|-------------------|-------------------|-------------------|
--0----------------|--L----------------|--L----------------|--L----------------|
-------------------|-------------------|-------------------|-------------------|


  W                   W                   W                   W                 
-------------------|-------------------|-------------------|-------------------|
-------------------|-------------------|-------------------|-------------------|
-------------------|-------------------|-------------------|-------------------|
--0----------------|--L----------------|--L----------------|--L----------------|
-------------------|-------------------|-------------------|-------------------|


  E  H.           E     E  H.           E     E  H.           E   
-----4------------L--|-----5------------L--|-----4------------L--|
--2------------------|--2------------------|--2------------------|
---------------------|---------------------|---------------------|
---------------------|---------------------|---------------------|
---------------------|---------------------|---------------------|


  Q.     H        E     E  H.           E     E  H.           E   
--7------6--------L--|-----4------------L--|-----5------------L--|
---------------------|--2------------------|--2------------------|
---------------------|---------------------|---------------------|
---------------------|---------------------|---------------------|
---------------------|---------------------|---------------------|


  E  H.           E     Q.     H        E     E  E  E  E  E  E  E  E   
-----2------------L--|------------------L--|--------------------------|
--2------------------|--5------4-----------|--------------------------|
---------------------|---------------------|--------------------------|
---------------------|---------------------|--------------------------|
---------------------|---------------------|--5--5-----5--5-----5--5--|


  E  E  E  E  E  E     E  E  E  E  E  E  E  E     E  E  E  E  E  E  Q     
--------------------|--------------------------|-------------------------|
--------------------|--------------------------|-------------------------|
--------------------|--------------------------|-------------------------|
--------------------|--------------------------|-------------------------|
-----5--5--5--5--3--|--5--5-----5--5-----5--5--|-----5--5--3--5--5--3----|


  E  E  E  E  E  E  E  E     E  E  E  E  E  E  E  E   
--------------------------|--------------------------|
--------------------------|--------------------------|
--------------------------|--------------------------|
--------------------------|--------------------------|
--5--5--5--5--5--5--5--5--|--3--3--3--3--3--3--3--3--|


  E  E  E  E  E  E  E  E     E  E  E  Q    E  Q       E  E  E  E  E  E  E  E   
--------------------------|------------------------|--------------------------|
--------------------------|------------------------|--------------------------|
--------------------------|--3--3--3-------3-------|--------------------------|
--------------------------|-----------2-------1----|--------------------------|
--2--2--2--2--2--2--2--2--|------------------------|--5--5-----5--5-----5--5--|


  E  E  E  E  E  E     E  E  E  E  E  E  E  E     E  E  E  E  E  E  Q     
--------------------|--------------------------|-------------------------|
--------------------|--------------------------|-------------------------|
--------------------|--------------------------|-------------------------|
--------------------|--5--5-----5--5-----5--5--|-----5--5-----5--5--7----|
-----5--5--5--5--3--|--------------------------|-----------5-------------|


  E  E  E  E  E  E  E  E     E  E  E  E  E  E  E  E   
--------------------------|--------------------------|
--------------------------|--------------------------|
--------------------------|--------------------------|
--------------------------|--------------------------|
--5--5--5--5--5--5--5--5--|--3--3--3--3--3--3--3--3--|


  E  E  E  E  E  E  E  E     E  E  E  Q    E  Q       S S E  E  E  E  S S Q     
--------------------------|------------------------|---------------------------|
--------------------------|------------------------|---------------------------|
--------------------------|--3--3--3-------3-------|---------------------------|
--------------------------|-----------2-------1----|--0-0-0-----0-----0-0-3----|
--2--2--2--2--2--2--2--2--|------------------------|---------------------------|


  E  E  S S E  E  E  E  E     S S E  E  E  E  S S Q     
---------------------------|---------------------------|
---------------------------|---------------------------|
-----8------7--------1-----|----------------------4----|
--L-----0-0----7--3-----2--|--0-0-0-----0-----0-0------|
---------------------------|---------------------------|


  E  E  S E  S S S Q.        S S E  E  E  E  S S E  E   
--------------------------|----------------------------|
--------------------------|----------------------------|
--L--3-------------1------|----------------------------|
--------0-0--0-0-0--------|--0-0-0-----0-----0-0-3--5--|
--------------------------|----------------------------|


  E  E  S S E  E  E  E  E     S S E  E  E  E  S S Q     
---------------------------|---------------------------|
---------------------------|---------------------------|
-----8------7--6-----5-----|----------------------3----|
--L-----0-0-------7-----6--|--0-0-0-----0-----0-0------|
---------------------------|---------------------------|


  E  E  S E  S S S E  Q       S S E  E  E  E  S S Q     
---------------------------|---------------------------|
---------------------------|---------------------------|
--L--2-------------4-------|---------------------------|
--------0-0--0-0-0----3----|--0-0-0-----0-----0-0-3----|
---------------------------|---------------------------|


  E  E  S S E  E  E  E  E     S S E  E  E  E  S S Q     
---------------------------|---------------------------|
---------------------------|---------------------------|
-----8------7--------1-----|----------------------4----|
--L-----0-0----7--3-----2--|--0-0-0-----0-----0-0------|
---------------------------|---------------------------|


  E  E  S E  S S S Q.        S S E  E  E  E  S S E  E   
--------------------------|----------------------------|
--------------------------|----------------------------|
--L--4-------------1------|----------------------------|
--------0-0--0-0-0--------|--0-0-0-----0-----0-0-3--5--|
--------------------------|----------------------------|


  E  E  S S E  E  E  E  E     S S E  E  E  E  S S Q     
---------------------------|---------------------------|
---------------------------|---------------------------|
-----8------7--6-----5-----|----------------------4----|
--L-----0-0-------7-----6--|--0-0-0-----0-----0-0------|
---------------------------|---------------------------|


  E  E  S E  S S S E  Q       E  E  E  E  E  E  E  E  E  E   
---------------------------|--------------------------------|
---------------------------|--------------------------------|
--L--4-------------4-------|--------------------------------|
--------0-0--0-0-0----3----|--0-----0-----0-----0-----0-----|
---------------------------|--------------------------------|


  E  E  E  E  E  E  E  E  E  E     E  E  E  E  E  E  E  E  E  E   
--------------------------------|--------------------------------|
--------------------------------|--------------------------------|
--------------------------------|--------------------------------|
--0-----0-----0-----0-----0-----|--0-----0-----0-----0-----0-----|
--------------------------------|--------------------------------|


  E  S E  E  S E  E  E  E     S S E  E  E  E  S S E  E   
---------------------------|----------------------------|
---------------------------|----------------------------|
--3--3-3--3--3-------------|----------------------------|
---------------5--5--3--2--|--0-0-0-----0-----0-0-0-----|
---------------------------|----------------------------|


  E  E  S E  S E  E  Q       S S E  E  E  E  S S E  E   
--------------------------|----------------------------|
--------------------------|----------------------------|
-----5---------------3----|----------------------------|
--------0-0--0-0--0-------|--0-0-0-----0-----0-0-0-----|
--------------------------|----------------------------|


  E  E  S E  S E  E  Q       S S E  E  E  E  S S E  E   
--------------------------|----------------------------|
--------------------------|----------------------------|
-----0---------------9----|----------------------------|
--------0-0--0-0--0-------|--0-0-0-----0-----0-0-0-----|
--------------------------|----------------------------|


  E  E  S E  S E  E  Q       S S E  E  E  E  S S E  E   
--------------------------|----------------------------|
--------------------------|----------------------------|
-----3---------------7----|----------------------------|
--------0-0--0-0--0-------|--0-0-0-----0-----0-0-0-----|
--------------------------|----------------------------|


  E  E  E  Q    E  Q       E  E  E  E   E  E  E  E     E  E  E  E  E  E  E  E   
------------------------|---------------------------|--------------------------|
------------------------|---------------------------|--------------------------|
-----1----------3-------|--7--7--7--7--10--7--7--7--|--4--4--4--4--7--4--4--4--|
--2-----2--1-------1----|---------------------------|--------------------------|
------------------------|---------------------------|--------------------------|


  E  E  E  E  E  E  E  E     E  E  E  E  E  E  E  E   
--------------------------|--------------------------|
--------------5-----------|--------------------------|
--3--3--3--3-----3--3--3--|--------------------------|
--------------------------|--5--5--5--5--3--3--3--3--|
--------------------------|--------------------------|


  E  E  E  E   E  E  E  E     E  E  E  E  E  E  E  E   
---------------------------|--------------------------|
---------------------------|--------------------------|
--7--7--7--7--10--7--7--7--|--4--4--4--4--7--4--4--4--|
---------------------------|--------------------------|
---------------------------|--------------------------|


  E  E  E  E  E  E  E  E     E  E  E  E  E  E  E  E     Q.     H        E   
--------------------------|--------------------------|---------------------|
--------------5-----------|--------------------------|---------------------|
--3--3--3--3-----3--3--3--|--------------------------|---------------------|
--------------------------|--5--5--5--5--3--3--3--3--|--0------2--------L--|
--------------------------|--------------------------|---------------------|


  E.  E.  H        E     E.  E.  E.  E.  S S S S    E.  E  S E.  E.  S S  
----------------------|--------------------------|-----------------------|
----------------------|--------------------------|-----------------------|
--2-------------------|--7-------5---------------|--2------2-0-----------|
------3---5--------L--|------7-------5---7-8-7-5-|------3--------2---3-2-|
----------------------|--------------------------|-----------------------|


  Q.     H        E     E.  E.  H        S S    Q.     Q.     E  E   
---------------------|-----------------------|----------------------|
---------------------|--4---5------------0-2-|----------------------|
---------------------|----------3------------|--0----------------3--|
--0------2--------0--|-----------------------|---------2------3-----|
---------------------|-----------------------|----------------------|


  Q    S S E.  S S S S S S S    S E  E  S S E  E  S Q     
-----------------------------|---------------------------|
-------------------------2-3-|--2---------2---------5----|
--L----2-0---------2-3-5-----|----------------------5----|
-----------1---3-5-----------|----0--0--0---0--0--0------|
-----------------------------|---------------------------|


  S S E  E  E  E  S S E  E     E  E  S E  S E  E  Q     
----------------------------|--------------------------|
----------------------------|--------------------------|
----------------------------|-----5---------------3----|
--0-0-0-----0-----0-0-0-----|--------0-0--0-0--0-------|
----------------------------|--------------------------|


  S S E  E  E  E  S S E  E     E  E  S E  S E  E  Q     
----------------------------|--------------------------|
----------------------------|--------------------------|
----------------------------|-----0---------------9----|
--0-0-0-----0-----0-0-0-----|--------0-0--0-0--0-------|
----------------------------|--------------------------|


  S S E  E  E  E  S S E  E     E  E  S E  S E  E  Q     
----------------------------|--------------------------|
----------------------------|--------------------------|
----------------------------|-----3---------------7----|
--0-0-0-----0-----0-0-0-----|--------0-0--0-0--0-------|
----------------------------|--------------------------|


  S S E  E  E  E  S S E  E     E  E  E  Q    E  Q     
----------------------------|------------------------|
----------------------------|------------------------|
----------------------------|-----1----------3-------|
--0-0-0-----0-----0-0-0-----|--2-----2--1-------1----|
----------------------------|------------------------|


   S  S S S S S S S  S  S S S  S  S S S     S S S S S S S S  S S S S  S S S S  
----------------------------------------|-------------------------------------|
----------------------------------------|-------------------------------------|
------------------------------14--------|----------------------------13-------|
--15-12-0-0-0-0-0-0-15-12-0-0----12-0-0-|--12-9-0-0-0-0-0-0-12-9-0-0----9-0-0-|
----------------------------------------|-------------------------------------|


   S S S S S S S S  S S S S  S S S S    S S S S S S S S S S S S S S S S  
-------------------------------------|----------------------------------|
-------------------------------------|----------------------------------|
----------------------------12-------|----------------------------------|
--12-8-0-0-0-0-0-0-10-8-0-0----8-0-0-|--8-5-0-0-0-0-0-0-7-3-0-0-3-2-0-0-|
-------------------------------------|----------------------------------|


   S  S  S  S  S  S  S  S  S  S  S  S  S  S  S  S  
--------------------------------------------------|
--------------------------------------------------|
--------------------------------------14----------|
--15-12-12-12-12-12-12-12-15-12-12-12----12-12-12-|
--------------------------------------------------|


   S S S S S S S S  S S S S  S S S S     S S S S S S S S  S S S S  S S S S  
-------------------------------------|-------------------------------------|
-------------------------------------|-------------------------------------|
--10------------------------13-------|----------------------------12-------|
-----9-9-9-9-9-9-9-12-9-9-9----9-9-9-|--12-8-8-8-8-8-8-8-10-8-8-8----8-8-8-|
-------------------------------------|-------------------------------------|


  S S S S S S S S S S S S S S S S    Q.     E  E  E  E  E     E  Q    Q.      
----------------------------------|------------------------|-----------------|
----------------------------------|------------2-----------|-----4-----------|
----------------------------------|---------2-----2--------|-----------------|
--8-5-5-5-5-5-5-5-7-3-3-3-5-2-2-2-|--0---------------0--2--|--L-------3------|
----------------------------------|------------------------|-----------------|


  Q    E  E  E  E  E  E     E  E  S S E  E  E  E  E     E  E  Q    E  E  E  E   
----------5--------------|--------5-5-4--------------|-------------------------|
-------5-----------------|---------------7--4--------|-------------------------|
--3----------2--2--2-----|-----7---------------5-----|-------------------------|
----------------------5--|--L---------------------5--|--1--1--1----1--1--1--1--|
-------------------------|---------------------------|-------------------------|


  Q    Q    E  S S E  S S    S S S S S S S S S S S S S S S S    E  E.  E.   
------------4--2-1-2--1---|----------------------------------|-------------|
-------2----------------3-|--2-3---2-------------------------|-------------|
--------------------------|------5---3-5-2-3-5-3-2-------2---|-------------|
--0-----------------------|------------------------5-4-5---4-|--L--1---0---|
--------------------------|----------------------------------|-------------|


  E  E  E  E  E  E  E  E     E  E  E  E  E  E  Q       E  E  E  E  E  E  E  E   
--------------------------|-------------------------|--------------------------|
--------------------------|-------------------------|--------------------------|
--------------------------|-------------------------|--------------------------|
--5--5-----5--5-----5--5--|-----5--5--5--5--5--5----|--5--5-----5--5-----5--5--|
--------------------------|-------------------------|--------------------------|


  E  E  E  E  E  E  Q       E  E  E   E   E  E  E  E   
-------------------------|----------------------------|
-------------------------|----------------------------|
-------------------------|----------------------------|
-----5--5--5--5--5--3----|--5--5--5--(5)--5--5--5--5--|
-------------------------|----------------------------|


  E  E  E  E  E  E  E  E     E  E  E  E  E  E  E  E     E  E  E  Q    E  Q     
--------------------------|--------------------------|------------------------|
--------------------------|--------------------------|--3--3--3-------3-------|
--------------------------|--------------------------|-----------2-------1----|
--3--3--3--3--3--3--3--3--|--2--2--2--2--2--2--2--2--|------------------------|
--------------------------|--------------------------|------------------------|


  E  E  E  E  E  E  E  E     E  E  E  E  E  E  Q       E  E  E  E  E  E  E  E   
--------------------------|-------------------------|--------------------------|
--------------------------|-------------------------|--------------------------|
--------------------------|-------------------------|--5--5-----5--5-----5--5--|
--5--5-----5--5-----5--5--|-----5--5--5--5--5--5----|--------------------------|
--------------------------|-------------------------|--------------------------|


  E  E  E  E  H           E  E  E   E   E  E  E  E     E  E  E  E  E  E  E  E   
-----------------------|----------------------------|--------------------------|
-----------------------|----------------------------|--------------------------|
-----5--5--7--7--------|----------------------------|--------------------------|
-----------------------|--5--5--5--(5)--5--5--5--5--|--3--3--3--3--3--3--3--3--|
-----------------------|----------------------------|--------------------------|


  E  E  E  E  E  E  E  E     E  E  E  Q    E  Q       S S E  E  E  E  S S  
--------------------------|------------------------|----------------------|
--------------------------|--3--3--3-------3-------|----------------------|
--------------------------|-----------2-------1----|----------------------|
--2--2--2--2--2--2--2--2--|------------------------|--0-0-0-----0-----0-0-|
--------------------------|------------------------|----------------------|


  E  E  E  E  S S E  S S E     S S E  E  E  E  S S E  E   
----------------------------|----------------------------|
----------------------------|----------------------------|
---------------------2-2----|----------------------------|
--0-----0-----0-0-0------1--|--0-0-0-----0-----0-0-0-----|
----------------------------|----------------------------|


  E  E  S S E  E  E  Q       S S E  E  E  E  S S  
--------------------------|----------------------|
--------------------------|----------------------|
--------3-3---------------|----------------------|
--0---------2--3--5--1----|--0-0-0-----0-----0-0-|
--------------------------|----------------------|


  E  E  E  E  S S S S E  E  E  S S E  E     E  E  E  E  E  S S E   
-----------------------------------------|------------------------|
-----------------------------------------|-----------------2-2----|
-------------------------------4-4-------|---------------------1--|
--0-----0-----0-0-0-0-0-----0------3--0--|--0-----0-----0---------|
-----------------------------------------|------------------------|


  E  E  Q    E  E  Q       S S E  E  E  E  E  E  E     E  E  E  E  E  Q    E   
------------------------|---------------------------|-------------------------|
------------------------|---------------------------|-------------------------|
------------------------|--7-7-5--7-----------------|--5-----5----------------|
--3--5--2----3--5--1----|------------0--3--5--7--0--|-----0-----8--L--3----0--|
------------------------|---------------------------|-------------------------|


  S S E  E  E  E  E  E  E     E  E  E  Q    E  E  E   
---------------------------|-------------------------|
---------------------------|-------------------------|
--7-7-5--7-----------------|-----------9----------5--|
------------0--3--5--7--0--|--5--0--5-------5--7-----|
---------------------------|-------------------------|


  S S E  E  E  E  E  E  E     E  E  E  Q    Q    E   
---------------------------|------------------------|
---------------------------|------------------------|
--7-7-5--7-----------------|-----------7------------|
------------0--3--5--7--0--|--8--0--8-------3----0--|
---------------------------|------------------------|


  S S E  E  E  S S E  E  E     E  E  E  Q    E  Q     
----------------------------|------------------------|
----------------------------|------------------------|
--7-7----------7-7----------|-----1----------3-------|
------0--5--0------0--3--0--|--2-----2--1-------1----|
----------------------------|------------------------|


  E  E  E  E   E  E  E  E     E  E  E  E  E  E  E  E   
---------------------------|--------------------------|
---------------------------|--------------------------|
--7--7--7--7--10--7--7--7--|--4--4--4--4--7--4--4--4--|
---------------------------|--------------------------|
---------------------------|--------------------------|


  E  E  E  E  E  E  E  E     E  E  E  E  E  E  E  E   
--------------------------|--------------------------|
--------------2-----------|--------------------------|
--3--3--3--3-----3--3--3--|--------------------------|
--------------------------|--5--5--5--5--3--3--3--3--|
--------------------------|--------------------------|


  E  E  E  E   E  E  E  E     E  E  E  E  E  E  E  E   
---------------------------|--------------------------|
---------------------------|--------------------------|
--7--7--7--7--10--7--7--7--|--4--4--4--4--7--4--4--4--|
---------------------------|--------------------------|
---------------------------|--------------------------|


  E  E  E  E  E  E  E  E     E  E  E  E  E  E  E  E     Q.     H        E   
--------------------------|--------------------------|---------------------|
--------------2-----------|--------------------------|---------------------|
--3--3--3--3-----3--3--3--|--------------------------|---------------------|
--------------------------|--5--5--5--5--3--3--3--3--|--0------2--------L--|
--------------------------|--------------------------|---------------------|


  E.  E.  H        S S    Q.     Q.     E  E     Q    S S E.  S S S S S S S  
-----------------------|----------------------|-----------------------------|
--4---5------------0-2-|----------------------|-------------------------2-3-|
----------3------------|--0----------------3--|--L----2-0---------2-3-5-----|
-----------------------|---------2------3-----|-----------1---3-5-----------|
-----------------------|----------------------|-----------------------------|


  Q.     E  E  E  E  E     E  Q    Q.        Q    E  E  E  E  E  E   
------------------------|-----------------|----------5--------------|
------------2-----------|-----4-----------|-------5-----------------|
---------2-----2--------|-----------------|--3----------2--2--2-----|
--0---------------0--2--|--L-------3------|----------------------5--|
------------------------|-----------------|-------------------------|


  E  E  S S E  E  E  E  E     E  E  Q    E  E  E  E   
--------5-5-4--------------|-------------------------|
---------------7--4--------|-------------------------|
-----7---------------5-----|-------------------------|
--L---------------------5--|--1--1--1----1--1--1--1--|
---------------------------|-------------------------|


  Q    Q    E  S S E  S S    S S S S S S S S S S S S S S S S    E  E.  E.   
------------4--2-1-2--1---|----------------------------------|-------------|
-------2----------------3-|--2-3---2-------------------------|-------------|
--------------------------|------5---3-5-2-3-5-3-2-------2---|-------------|
--0-----------------------|------------------------5-4-5---4-|--L--1---0---|
--------------------------|----------------------------------|-------------|


  E  E  E  E  E  E  E  E     E  E  E  E  E  E  Q       E  E  E  E  E  E  E  E   
--------------------------|-------------------------|--------------------------|
--------------------------|-------------------------|--------------------------|
--------------------------|-------------------------|--------------------------|
--5--5-----5--5-----5--5--|-----5--5--5--5--5--5----|--5--5-----5--5-----5--5--|
--------------------------|-------------------------|--------------------------|


  E  E  E  E  E  E  Q       E  E  E   E   E  E  E  E   
-------------------------|----------------------------|
-------------------------|----------------------------|
-------------------------|----------------------------|
-----5--5--5--5--5--3----|--5--5--5--(5)--5--5--5--5--|
-------------------------|----------------------------|


  E  E  E  E  E  E  E  E     E  E  E  E  E  E  E  E     E  E  E  Q    E  Q     
--------------------------|--------------------------|------------------------|
--------------------------|--------------------------|--3--3--3-------3-------|
--------------------------|--------------------------|-----------2-------1----|
--3--3--3--3--3--3--3--3--|--2--2--2--2--2--2--2--2--|------------------------|
--------------------------|--------------------------|------------------------|


  E  E  E  E  E  E  E  E     E  E  E  E  E  E  Q       E  E  E  E  E  E  E  E   
--------------------------|-------------------------|--------------------------|
--------------------------|-------------------------|--------------------------|
--------------------------|-------------------------|--5--5-----5--5-----5--5--|
--5--5-----5--5-----5--5--|-----5--5--5--5--5--5----|--------------------------|
--------------------------|-------------------------|--------------------------|


  E  E  E  E  E  S S S S S S    E  E  E   E   E  E  E  E   
-----------------------------|----------------------------|
-----------------------------|----------------------------|
-----5--5--7--7--------------|----------------------------|
-----------------0-0-0-0-0-0-|--5--5--5--(5)--5--5--5--5--|
-----------------------------|----------------------------|


  E  E  E  E  E  E  E  E     E  E  E  E  E  E  E  E     E  E  E  Q    E  Q     
--------------------------|--------------------------|------------------------|
--------------------------|--------------------------|--3--3--3-------3-------|
--------------------------|--------------------------|-----------2-------1----|
--3--3--3--3--3--3--3--3--|--2--2--2--2--2--2--2--2--|------------------------|
--------------------------|--------------------------|------------------------|


  W                   W                   W                   W                 
-------------------|-------------------|-------------------|-------------------|
-------------------|-------------------|-------------------|-------------------|
-------------------|-------------------|-------------------|-------------------|
--0----------------|--L----------------|--L----------------|--L----------------|
-------------------|-------------------|-------------------|-------------------|


  W                   W                   W                   W                 
-------------------|-------------------|-------------------|-------------------|
-------------------|-------------------|-------------------|-------------------|
-------------------|-------------------|-------------------|-------------------|
--L----------------|--L----------------|--L----------------|--L----------------|
-------------------|-------------------|-------------------|-------------------|


  E  E  H.              W                   E  E  H.            
---------------------|-------------------|---------------------|
---------------------|-------------------|---------------------|
---------------------|-------------------|---------------------|
---------------------|-------------------|---------------------|
--5--5--L------------|--L----------------|--5--5--L------------|


  Q.     Q.     Q       E  E  H.              W                 
---------------------|---------------------|-------------------|
---------------------|---------------------|-------------------|
--5------4-----------|---------------------|-------------------|
----------------3----|---------------------|-------------------|
---------------------|--5--5--L------------|--L----------------|


  W                   H        H           Q    Q    E  E  E  E   
-------------------|--------------------|------------------------|
-------------------|--------------------|------------5-----------|
-------------------|--------------------|-------7-------7--------|
--5----------------|--3--------2--------|--0---------------0--0--|
-------------------|--------------------|------------------------|


  E  E  E  E  E  E  E  E     Q    Q    E  E  E  E     E  E  E  E  E  E  E  E   
--------------------------|------------------------|--------------------------|
--------------------------|------------8-----------|--------------------------|
--------------------------|-------7-------7--------|--------------------------|
--0--0--0--0--3--0--3--5--|--0---------------0--0--|--0--0--3--0--0--0--3--5--|
--------------------------|------------------------|--------------------------|


  E  E  E  E  E  E  E  E     E  E  E  E  E  E  E  E   
--------------------------|--------------------------|
--------------7-----------|--------------------------|
--------7--7-----7--------|--------------------------|
--0--0--------------0--0--|--0--0--0--0--3--0--3--5--|
--------------------------|--------------------------|


  E  E  E  E  E  E  E  E     E  E  E  E  E  E  E  E   
--------------------------|--------------------------|
--------------------------|--------------------------|
--------------------------|--------------------------|
--3--5--5--5--5--5--5--5--|--3--3--3--3--2--2--2--2--|
--------------------------|--------------------------|


  E  E  E  E  E  E  E  E     E  E  E  E  E  E  E  E   
--------------------------|--------------------------|
--------------5-----------|--------5-----------5-----|
--7--7--7--7-----7--7--7--|--7--7-----7--7--7-----7--|
--------------------------|--------------------------|
--------------------------|--------------------------|


  E  E  E  E  E  E  E  E     E  E  E  E  E  E  E  E   
--------------------------|--------------------------|
--------------2-----------|--------2-----------2--5--|
--4--4--4--4-----4--4--4--|--4--4-----4--4--4--------|
--------------------------|--------------------------|
--------------------------|--------------------------|


  E  E  E  E  E  E  E  E     E  E  E  E  E  E  E  E   
--------------------------|--------------------------|
--------------5-----------|--5-----------5-----------|
--3--3--3--3-----3--3--3--|-----3--3--3-----3--3--3--|
--------------------------|--------------------------|
--------------------------|--------------------------|


  E  E  E  E  E  E  E  E     E  E  E  E  E  E  E  E     E  E  E  E  E  E  E   
--------------------------|--------------------------|-----------------------|
--------------------------|--------------------------|--------5--------------|
--0--0--0--0--0--0--0--0--|--------------------------|-----3-----3--7--------|
--------------------------|--3--3--3--3--2--2--2--2--|--1--------------7--0--|
--------------------------|--------------------------|-----------------------|


  E  E  E  E  E   E  E      E   E  E   E  E   Q       E  Q    S S Q     
-----------7------------|--10------9---------------|-------------------|
--------7-----9---------|------10-----10-----------|-----7-------------|
--0--8-----------10-----|-----------------0--10----|--L-------8-7-8----|
---------------------7--|--------------------------|-------------------|
------------------------|--------------------------|-------------------|


                                |----3----|    |----3----|     
   E  E  E   E  E  E   E  E     Q    Q    Q    Q    Q    Q     
-----------------------------|--------------------------------|
--10--9--7-------------------|--------------------------------|
------------10--8--7---------|--2------------------------2----|
----------------------10--8--|-------4----1----0----4---------|
-----------------------------|--------------------------------|


  S S S S S S S S    E  E  E  E  E  E  E  E     E  E  E  E  E  E  Q     
------------------|--------------------------|-------------------------|
------------------|--------------------------|-------------------------|
--3-2-0---2-----2-|--------------------------|-------------------------|
--------4---4-5---|--5--5-----5--5-----5--5--|-----5--5--5--5--5--5----|
------------------|--------------------------|-------------------------|


  E  E  E  E  E  E  E  E     E  E  E  E  E  E  Q     
--------------------------|-------------------------|
--------------------------|-------------------------|
--------------------------|-------------------------|
--5--5-----5--5-----5--5--|-----5--5--5--5--5--3----|
--------------------------|-------------------------|


  E  E  E   E   E  E  E  E     E  E  E  E  E  E  E  E   
----------------------------|--------------------------|
----------------------------|--------------------------|
----------------------------|--------------------------|
--5--5--5--(5)--5--5--5--5--|--3--3--3--3--3--3--3--3--|
----------------------------|--------------------------|


  E  E  E  E  E  E  E  E     E  E  E  Q    E  Q       E  E  E  E  E  E  E  E   
--------------------------|------------------------|--------------------------|
--------------------------|--3--3--3-------3-------|--------------------------|
--------------------------|-----------2-------1----|--------------------------|
--2--2--2--2--2--2--2--2--|------------------------|--5--5-----5--5-----5--5--|
--------------------------|------------------------|--------------------------|


  E  E  E  E  E  E  Q       E  E  E  E  E  E  E  E     E  E  E  E  H         
-------------------------|--------------------------|-----------------------|
-------------------------|--------------------------|-----------------------|
-------------------------|--5--5-----5--5-----5--5--|-----5--5--7--7--------|
-----5--5--5--5--5--5----|--------------------------|-----------------------|
-------------------------|--------------------------|-----------------------|


  E  E  E   E   E  E  E  E     E  E  E  E  E  E  E  E   
----------------------------|--------------------------|
----------------------------|--------------------------|
----------------------------|--------------------------|
--5--5--5--(5)--5--5--5--5--|--3--3--3--3--3--3--3--3--|
----------------------------|--------------------------|


  E  E  E  E  E  E  E  E     E  E  E  Q    E  Q       E  E  E  E  E  E  E  E   
--------------------------|------------------------|--------------------------|
--------------------------|--3--3--3-------3-------|--------------------------|
--------------------------|-----------2-------1----|--------------------------|
--2--2--2--2--2--2--2--2--|------------------------|--5--5-----5--5-----5--5--|
--------------------------|------------------------|--------------------------|


  E  E  E  E  E  E  Q       E  E  E  E  E  E  E  E     E  E  E  E  E  E  E  E   
-------------------------|--------------------------|--------------------------|
-------------------------|--------------------------|--------------------------|
-------------------------|--5--5-----5--5-----5--5--|-----5--5--7--7-----------|
-----5--5--5--5--5--5----|--------------------------|-----------------0--0--0--|
-------------------------|--------------------------|--------------------------|


  E  E  E   E   E  E  E  E     E  E  E  E  E  E  E  E   
----------------------------|--------------------------|
----------------------------|--------------------------|
----------------------------|--------------------------|
--5--5--5--(5)--5--5--5--5--|--3--3--3--3--3--3--3--3--|
----------------------------|--------------------------|


  E  E  E  E  E  E  E  E     E  E  E  Q    E  Q       S S E  E  E  E  S S  
--------------------------|------------------------|----------------------|
--------------------------|--3--3--3-------3-------|----------------------|
--------------------------|-----------2-------1----|----------------------|
--2--2--2--2--2--2--2--2--|------------------------|--0-0-0-----0-----0-0-|
--------------------------|------------------------|----------------------|


  E  E  E  E  S S E  S S E     S S E  E  E  E  S S E  E   
----------------------------|----------------------------|
----------------------------|----------------------------|
---------------------2-2----|----------------------------|
--0-----0-----0-0-0------1--|--0-0-0-----0-----0-0-0-----|
----------------------------|----------------------------|


  E  E  S S E  E  E  Q       S S E  E  E  E  S S  
--------------------------|----------------------|
--------------------------|----------------------|
--------3-3---------------|----------------------|
--0---------2--3--5--1----|--0-0-0-----0-----0-0-|
--------------------------|----------------------|


  E  E  E  E  S S S S E  E  E  S S E  E     E  E  E  E  E  S S E   
-----------------------------------------|------------------------|
-----------------------------------------|-----------------2-2----|
-------------------------------4-4-------|---------------------1--|
--0-----0-----0-0-0-0-0-----0------3--0--|--0-----0-----0---------|
-----------------------------------------|------------------------|


  E  E  Q    E  E  Q       S S E  E  E  E  S S    E  E  E  E  S S E  S S E   
------------------------|----------------------|----------------------------|
------------------------|----------------------|----------------------------|
------------------------|----------------------|---------------------2-2----|
--3--5--2----3--5--1----|--0-0-0-----0-----0-0-|--0-----0-----0-0-0------1--|
------------------------|----------------------|----------------------------|


  S S E  E  E  E  S S E  E     E  E  S S E  E  E  Q       S S E  E  E  E  S S  
----------------------------|--------------------------|----------------------|
----------------------------|--------------------------|----------------------|
----------------------------|--------3-3---------------|----------------------|
--0-0-0-----0-----0-0-0-----|--0---------2--3--5--1----|--0-0-0-----0-----0-0-|
----------------------------|--------------------------|----------------------|


  E  E  E  E  S S S S E  E  E  S S E  E     E  E  E  E  E  S S E   
-----------------------------------------|------------------------|
-----------------------------------------|-----------------2-2----|
-------------------------------4-4-------|---------------------1--|
--0-----0-----0-0-0-0-0-----0------3--0--|--0-----0-----0---------|
-----------------------------------------|------------------------|


  E  E  Q    E  E  Q       S S E  E  E  E  S S    E  E  Q    S S E  S S E   
------------------------|----------------------|---------------------------|
------------------------|----------------------|---------------------------|
------------------------|----------------------|--------7-----------2-2----|
--3--5--2----3--5--1----|--0-0-0-----0-----0-0-|--0----------0-0-0------1--|
------------------------|----------------------|---------------------------|


  S S E  E  E  E  S S E  E     Q    S S E  E  E  Q       S S E  E  E  E  S S  
----------------------------|-------------------------|----------------------|
----------------------------|--4----------------------|----------------------|
----------------------------|--3----3-3---------------|----------------------|
--0-0-0-----0-----0-0-0-----|-----------2--3--5--1----|--0-0-0-----0-----0-0-|
----------------------------|-------------------------|----------------------|


  E  E  Q    S S S S E  E  E  S S E  E     E  E  Q    E  S S E   
----------------------------------------|-----------------------|
--------5-------------------------------|--------8-------2-2----|
--------4---------------------4-4-------|--------7-----------1--|
--0----------0-0-0-0-0-----0------3--0--|--0----------0---------|
----------------------------------------|-----------------------|


  E  E  Q    E  E  Q       S S E  E  E  E  S S    E  E  S S E  S S E  S S E   
------------------------|----------------------|------------4----------------|
------------------------|----------------------|--------2--------------------|
------------------------|----------------------|----------2-----------2-2----|
--3--5--2----3--5--1----|--0-0-0-----0-----0-0-|--0------------0-0-0------1--|
------------------------|----------------------|-----------------------------|


  S S E  E  E  E  S S E  E     S S E  S S E  E  E  Q       S S E  E  E  E  S S  
----------------------------|--5------------------------|----------------------|
----------------------------|----4--------4-------------|----------------------|
----------------------------|------3----3---------------|----------------------|
--0-0-0-----0-----0-0-0-----|---------5------3--5--1----|--0-0-0-----0-----0-0-|
----------------------------|---------------------------|----------------------|


  E  E  E  E  S S S S E  E  E  S S E  S S    E  E  S S S  S S  S E  E   
----------------------6-------------------|----------------------9-----|
--------------------5--------------5------|-----------------8-11-------|
------------------4--------------4--------|------------7-10------------|
--0-----0-----0-3-----------0--6------0-0-|--0-----6-9-----------------|
------------------------------------------|----------------------------|


  E  E  Q    E  E  Q       S S S S E  E  H          
------------------------|-------------------------||
------------------------|-------------------------||
------------------------|-------------------------||
--3--5--2----3--5--1----|--0-0-0-0-0--------------||
------------------------|-------------------------||




Duration Legend
---------------
W - whole
H - half
Q - quarter
E - 8th
S - 16th
T - 32nd
X - 64th
. - note dotted
|-n-|  - n-tuplets


Tablature Legend
----------------
L - tied note
x - dead note
g - grace note
(n) - ghost note
> - accentuded note
NH - natural harmonic
AH - artificial harmonic
TH - tapped harmonic
SH - semi harmonic
PH - pitch harmonic
h - hammer on
p - pull off
b - bend
br - bendRelease
pb - preBend
pbr - preBendRelease
brb - bendReleaseBend
\n/ - tremolo bar dip
\n - tremolo bar dive
-/n - tremolo bar Release up
/n\ - tremolo bar inverted dip
/n - tremolo bar return
-\n - tremolo bar Release down
S - shift slide
s - legato slide
/ -  slide into from below or out of upwards
\ -  slide into from above or out of downwards
~ - vibrato
W - wide vibrato
tr - trill
TP - tremolo picking
T - tapping
S - slap
P - pop
< - fade in
^ - brush up
v - brush down
comments
We did not receive enough feedback on this tab! Please rate:
1 2 3 4 5
I want to post or [tab]
guest
You may want to rate the tab now too:
select rating
Please do not post tabs as comments. Select "correction" instead!