Oops, an error
Loading. Please wait.

Panic Attack Bass Tab

ver1
ver1

Whole song

More versions @911Tabs.com
71,207 views 189 this week
7 commentsread comments
1 2 3 4 5
accurate
x 14
Autoscroll
+/-
esc
set tempo
stop
Contributor
Difficulty
intermediate
WARNING: You are trying to view
                                    content from Ultimate-Guitar.com
                                    in an unauthorized application,
                                    which is prohibited.

                                    Please use an official Ultimate
                                    Guitar Tabs application for iPhone,
                                    iPad or Android to access legitimate
                                    chords, guitar, bass, and drum tabs
                                    from Ultimate-Guitar.com database.

                                    Type "ultimate guitar tabs" in Apple
                                    App Store's or Android Market's
                                    search to find the application.
Real Opening (6 string bass, opening 4 bars)

c|-3-0-0-2-0-0-3-0-0-5-0-0-3-0-2-0-|3-0-0-2-0-0-3-0-0-/8-0-0-7-0-5-0--|x2
G|---------------------------------|----------------------------------|
D|o--------------------------------|---------------------------------o|
A|o--------------------------------|---------------------------------o|
E|---------------------------------|----------------------------------|
B|---------------------------------|----------------------------------|

Alternative Intro (5 string bass, opening 4 bars)

G|-----------------------------10-------------------|
D|o-13-10-10-12-10-10-13-10-10----10-10-13-10-12-10-|
A|--------------------------------------------------|
E|o-------------------------------------------------|
B|--------------------------------------------------|

G|----------------------------13-------12----10-----| x2
D|-13-10-10-12-10-10-13-10-10----10-10----10----10-o|
A|--------------------------------------------------|
E|-------------------------------------------------o|
B|--------------------------------------------------|

Rest of Intro

 4/4
G|----------------------------------|----------------------------------| x2
D|o-------------------3-------------|-------------------6-----5---3---o|
A|--6-3-3-5-3-3-6-3-3---3-3-6-3-5-3-|-6-3-3-5-3-3-6-3-3---3-3---3---3--|
E|o---------------------------------|---------------------------------o|
B|----------------------------------|----------------------------------|

G|---------------------------------|---------------------------------|
D|-4-4-4-4-4-4-4-4-4-4-4-4---------|-3-3-3-3-3-3-3-3-3-3-3-3---------|
A|-------------------------5-5-5-5-|-------------------------4-4-4-4-|
E|---------------------------------|---------------------------------|
B|---------------------------------|---------------------------------|

G|----------------------------------|----------------------------------| x2
D|o-------------------3-------------|-------------------6-----5---3---o|
A|--6-3-3-5-3-3-6-3-3---3-3-6-3-5-3-|-6-3-3-5-3-3-6-3-3---3-3---3---3--|
E|o---------------------------------|---------------------------------o|
B|----------------------------------|----------------------------------|

G|---------------------------------|---------------------------------|
D|-4-4-4-4-4-4-4-4-4-4-4-4---------|-3-3-3-3-3-3-3-3-3-3-3-3---------|
A|-------------------------5-5-5-5-|-------------------------4-4-4-4-|
E|---------------------------------|---------------------------------|
B|---------------------------------|---------------------------------|

(guitar only section)
 5/8
G|-(5)------|---------|---------|---------|
D|-(5)------|---------|---------|---------|
A|--3-------|---------|---------|---------|
E|----------|---------|---------|---------|
B|----------|---------|---------|---------|

                                     6/8
G|-----------|-----------|-----------|-----------------|
D|-----------|-----------|-----------|-----------------|
A|-3-3-3-4-1-|-3-3-3-4-1-|-3-3-3-4-1-|---------1-1-1-1-|
E|-----------|-----------|-----------|-4-4-4-4---------|
B|-----------|-----------|-----------|-----------------|

 5/8 
G|-----------|-----------|-----------|-----------|
D|-----------|-----------|-----------|-----------|
A|-3-3-3-4-1-|-3-3-3-4-1-|-3-3-3-4-1-|-3-3-3-4-1-|
E|-----------|-----------|-----------|-----------|
B|-----------|-----------|-----------|-----------|

                                           6/8
G|-------------|-------------|-------------|-----------------|
D|-------------|-------------|-------------|-----------------|
A|-3-3-3-3-4-1-|-3-3-3-3-4-1-|-3-3-3-3-4-1-|---------1-1-1-1-|
E|-------------|-------------|-------------|-4-4-4-4---------|
B|-------------|-------------|-------------|-----------------|

Verse

 5/8                           2/4
G|---------|---------|---------|-----------------|
D|---------|---------|---------|-----------------|
A|---------|---------|---------|-----------------|
E|---------|---------|---------|-4-4-4-3-3-3-----|
B|-1-1-1-1-|-1-1-1-1-|-1-1-1-1-|-------------4---|
                                
 5/8                           2/4
G|---------|---------|---------|-----------------|
G|---------|---------|---------|-----------------|
A|---------|---------|---------|-------------1---|
E|---------|---------|---------|-4-4-4-3-3-3-----|
B|-1-1-1-1-|-1-1-1-1-|-1-1-1-1-|-----------------|

 5/8                           2/4
G|---------|---------|---------|-----------------|
D|---------|---------|---------|-----------------|
A|---------|---------|---------|-----------------|
E|---------|---------|---------|-4-4-4-3-3-3-----|
B|-1-1-1-1-|-1-1-1-1-|-1-1-1-1-|-------------4---|

 5/8                           2/4
G|---------|---------|---------|-----------------|
D|---------|---------|---------|-----------------|
A|---------|---------|---------|-----------------|
E|---------|---------|---------|-4-4-4-3-3-3-----|
B|-1-1-1-1-|-1-1-1-1-|-1-1-1-1-|-------------3-3-|

 5/8                           2/4
G|---------|---------|---------|-----------------|
D|---------|---------|---------|-----------------|
A|---------|---------|---------|-----------------|
E|---------|---------|---------|-----------------|
B|-4-4-4-4-|-4-4-4-4-|-4-4-4-4-|-7-6-4-6-4-4-9\--|
                                
 5/8                           2/4
G|---------|---------|---------|-----------------|
D|---------|---------|---------|-----------------|
A|---------|---------|---------|-----------------|
B|---------|---------|---------|-7-6-4-----------|
A|-4-4-4-4-|-4-4-4-4-|-4-4-4-4-|-------7-6-4-3-2-|

 5/8                           2/4
G|---------|---------|---------|-----------------|
D|---------|---------|---------|-----------------|
A|---------|---------|---------|-------------1---|
E|---------|---------|---------|-4-4-4-3-3-3-----|
B|-1-1-1-1-|-1-1-1-1-|-1-1-1-1-|-----------------|
                                
 5/8                           4/4 (OCTAVE)
G|---------|---------|---------|---------------------------------|
D|---------|---------|---------|---------------------------------|
A|---------|---------|---------|---------------------------------|
E|---------|---------|---------|-3-3-3---------------------------|
B|-1-1-1-1-|-1-1-1-1-|-1-1-1-1-|-------4-4-4-3-3-3-1-1-1-3-3-4-4-|

Pre Chorus

G|---------|---------|---------|----------|
D|---------|---------|---------|/8--------|
A|---------|---------|---------|----------|
E|6--------|---------|6--------|----------|
B|---------|---------|---------|------5-6-|

G|---------|---------|---------|------------|
D|---------|---------|---------|-/6-4-------|
A|---------|---------|---------|--------4-3-|
E|6--------|-2-------|-3-------|------6-----|
B|---------|---------|---------|------------|

Chorus

G|---------|----------|
D|---------|----------|
A|---------|---------2|
E|1-----1-3|-4-3-1----|
B|---------|-------4--|

G|---------------------------------|---------------------------------|
D|-------------------3-------------|-------------------6-----5---3---|
A|-6-3-3-5-3-3-6-3-3---3-3-6-3-5-3-|-6-3-3-5-3-3-6-3-3---3-3---3---3-|
E|---------------------------------|---------------------------------|
B|---------------------------------|---------------------------------|

G|---------|----------|
D|---------|----------|
A|---------|---1-2----|
E|1-----1-3|-4-----4-3|
B|---------|----------|

G|---------------------------------|---------------------------------|
D|-------------------3-------------|-------------------6-----5---3---|
A|-6-3-3-5-3-3-6-3-3---3-3-6-3-5-3-|-6-3-3-5-3-3-6-3-3---3-3---3---3-|
E|---------------------------------|---------------------------------|
B|---------------------------------|---------------------------------|

G|---------|----------|
D|---------|----------|
A|---------|---------2|
E|1-----1-3|-4-3-1----|
B|---------|-------4--|

G|---------------------------------|---------------------------------|
D|-------------------3-------------|-------------------6-----5---3---|
A|-6-3-3-5-3-3-6-3-3---3-3-6-3-5-3-|-6-3-3-5-3-3-6-3-3---3-3---3---3-|
E|---------------------------------|---------------------------------|
B|---------------------------------|---------------------------------|

G|---------|----------|
D|---------|----------|
A|---------|---1-2----|
E|1-----1-3|-4-----4-3|
B|---------|----------|

G|---------------------------------|---------------------------------|
D|-------------------3-------------|-------------------6-----5---3---|
A|-6-3-3-5-3-3-6-3-3---3-3-6-3-5-3-|-6-3-3-5-3-3-6-3-3---3-3---3---3-|
E|---------------------------------|---------------------------------|
B|---------------------------------|---------------------------------|

Bridge

G|---------------------------------|---------------------------------|
D|-------------------3-------------|-------------------6-----5---3---|
A|-6-3-3-5-3-3-6-3-3---3-3-6-3-5-3-|-6-3-3-5-3-3-6-3-3---3-3---3---3-|
E|---------------------------------|---------------------------------|
B|---------------------------------|---------------------------------|

G|---------------------------------|---------------------------------|
D|-4-4-4-4-4-4-4-4-4-4-4-4---------|-3-3-3-3-3-3-3-3-3-3-3-3---------|
A|-------------------------5-5-5-5-|-------------------------4-4-4-4-|
E|---------------------------------|---------------------------------|
B|---------------------------------|---------------------------------|

 6/8
G|--------------|-------------|-------------|------------------| x2
D|o-------4-----|-------4-----|-------4-----|-1-1-1-1---------o|
A|--3-3-3---4-1-|-3-3-3---4-1-|-3-3-3---4-1-|---------1-1-1-1--|
E|o-------------|-------------|-------------|-----------------o|
B|--------------|-------------|-------------|------------------|

Verse two

 [Cm]
G|--------------------------|-------------------------|
D|o-------------4-4---------|-------------4-4---------|
A|--3-3-3-3-3-3-----4-4-1-1-|-3-3-3-3-3-3-----4-4-1-1-|
E|o-------------------------|-------------------------|
B|--------------------------|-------------------------|

G|-------------------------|--------------------------| x4
D|-------------4-4---------|-1-1-1-1-1-1-------------o|
A|-3-3-3-3-3-3-----4-4-1-1-|-------------1-1-1-1-1-1--|
E|-------------------------|-------------------------o|
B|-------------------------|--------------------------|

 [Ebm]
G|--------------|-------------|-------------|------------------| x2
D|o-------7-----|-------7-----|-------7-----|-4-4-4-4---------o|
A|--6-6-6---7-4-|-6-6-6---7-4-|-6-6-6---7-4-|---------4-4-4-4--|
E|o-------------|-------------|-------------|-----------------o|
B|--------------|-------------|-------------|------------------|

G|-------------|-------------|-------------|-----------------|
D|-------4-----|-------4-----|-------4-----|-1-1-1-1---------|
A|-3-3-3---4-1-|-3-3-3---4-1-|-3-3-3---4-1-|---------1-1-1-1-|
E|-------------|-------------|-------------|-----------------|
B|-------------|-------------|-------------|-----------------|

                                           4/4
G|-------------|-------------|-------------|---------------------------------|
D|-------4-----|-------4-----|-------4-----|-5-5-5---------------------------|
A|-3-3-3---4-1-|-3-3-3---4-1-|-3-3-3---4-1-|-------6-6-6-5-5-5-3-3-3-5-5-6-6-|
E|-------------|-------------|-------------|---------------------------------|
B|-------------|-------------|-------------|---------------------------------|

Pre Chorus

G|---------|---------|---------|------------|
D|---------|---------|---------|-/6-4-------|
A|---------|---------|---------|--------4-3-|
E|6--------|-2-------|-3-------|------6-----|
B|---------|---------|---------|------------|

Chorus

G|---------|----------|
D|---------|----------|
A|---------|---------2|
E|1-----1-3|-4-3-1----|
B|---------|-------4--|

G|---------------------------------|---------------------------------|
D|-------------------3-------------|-------------------6-----5---3---|
A|-6-3-3-5-3-3-6-3-3---3-3-6-3-5-3-|-6-3-3-5-3-3-6-3-3---3-3---3---3-|
E|---------------------------------|---------------------------------|
B|---------------------------------|---------------------------------|

G|---------|----------|
D|---------|----------|
A|---------|---1-2----|
E|1-----1-3|-4-----4-3|
B|---------|----------|

G|---------------------------------|---------------------------------|
D|-------------------3-------------|-------------------6-----5---3---|
A|-6-3-3-5-3-3-6-3-3---3-3-6-3-5-3-|-6-3-3-5-3-3-6-3-3---3-3---3---3-|
E|---------------------------------|---------------------------------|
B|---------------------------------|---------------------------------|

G|---------|----------|
D|---------|----------|
A|---------|---------2|
E|1-----1-3|-4-3-1----|
B|---------|-------4--|

G|---------------------------------|---------------------------------|
D|-------------------3-------------|-------------------6-----5---3---|
A|-6-3-3-5-3-3-6-3-3---3-3-6-3-5-3-|-6-3-3-5-3-3-6-3-3---3-3---3---3-|
E|---------------------------------|---------------------------------|
B|---------------------------------|---------------------------------|

G|---------|----------|
D|---------|----------|
A|---------|---1-2----|
E|1-----1-3|-4-----4-3|
B|---------|----------|

Middle Section

G|----------------------------------|----------------------------------| x2
D|o---------------------------------|---------------------------------o|
A|----------------------------------|----------------------------------|
E|o---------------------------------|---------------------------------o|
B|--1-1-1-1-1-1-1-1-1-1-1-1-1-1-1-1-|-1-1-1-1-1-1-1-1-1-1-1-1-1-1-1-1--|

G|----------------------------------|----------------------------------| 
D|----------------------------------|----------------------------------|
A|--3-3-3-3-3-3-3-3-3-3-3-3-3-3-3-3-|-2-2-2-2-2-2-2-2-2-2--------------|
E|----------------------------------|---------------------4-4-4-3-3-3--|
B|----------------------------------|----------------------------------|

G|----------------------------------|----------------------------------| 
D|----------------------------------|----------------------------------|
A|----------------------------------|----------------------------------|
E|----------------------------------|---------------------2-2-2-3-3-3--|
B|--4-4-4-4-4-4-4-4-4-4-4-4-4-4-4-4-|-3-3-3-3-3-3-3-3-3-3--------------|
 
G|----------------------------------|----------------------------------| x2
D|o---------------------------------|---------------------------------o|
A|----------------------------------|----------------------------------|
E|o---------------------------------|---------------------------------o|
B|--1-1-1-1-1-1-1-1-1-1-1-1-1-1-1-1-|-1-1-1-1-1-1-1-1-1-1-1-1-1-1-1-1--|

G|----------------------------------|----------------------------------| 
D|----------------------------------|----------------------------------|
A|--3-3-3-3-3-3-3-3-3-3-3-3-3-3-3-3-|-2-2-2-2-2-2-2-2-2-2--------------|
E|----------------------------------|---------------------4-4-4-3-3-3--|
B|----------------------------------|----------------------------------|

G|----------------------------------|----------------------------------| 
D|----------------------------------|----------------------------------|
A|----------------------------------|----------------------------------|
E|----------------------------------|---------------------2-2-2-3-3-3--|
B|--4-4-4-4-4-4-4-4-4-4-4-4-4-4-4-4-|-3-3-3-3-3-3-3-3-3-3--------------|
 
G|----------------------------------|----------------------------------| 
D|----------------------------------|----------------------------------|
A|----------------------------------|----------------------------------|
E|--4-4-4-4-4-4-4-4-4-4-4-4-4-4-4-4-|-3-3-3-3-3-3-3-3-3-3-3-3-3-3-3-3--|
B|----------------------------------|----------------------------------|

G|----------------------------------|----------------------------------| 
D|----------------------------------|----------------------------------|
A|----------------------------------|----------------------------------|
E|--1-1-1-1-1-1-1-1-1-1-1-1-1-1-1-1-|-2-2-2-2-2-2-2-2-3-3-3-3-3-3-3-3--|
B|----------------------------------|----------------------------------|

G|----------------------------------|----------------------------------| x2
D|o-------------------3-------------|-------------------6-----5---3---o|
A|--6-3-3-5-3-3-6-3-3---3-3-6-3-5-3-|-6-3-3-5-3-3-6-3-3---3-3---3---3--|
E|o---------------------------------|---------------------------------o|
B|----------------------------------|----------------------------------|

G|-----------------------------10-------------------|
D|o-13-10-10-12-10-10-13-10-10----10-10-13-10-12-10-|
A|--------------------------------------------------|
E|o-------------------------------------------------|
B|--------------------------------------------------|

G|----------------------------13-------12----10-----| x2
D|-13-10-10-12-10-10-13-10-10----10-10----10----10-o|
A|--------------------------------------------------|
E|-------------------------------------------------o|
B|--------------------------------------------------|

 [Fm] 6/8
G|----------------------------------|---------------------------|
D|o--------------10------10-11-10---|--------------9---7--------| 
A|--8-8-8-11-8-8----8-8-----------8-|-8-8-8-11-8-8---8---8-7-6--|
E|o---------------------------------|---------------------------|
B|----------------------------------|---------------------------|

G|----------------------------------|-------------------------------| x2
D|---------------10------10-11-10---|-------8----------------------o| 
A|--8-8-8-11-8-8----8-8-----------8-|-------------10-11-10---11-10--|
E|----------------------------------|-9-9-9---9-9----------9-------o|
B|----------------------------------|-------------------------------| 


Keyboard Solo

[Bbm] 6/8
G|----------------------------|--------------------------| 
D|o---------------------------|--------------------------|
A|--------------8-----8-9-8---|-------------7---5--------| 
E|o-6-6-6-9-6-6---6-6-------6-|-6-6-6-9-6-6---6---6-5-4--|
B|----------------------------|--------------------------|

G|----------------------------|--------------------------| x2
D|----------------------------|-------------------------o|
A|--------------8-----8-9-8---|-------6------------------| 
E|--6-6-6-9-6-6---6-6-------6-|-------------8-9-8---9-8-o|
B|----------------------------|-7-7-7---7-7-------6------|

[Ebm] 6/8
G|----------------------------|--------------------------|
D|o-------------8-----8-9-8---|-------------7---5--------| 
A|--6-6-6-9-6-6---6-6-------6-|-6-6-6-9-6-6---6---6-5-4--|
E|o---------------------------|--------------------------|
B|----------------------------|--------------------------|

G|----------------------------|--------------------------| x2
D|--------------8-----8-9-8---|-------6-----------------o| 
A|--6-6-6-9-6-6---6-6-------6-|-------------8-9-8---9-8--|
E|----------------------------|-7-7-7---7-7-------6-----o|
B|----------------------------|--------------------------| 

Guitar solo

[Abm] 6/8
G|----------------------------|--------------------------| 
D|o---------------------------|--------------------------|
A|--------------6-----6-7-6---|-------------5---3--------| 
E|o-4-4-4-7-4-4---4-4-------4-|-4-4-4-7-4-4---4---4-3-2--|
B|----------------------------|--------------------------|

G|----------------------------|--------------------------| x2
D|----------------------------|-------------------------o|
A|--------------6-----6-7-6---|-------4------------------| 
E|--4-4-4-7-4-4---4-4-------4-|-------------6-7-6---7-6-o|
B|----------------------------|-5-5-5---5-5-------4------|

[Dbm] 6/8
G|----------------------------|--------------------------|
D|o-------------6-----6-7-6---|-------------5---3--------| 
A|--4-4-4-7-4-4---4-4-------4-|-4-4-4-7-4-4---4---4-3-2--|
E|o---------------------------|--------------------------|
B|----------------------------|--------------------------|

G|----------------------------|--------------------------| x2
D|--------------6-----6-7-6---|-------4-----------------o| 
A|--4-4-4-7-4-4---4-4-------4-|-------------6-7-6---7-6--|
E|----------------------------|-5-5-5---5-5-------4-----o|
B|----------------------------|--------------------------| 

Pre Chorus 

 [Bb] 4/4
G|---------------|-------------|-------------|------------|
D|---------------|-------------|-------------|-/6-4-------|
A|---------------|-------------|-------------|--------4-3-|
E|-6-6-6-6-6-6-6-|-6-6-6-6-6-6-|-6-6-6-6-6-6-|------6-----|
B|---------------|-------------|-------------|------------|

G|---------------|-------------|-------------|------------|
D|---------------|-------------|-------------|-/6-4-------|
A|---------------|-------------|-------------|--------4-3-|
E|-6-6-6-6-6-6-6-|-2-2-2-2-2-2-|-3-3-3-3-3-3-|------6-----|
B|---------------|-------------|-------------|------------|

Pre Chorus (but this time in F)

 [F] 4/4
G|-----------------|-----------------|-----------------|
D|-----------------|-----------------|-----------------|
A|-----------------|-----------------|-----------------|
E|-----------------|-----------------|-----------------|
B|-6-6-6-6-6-6-6-6-|-6-6-6-6-6-6-6-6-|-6-6-6-6-6-6-6-6-|

G|---------------------------------|
D|---------------------------------|
A|-6-6-6-4-4-4---------------------|
E|-----------------4-4-4-4-3-3-3-3-|
B|-------------6-6-----------------|

G|-----------------|-----------------|-----------------|------------|
D|-----------------|-----------------|-----------------|------------|
A|-----------------|-----------------|-----------------|-/6-4-------|
E|-----------------|-----------------|-----------------|--------4-3-|
B|-6-6-6-6-6-6-6-6-|-6-6-6-6-6-6-6-6-|-6-6-6-6-6-6-6-6-|------6-----|

Middle Section (again)

G|----------------------------------|----------------------------------| x2
D|o---------------------------------|---------------------------------o|
A|----------------------------------|----------------------------------|
E|o---------------------------------|---------------------------------o|
B|--1-1-1-1-1-1-1-1-1-1-1-1-1-1-1-1-|-1-1-1-1-1-1-1-1-1-1-1-1-1-1-1-1--|

G|----------------------------------|----------------------------------| 
D|----------------------------------|----------------------------------|
A|--3-3-3-3-3-3-3-3-3-3-3-3-3-3-3-3-|-2-2-2-2-2-2-2-2-2-2--------------|
E|----------------------------------|---------------------4-4-4-3-3-3--|
B|----------------------------------|----------------------------------|

G|----------------------------------|----------------------------------| 
D|----------------------------------|----------------------------------|
A|----------------------------------|----------------------------------|
E|----------------------------------|---------------------2-2-2-3-3-3--|
B|--4-4-4-4-4-4-4-4-4-4-4-4-4-4-4-4-|-3-3-3-3-3-3-3-3-3-3--------------|
 
G|----------------------------------|----------------------------------| x2
D|o---------------------------------|---------------------------------o|
A|----------------------------------|----------------------------------|
E|o---------------------------------|---------------------------------o|
B|--1-1-1-1-1-1-1-1-1-1-1-1-1-1-1-1-|-1-1-1-1-1-1-1-1-1-1-1-1-1-1-1-1--|

G|----------------------------------|----------------------------------| 
D|----------------------------------|----------------------------------|
A|--3-3-3-3-3-3-3-3-3-3-3-3-3-3-3-3-|-2-2-2-2-2-2-2-2-2-2--------------|
E|----------------------------------|---------------------4-4-4-3-3-3--|
B|----------------------------------|----------------------------------|

G|----------------------------------|----------------------------------| 
D|----------------------------------|----------------------------------|
A|----------------------------------|----------------------------------|
E|----------------------------------|---------------------2-2-2-3-3-3--|
B|--4-4-4-4-4-4-4-4-4-4-4-4-4-4-4-4-|-3-3-3-3-3-3-3-3-3-3--------------|
 
G|----------------------------------|----------------------------------| 
D|----------------------------------|----------------------------------|
A|----------------------------------|----------------------------------|
E|--4-4-4-4-4-4-4-4-4-4-4-4-4-4-4-4-|-3-3-3-3-3-3-3-3-3-3-3-3-3-3-3-3--|
B|----------------------------------|----------------------------------|

G|----------------------------------|----------------------------------| 
D|----------------------------------|----------------------------------|
A|----------------------------------|----------------------------------|
E|--1-1-1-1-1-1-1-1-1-1-1-1-1-1-1-1-|-2-2-2-2-2-2-2-2-3-3-3-3-3-3-3-3--|
B|----------------------------------|----------------------------------|

Ending

G|----------------------------------|----------------------------------| x2
D|o-------------------3-------------|-------------------6-----5---3---o|
A|--6-3-3-5-3-3-6-3-3---3-3-6-3-5-3-|-6-3-3-5-3-3-6-3-3---3-3---3---3--|
E|o---------------------------------|---------------------------------o|
B|----------------------------------|----------------------------------|

G|---------------------------------|---------------------------------|
D|-4-4-4-4-4-4-4-4-4-4-4-4---------|-3-3-3-3-3-3-3-3-3-3-3-3---------|
A|-------------------------5-5-5-5-|-------------------------4-4-4-4-|
E|---------------------------------|---------------------------------|
B|---------------------------------|---------------------------------|

G|----------------------------------|----------------------------------| x2
D|o-------------------3-------------|-------------------6-----5---3---o|
A|--6-3-3-5-3-3-6-3-3---3-3-6-3-5-3-|-6-3-3-5-3-3-6-3-3---3-3---3---3--|
E|o---------------------------------|---------------------------------o|
B|----------------------------------|----------------------------------|

G|---------------------------------|------------|-(5)-----|
D|-4-4-4-4-4-4-4-4-4-4-4-4---------|-/8-6-------|-(5)-----|
A|-------------------------5-5-5-5-|--------6-5-|--3------|
E|---------------------------------|------8-----|---------|
B|---------------------------------|------------|---------|
comments
print report bad tab
7 comments total. Showing first comments.
0 reply
dark_falco3000 wrote on February 1 2008, 05:17 am

the intro doesn't make sense. If it's all done on the same string, how does he get those notes to ring? You know, every
note that isn't C?

+4 reply
aceofbass131 wrote on August 1 2008, 07:50 pm

The D-string is tuned down to C for this song. That way, it looks like this...

C------------------------------------
G-8--7--8--10--8-7-8--7--8--13-12-10-
C--00-00-00--00-0-0-00-00-00--0--0--0
A------------------------------------
E------------------------------------
B------------------------------------

0 reply
FinderofNemo wrote on September 10 2008, 06:49 pm

Yeah, what acesofbass said.

I want to post or [tab]
guest
You may want to rate the tab now too:
select rating
Please do not post tabs as comments. Select "correction" instead!