Oops, an error
Loading. Please wait.

Paradigm Shift Tab

5,325 views 1 this week
3 commentsread comments
1 2 3 4 5
accurate
x 5
add to favorites launch autoscroll
font size
0
reset
Autoscroll
+/-
esc
set tempo
stop
Contributor
WARNING: You are trying to view
                                    content from Ultimate-Guitar.com
                                    in an unauthorized application,
                                    which is prohibited.

                                    Please use an official Ultimate
                                    Guitar Tabs application for iPhone,
                                    iPad or Android to access legitimate
                                    chords, guitar, bass, and drum tabs
                                    from Ultimate-Guitar.com database.

                                    Type "ultimate guitar tabs" in Apple
                                    App Store's or Android Market's
                                    search to find the application.
Band- Dream Theater
Song- Paradigm Shift

tempo= ca105

*beat v                       v                        v                        v
|-----12-13-12----12----------12-----------12-13-12----12----------12-----------12-13-12----12------------|
|--------------15----15-14-15----15-14-15-----------15----15-14-15----15-14-15-----------15----15-14-15---|
|---4:----------------------------------------------------------------------------------------------------|
|---4:----------------------------------------------------------------------------------------------------|
|---------------------------------------------------------------------------------------------------------|
|---------------------------------------------------------------------------------------------------------|


   v                       v                       v                       v
|--12----------15-13---------------------------------------------------------------------------||
|-----15-14-15-------15-13-v--------13-14-13---------------------------------------------------||
|--------------------------15-12-15----------15-12-v-----15-12-------------v-------------------||
|--------------------------------------------------15-12-------15-12-------12------------------||
|--------------------------------------------------------------------15-13----15-13------------||
|-----------------------------------------------------------------------------------15---------||

tempo= ca150-160
       v       v       v        v         v       v       v       v
|---------------------------------------|----------------------------------|
|------v-------v-------v--------v-------|-v-------v-------v-------v--------|
|--4:--3p0-0-3p0-0-3p0-0--3p0-0-3p0-5p0-|-3p0-0-3p0-0-3p0-0-3p0-0----------|
|--4:-----------------------------------|-------------------------3p0-3p0--|
|---------------------------------------|----------------------------------|
|---------------------------------------|----------------------------------|


     v       v       v        v         v       v       v       v
|-------------------------------------|-----------------------------------|
|----v-------v-------v--------v-------|-v-------v-------v-----------------|
|----3p0-0-3p0-0-3p0-0--3p0-0-3p0-5p0-|-6p0-5p0-3p0-0-3p0-0-----v---------|
|-------------------------------------|---------------------0-0-5p0-3p0---|
|-------------------------------------|-----------------------------------|
|-------------------------------------|-----------------------------------|


     v       v       v        v         v       v       v       v
|-------------------------------------|----------------------------------|
|----v-------v-------v--------v-------|-v-------v-------v----------------|
|----3p0-0-3p0-0-3p0-0--3p0-0-3p0-5p0-|-3p0-0-3p0-0-3p0-0-3p0-0-v--------|
|-------------------------------------|-------------------------3p0-3p0--|
|-------------------------------------|----------------------------------|
|-------------------------------------|----------------------------------|


     v       v       v        v         v         v       v       v
|-------------------------------------|------------------------------------|
|----v-------v-------v--------v-------|-8---6-----v-------v----------------|
|----3p0-0-3p0-0-3p0-0--3p0-0-3p0-5p0-|---7---7\5-3-0-5-5-3p0--------------|
|-------------------------------------|-----------------------3p0-v--------|
|-------------------------------------|---------------------------3p1------|
|-------------------------------------|-------------------------------3-1--|


     v       v       v        v         v       v       v       v
|-------------------------------------|---------------------------------|
|-------------------------------------|---------------------------------|
|----v-------v------------------------|-v-------v---3-------------------|
|----3-----5--------------------------|-3-----5-----3-------------------|
|----3-----5--------------------------|-3-----5-----1-------------------|
|----1-----3--------------------------|-1-----3-------------------------|


     v       v       v        v         v       v       v       v
|-------------------------------------|---------------------------------|
|-------------------------------------|-----------------v---------------|
|----v-------v------------------------|-v---------------0---------------|
|----3-----5--------------------------|-2---------------3---------------|
|----3-----5--------------------------|-2---------------3---------------|
|----1-----3--------------------------|-0---------------1---------------|


     v       v       v        v         v       v       v       v
|-------------------------------------|---------------------------------|
|-------------------------------------|-------------3-------------------|
|----v-------v------------------------|-v-------v---5-------------------|
|----3-----5--------------------------|-3-----5-----5-------------------|
|----3-----5--------------------------|-3-----5-----3-------------------|
|----1-----3--------------------------|-1-----3-------------------------|


     v       v       v        v         v       v       v       v
|-------------------------------------|---------------------------------|
|----v---------------v----------------|-v---------------v---------------|
|----3---------------5----------------|-8---------------10--------------|
|----3---------------5----------------|-8---------------10--------------|
|----1---------------3----------------|-6---------------8---------------|
|-------------------------------------|---------------------------------|


     v     v     v      v         v     v     v     v            v     v     v      v    
    v     v     v     v
||-----------------------------|----------------------------|------------------------------|---------------------------||
||-----------------------------|----------------------------|------------------------------|---------------------------||
||*----------------------------|----------------------------|------------------------------|--------------------------*||
||*----------------------------|--------------v-----v-------|------------------------------|--------------v-----v-----*||
||---v-----v-----v------v------|--------v---1--2-2--3--5----|----v-----v-----v------v------|--------v---1--2-2--3------||
||---1h3-3--3-3----3--3-3--3-3-|--1h3-3--3------------------|----1h3-3--3-3----3--3-3--3-3-|--1h3-3--3--------------1--||


   v     v     v     v          v     v     v     v
||---------------------------|----------------------------||
||---------------------------|----------------------------||
||*--------------------------|---------------------------*||
||*------------v-----v-------|--------------v-----v------*||
||-------v---1--2-2--3--5----|--------v---1--2-2--3--5----||
||-1h3-3--3------------------|--1h3-3--3------------------||

    v           v         v          v           v           v         v          v
||------------------------------------10----13--|----------------------------------------------|
||---------------v----11---v----13--------------|-------------v----11---v----13----11----------|
||*--10h12-12-12---12--------12----12----12-----|-10h12-12-12---12--------12----12----12-10----|
||*---------------------------------------------|-------------------------------------------12-|
||----------------------------------------------|----------------------------------------------|
||----------------------------------------------|----------------------------------------------|


  v           v         v          v           v           v           v         v
|----------------------------------10----13--|-15----13----10----------v----10---v------------||
|-------------v----11---v----13--------------|----------------13-11-13-----------13-11--------||
|-10h12-12-12---12--------12----12----12-----|-----------------------------------------12-10-*||
|--------------------------------------------|-----------------------------------------------*||
|--------------------------------------------|------------------------------------------------||
|--------------------------------------------|------------------------------------------------||


    1:02"
     v       v       v        v         v       v       v       v
|-------------------------------------|---------------------------------|
|-------------------------------------|---------------------------------|
|----v-------v------------------------|-v-------v---3-------------------|
|----3-----5--------------------------|-3-----5-----3-------------------|
|----3-----5--------------------------|-3-----5-----1-------------------|
|----1-----3--------------------------|-1-----3-------------------------|


     v       v       v        v         v       v       v       v
|-------------------------------------|---------------------------------|
|-------------------------------------|-----------------v---------------|
|----v-------v------------------------|-v---------------0---------------|
|----3-----5--------------------------|-2---------------3---------------|
|----3-----5--------------------------|-2---------------3---------------|
|----1-----3--------------------------|-0---------------1---------------|


     v       v       v        v         v       v       v       v
|-------------------------------------|---------------------------------|
|-------------------------------------|-------------3-------------------|
|----v-------v------------------------|-v-------v---5-------------------|
|----3-----5--------------------------|-3-----5-----5-------------------|
|----3-----5--------------------------|-3-----5-----3-------------------|
|----1-----3--------------------------|-1-----3-------------------------|


     v       v       v        v         v       v       v       v
|-------------------------------------|---------------------------------|
|----v---------------v----------------|-v---------------v---------------|
|----3---------------5----------------|-8---------------10--------------|
|----3---------------5----------------|-8---------------10--------------|
|----1---------------3----------------|-6---------------8---------------|
|-------------------------------------|---------------------------------|


    v          v           v            v              v           v           v         v
||---------------------------------------v-----------|--v-----------v----------------------------|
||--17-18-17----v-----17----v------17-18-17----------|--17----------17-18-17----v---------v------|
||*----------19-18-19----19-18-19----------19-18--19-|-----19-18-19----------19-18-19-18--17--15-|
||*--------------------------------------------------|-------------------------------------------|
||---------------------------------------------------|-------------------------------------------|
||---------------------------------------------------|-------------------------------------------|


     v          v           v            v              v           v           v        
v
|----------------------------------------v-----------|--v-----------v-------------------------||
|---17-18-17----v-----17----v------17-18-17----------|--17----------17-18-17----v---------v---||
|------------19-18-19----19-18-19----------19-18--19-|-----19-18-19----------19-18---17---15-*||
|----------------------------------------------------|---------------------------------------*||
|----------------------------------------------------|----------------------------------------||
|----------------------------------------------------|----------------------------------------||


    v          v           v            v              v           v           v         v
|---------------------------------------v-----------|--v-----------v----------------------------|
|--17-18-17----v-----17----v------17-18-17----------|--17----------17-18-17----v---------v------|
|-----------19-18-19----19-18-19----------19-18--19-|-----19-18-19----------19-18-19-18--17--15-|
|---------------------------------------------------|-------------------------------------------|
|---------------------------------------------------|-------------------------------------------|
|---------------------------------------------------|-------------------------------------------|


    v          v           v            v
|---------------------------------------v-----------|
|--17-18-17----v-----17----v------17-18-17----------|
|-----------19-18-19----19-18-19----------19-18--19-|
|---------------------------------------------------|
|---------------------------------------------------|
|---------------------------------------------------|


      v           v           v           v           v           v
|------v-----------v-----------17-18----17-18-20-17-18----17------/17-----------|
|------17----------17-18-19-20-------20----------------20----18-20----18--------|
|-6:------19-18-19-------------------------------------------------------19-17--|
|-4:----------------------------------------------------------------------------|
|-------------------------------------------------------------------------------|
|-------------------------------------------------------------------------------|

      v         v        v         v           v         v        v        v
|---------------------------------------------|----------------------------------------|
|------v---------v--------v---------v---------|-v---------v--------v--------v----------|
|--4:--15p0-0-15p0-0-15p0-0--15p0-0-15p0-17p0-|-15p0-0-15p0-0-15p0-0-15p0-0------------|
|--4:-----------------------------------------|-----------------------------15p0-15p0--|
|---------------------------------------------|----------------------------------------|
|---------------------------------------------|----------------------------------------|


     v         v        v         v           v         v         v       v
|-------------------------------------------|-----------------------------------------|
|----v---------v--------v---------v---------|-v---------v---------v-------------------|
|----15p0-0-15p0-0-15p0-0--15p0-0-15p0-17p0-|-18p0-17p0-15p0-0-15p0-0-----v-----------|
|-------------------------------------------|-------------------------0-0-17p0-15p0---|
|-------------------------------------------|-----------------------------------------|
|-------------------------------------------|-----------------------------------------|


     v       v       v        v         v       v       v       v
|-------------------------------------|----------------------------------|
|----v-------v-------v--------v-------|-v-------v-------v----------------|
|----3p0-0-3p0-0-3p0-0--3p0-0-3p0-5p0-|-3p0-0-3p0-0-3p0-0-3p0-0-v--------|
|-------------------------------------|-------------------------3p0-3p0--|
|-------------------------------------|----------------------------------|
|-------------------------------------|----------------------------------|


     v       v       v        v         v         v       v       v
|-------------------------------------|------------------------------------|
|----v-------v-------v--------v-------|-8---6-----v-------v----------------|
|----3p0-0-3p0-0-3p0-0--3p0-0-3p0-5p0-|---7---7\5-3-0-5-5-3p0--------------|
|-------------------------------------|-----------------------3p0-v--------|
|-------------------------------------|---------------------------3p1------|
|-------------------------------------|-------------------------------3-1--|


    1:48"
    v     v     v     v       v    v     v      v          v     v    v
|----------------------------|-------------------------|--------------------|
|----------------------------|-------------------------|--------------------|
|----------------------------|-------------------------|-3:-----------------|
|----------------v-----------|-v-----------------------|-4:-------v----v----|
|----v-----v--8--------v-----|-7----v-----v---6--v-----|----v-----4----5----|
|----3--5--6--------6--5--3--|------3--5--6---------6--|----5--3------------|


     v     v     v     v       v    v     v      v          v     v       v
|----------------------------|-------------------------|---------------------------|
|----------------------------|-------------------------|---------------------------|
|----------------------------|-------------------------|-3:---------------v--------|
|----------------v-----------|-v-----------------------|-4:-------v-----5-4--------|
|----v-----v--8--------v-----|-7----v-----v---6--v-----|----v-----3-5-6-----6-5----|
|----3--5--6--------6--5--3--|------3--5--6---------6--|----5--3----------------6--|


     v     v     v     v       v    v     v      v          v     v    v
|----------------------------|-------------------------|--------------------|
|----------------------------|-------------------------|--------------------|
|----------------------------|-------------------------|-3:-----------------|
|----------------v-----------|-v-----------------------|-4:-------v----v----|
|----v-----v--8--------v-----|-7----v-----v---6--v-----|----v-----4----5----|
|----3--5--6--------6--5--3--|------3--5--6---------6--|----5--3------------|


     v     v     v     v       v    v     v      v          v     v    v
|----------------------------|-------------------------|--------------------|
|----------------------------|-------------------------|--------------------|
|----------------------------|-------------------------|-3:-----------------|
|----------------v-----------|-v-----------------------|-4:-------v---------|
|----v-----v--8--------v-----|-7----v-----v---6--v-----|----v-----4---------|
|----3--5--6--------6--5--3--|------3--5--6---------6--|----5--3------------|(...)


                 (is not the end... just the begining.....)

===============================================================================================
==                                   TABLATURE EXPLANATION
==
===============================================================================================

(*)For me is really important to know what we play, and i mark beats with " v " to know rythm
 figures we play. maybe at first is a annoying, but i thing it's important.
 sorry, if it is... don't look the " v "!!!!!!!!!!!!!!!

----------                ----------                ----t---|
----5h8--- Hammeron       ----(8)--- Ghost          ----6---| Tap
----------                ---------- Note           --------|
----8p5--- Pulloff        ----------                --------|

----------                ----------                -----p--|
----5/8--- Slide Up       -----x---- Dead           -----7--| Pop
----------                ---------- Note           --s-----|
----5\8--- Slide Down     ----------                --5-----| Slap

----------                ||------|| Repeat         --------|
----5~~~-- Vibrato        ||*----*||                ---5^---| Bend
----------                ||*----*||                --------|
----------                ||------||                --------|

----------|
-4:-------| Time
-4:-------| Signature
----------|
comments
print report bad tab
3 comments total.
0 reply
Musketeer(s) wrote on December 7 2006, 04:45 pm

Its wrong. Theres a much easier way of playing it

0 reply
matx33 wrote on December 11 2006, 09:41 pm

Paradigm Shift is by Liquid Tension Experiment...Petrucci's other project. Just to let you know.

0 reply
dark_falco3000 wrote on January 7 2008, 02:28 am

actually it's portnoy's other project... Petrucci wasn't even supposed to be in it but none of the other guitarists that
Portnoy wanted were available. Liquid Tension Experiment is also probably the reason why Rudess decided to join Dream
Theater, as he had turned them down previously in favour of another band.

I want to post or [tab]
guest
You may want to rate the tab now too:
select rating
Please do not post tabs as comments. Select "correction" instead!