Oops, an error
Loading. Please wait.

Perfect Strangers Tab

ver1
ver1

Whole song

Interactive

More versions @911Tabs.com
4,110 views 3 this week
2 commentsread comments
1 2 3 4 5
worth learning
x 4
Autoscroll
+/-
esc
set tempo
stop
Hey! There's an official Ultimate Guitar app which is ideal
for learning songs when you're away from computer. Get the app
WARNING: You are trying to view
                                    content from Ultimate-Guitar.com
                                    in an unauthorized application,
                                    which is prohibited.

                                    Please use an official Ultimate
                                    Guitar Tabs application for iPhone,
                                    iPad or Android to access legitimate
                                    chords, guitar, bass, and drum tabs
                                    from Ultimate-Guitar.com database.

                                    Type "ultimate guitar tabs" in Apple
                                    App Store's or Android Market's
                                    search to find the application.
Perfect Strangers - Guitar Tab


Author - Agustin Franci


                          Perfect Strangers


  transcribed by: Agustin franci. Bs.As. Argentina.
  tabbed by : agustin franci
  taken from "a change of season"
  original by deep purple                      *this is the way that john petrucci
  e-mail:fmatias@cvtci.com.ar                    plays.  Is more heavy.

                                                  fill 1
                                                g|--(2)--------------------------|
                                                d|--(2)--------------------------|
                                                a|--(0)---------3----------------|
                                                e|-------3---5-----5---3---5-----|

|---------------------|-------------------------|------------------|------------------||
|---------------------|-------------------------|------------------|------------------||
|------5---7----------|---(7)-----------5----7--|---10---12--------|-(12)-------------||
|------5---7----------|---(7)-----------5----7--|---10---12--------|-(12)-------------||
|------3---5----------|---(5)-----------3----5--|---8----10--------|-(10)-------------||
|---------------------|-------------------------|------------------|------------------||


            Can you re-mem-ber,      re-mem-ber  my   name?__________

|---------------------|----------------------------------|------------------|
|---------------------|----------------------------------|------------------|
|------5---7----------|---(7)--------------------5----7--|---10---12--------|
|------5---7----------|---(7)--------------------5----7--|---10---12--------|
|------3---5----------|---(5)--------------------3----5--|---8----10--------|
|---------------------|----------------------------------|------------------|




          As I flow through your life               A thousand oceans I have

|-----------------------------|-----------------|---------------------------------|
|-----------------------------|-----------------|---------------------------------|
|------(12)-------------------|---5---7---------|----(7)-----------------5----7---|
|------(12)-------------------|---5---7---------|----(7)-----------------5----7---|
|------(10)-------------------|---3---5---------|----(5)-----------------3----5---|
|-----------------------------|-----------------|---------------------------------|

   flown________  Oh,________     And   cold____________
|                                                          |
|-------------------|------------------||------------------|
|-------------------|------------------||------------------|
|----10-------12----|--(12)------------||---0----2---------|
|----10-------12----|--(12)------------||---0----2---------|
|----8--------10----|--(10)------------||--------0---------|
|-------------------|------------------||------------------|


 cold         spi - rits  of  ice._____
 

* fill 1
|---------------------------------------|----------------------------|
----------------------------------------|----------------------------|
----(2)---0----2----5----2----0----2----|---(2)---2---------0--------|
 ---(2)---0----2----5----2----0----2----|---(2)----------------------|
|---(0)--------0----3----0---------0----|---(0)------------------0---|
|---------------------------------------|----------------------------|



 All___________   my life__


** this is the way that ritchie plays
|----------------------------------------|----------------------------|
|----------------------------------------|----------------------------|
|----------0----2----5----2----0----2----|---(2)---2---------0--------|
|-----2----0----2----5----2----0----2----|---(2)----------------------|
|---------------0----3----0---------0----|---(0)------------------0---|
|----------------------------------------|----------------------------|



 I am  the ech-o  of your
|
|----------------------------------------|----------------------------|
|----------------------------------------|----------------------------|
|----------0----2----5----2----0----2----|---(2)---2---------0--------|
|-----2----0----2----5----2----0----2----|---(2)----------------------|
|---------------0----3----0---------0----|---(0)------------------0---|
|----------------------------------------|----------------------------|


  past.__________________________________________

|-----------||-------------------|--------------------|
|-----------||-------------------|--------------------|
|-----------||----5----7---------|---(7)-----5----7---|
|----2------||----5----7---------|---(7)-----5----7---|
|-----------||----3----5---------|---(5)-----3----5---|
|-----------||-------------------|--------------------|



|----------------------------|------------------------------------|
|----------------------------|------------------------------------|
|----10-------12-------------|------------------------------------|
|----10-------12-------------|------------------------------------|
|----8--------10-------------|------------------------------------|
|----------------------------|------------------------------------|

 I am returning      the  echo  of a point  in  time

|---------------------|----------------------------------|------------------|
|---------------------|----------------------------------|------------------|
|------5---7----------|---(7)--------------------5----7--|---10---12--------|
|------5---7----------|---(7)--------------------5----7--|---10---12--------|
|------3---5----------|---(5)--------------------3----5--|---8----10--------|
|---------------------|----------------------------------|------------------|



          Distant faces shine___               A thou-sand war-riors I have

|-----------------------------|-----------------|---------------------------------|
|-----------------------------|-----------------|---------------------------------|
|------(12)-------------------|---5---7---------|----(7)-----------------5----7---|
|------(12)-------------------|---5---7---------|----(7)-----------------5----7---|
|------(10)-------------------|---3---5---------|----(5)-----------------3----5---|
|-----------------------------|-----------------|---------------------------------|



     known________  Oh,________     And   laugh - ing_____

|-------------------|------------------||------------------|
|-------------------|------------------||------------------|
|----10-------12----|--(12)------------||---0----2---------|
|----10-------12----|--(12)------------||---0----2---------|
|----8--------10----|--(10)------------||--------0---------|
|-------------------|------------------||------------------|

           as   the spir- its  ap- pear.__________

|----------------------------------------|----------------------------|
|----------------------------------------|----------------------------|
|----(2)---0----2----5----2----0----2----|---(2)---2---------0--------|
|----(2)---0----2----5----2----0----2----|---(2)----------------------|
|----(0)--------0----3----0---------0----|---(0)------------------0---|
|----------------------------------------|----------------------------|


 All___________ your life__

|----------------------------------------|----------------------------||----------------------------------------|----------------------------|
|----------0----2----5----2----0----2----|---(2)---2---------0--------|
|-----2----0----2----5----2----0----2----|---(2)----------------------|
|---------------0----3----0---------0----|---(0)------------------0---|
|----------------------------------------|----------------------------|


 Shadows of  a-noth-er

|----------------------------------------|----------------------------|
|----------------------------------------|----------------------------|
|----------0----2----5----2----0----2----|---(2)---2---------0--------|
|-----2----0----2----5----2----0----2----|---(2)----------------------|
|---------------0----3----0---------0----|---(0)------------------0---|
|----------------------------------------|----------------------------|



   day.___________________________________________
|--------------------------5----------------------------------------------------------||-------------------1----|
|---------5-----4-----5---------5----3----1----3----1---------1-----------------------||------------------------|
|--------------------------------------------------------2---------2----0----2----0---||---------2----2---------|
|----2--------------------------------------------------------------------------------||----3-------------------|
|-------------------------------------------------------------------------------------||------------------------|
|-------------------------------------------------------------------------------------||------------------------|
|

     And  if you hear me talking on the wind,        you've got to understand       we must re-

|----3----0--------------|------------------1----0-------------|---------3--------3---------3---|
|--------------1---------|-------------3----3----3----3----1---|--------------------------------|
|------------------------|--------2----2----2----2-------------|---0----------------------------|
|------------------------|---0----0----0----0----0-------------|--------------------------------|
|------------------------|-------------------------------------|--------------------------------|
|------------------------|-------------------------------------|--------------------------------|



          main                      per   -   fect             strang   -    ers.________

|-------------------1----5----7----5----7----5----7----5---|---------------------------------||----------------------|
|--------------3----3--------------------------------------|---1----1--------------------1---||---3----3----3----3---|
|---------2----2----2--------------------------------------|---3----3---------------0----0---||---4----4----4----4---|
|----0----0----0----0--------------------------------------|---2----2----------2----2----2---||---5----5----5----5---|
|----------------------------------------------------------|---3----3------------------------||----------------------|
|----------------------------------------------------------|---------------------------------||----------------------|


                          keyb.
|-----------------------|------------------------|----------------------|
|----3----3----3----3---|------------------------|----------------------|
|----4----4----4----4---|------------------------|----------------------|
|----5----5----5----5---|------------------------|----------------------|
|-----------------------|------------------------|----------------------|
|-----------------------|------------------------|----------------------|



 this is my favorite part
|------------------------------------------------|-----------------------------------------------------------|
|------------------------------------------------|-----------------------------------------------------------|
|--------2---2---2-------3---3---3---0---0---0---|-------2---2---2---------------2---2---2---0---0---0---0---|
|------------------------------------------------|-------------------3---3---3-------------------------------|
|----0---------------0---------------------------|---0-------------------------------------------------------|
|------------------------------------------------|-----------------------------------------------------------|

|------------------------------------------------|-----------------------------------------------------------|
|------------------------------------------------|-----------------------------------------------------------|
|--------2---2---2-------3---3---3---0---0---0---|-------2---2---2---------------2---2---2---0---0---0---0---|
|------------------------------------------------|-------------------3---3---3-------------------------------|
|----0---------------0---------------------------|---0-------------------------------------------------------|
|------------------------------------------------|-----------------------------------------------------------|




|------------------------------------------------|-----------------------------------------------------------|
|------------------------------------------------|-----------------------------------------------------------|
|--------2---2---2-------3---3---3---0---0---0---|-------2---2---2---------------2---2---2---0---0---0---0---|
|------------------------------------------------|-------------------3---3---3-------------------------------|
|----0---------------0---------------------------|---0-------------------------------------------------------|
|------------------------------------------------|-----------------------------------------------------------|




 I    know   I
|------------------------------------------------|---------------------------------------------------|
|------------------------------------------------|---------------------------------------------------|
|--------2---2---2-------3---3---3---0---0---0---|-------2---2---2---------------2---2---2---0---0---|
|------------------------------------------------|-------------------3---3---3-----------------------|
|----0---------------0---------------------------|---0-----------------------------------------------|
|------------------------------------------------|---------------------------------------------------|



   must   re  -  main  in - side   this  si - lent  well   of  |   sor  -  row.___
|                                                             |
|-------------------------------------------------------------|-------------------------------------|
|-------------------------------------------------------------|-------------------------------------|
|----0--------------------------------------------------------|----5----7------------(7)---5----7---|
|--------3---3---3---2---2---2---0---0---0--------------------|----5----7------------(7)---5----7---|
|--------------------------------------------3---3---3----1---|----3----5------------(5)---3----5---|
|-------------------------------------------------------------|-------------------------------------|


|--------------------------------------------|
|--------------------------------------------|
|-----10---12------------(12)----------------|
|-----10---12------------(12)----------------|
|-----8----10------------(10)----------------|
|--------------------------------------------|



              A strand of sil-ver,      hang-ing through  the  sky,____

|---------------------|----------------------------------|------------------|
|---------------------|----------------------------------|------------------|
|------5---7----------|---(7)--------------------5----7--|---10---12--------|
|------5---7----------|---(7)--------------------5----7--|---10---12--------|
|------3---5----------|---(5)--------------------3----5--|---8----10--------|
|---------------------|----------------------------------|------------------|



 touching more than you  see              The voice of ages  in your

|-----------------------------|-----------------|---------------------------------|
|-----------------------------|-----------------|---------------------------------|
|------(12)-------------------|---5---7---------|----(7)-----------------5----7---|
|------(12)-------------------|---5---7---------|----(7)-----------------5----7---|
|------(10)-------------------|---3---5---------|----(5)-----------------3----5---|
|-----------------------------|-----------------|---------------------------------|



     mind_______    Oh,________      Is   aching__________ |
|                                                          |
|-------------------|------------------||------------------|
|-------------------|------------------||------------------|
|----10-------12----|--(12)------------||---0----2---------|
|----10-------12----|--(12)------------||---0----2---------|
|----8--------10----|--(10)------------||--------0---------|
|-------------------|------------------||------------------|


with the dead  of   the night._____

|----------------------------------------|----------------------------|
|----------------------------------------|----------------------------|
|----(2)---0----2----5----2----0----2----|---(2)---2---------0--------|
|----(2)---0----2----5----2----0----2----|---(2)----------------------|
|----(0)--------0----3----0---------0----|---(0)------------------0---|
|----------------------------------------|----------------------------|



       Ohhh hoo oww_________                 Pre      -    cious life_
|                                                                     |
|----------------------------------------|----------------------------|
|----------------------------------------|----------------------------|
|----------0----2----5----2----0----2----|---(2)---2---------0--------|
|-----2----0----2----5----2----0----2----|---(2)----------------------|
|---------------0----3----0---------0----|---(0)------------------0---|
|----------------------------------------|----------------------------|


Your tears are lost in falling

|----------------------------------------|----------------------------|
|----------------------------------------|----------------------------|
|----------0----2----5----2----0----2----|---(2)---2---------0--------|
|-----2----0----2----5----2----0----2----|---(2)----------------------|
|---------------0----3----0---------0----|---(0)------------------0---|
|----------------------------------------|----------------------------|

|--------------------------5----------------------------------------------------------||-------------------1----|
|---------5-----4-----5---------5----3----1----3----1---------1-----------------------||------------------------|
|--------------------------------------------------------2---------2----0----2----0---||---------2----2---------|
|----2--------------------------------------------------------------------------------||----3-------------------|
|-------------------------------------------------------------------------------------||------------------------|
|-------------------------------------------------------------------------------------||------------------------|


    And  if you hear me talking on the wind,        you've got to understand       we must re-
|
|----3----0--------------|------------------1----0-------------|---------3--------3---------3---|
|--------------1---------|-------------3----3----3----3----1---|--------------------------------|
|------------------------|--------2----2----2----2-------------|---0----------------------------|
|------------------------|---0----0----0----0----0-------------|--------------------------------|
|------------------------|-------------------------------------|--------------------------------|
|------------------------|-------------------------------------|--------------------------------|



           main                      per   -   fect             strang   -    ers.________

|-------------------1----5----7----5----7----5----7----5---|---------------------------------||----------------------|
|--------------3----3--------------------------------------|---1----1--------------------1---||---3----3----3----3---|
|---------2----2----2--------------------------------------|---3----3---------------0----0---||---4----4----4----4---|
|----0----0----0----0--------------------------------------|---2----2----------2----2----2---||---5----5----5----5---|
|----------------------------------------------------------|---3----3------------------------||----------------------|
|----------------------------------------------------------|---------------------------------||----------------------|

                         keyboard
|-----------------------|------------------------|----------------------|
|----3----3----3----3---|------------------------|----------------------|
|----4----4----4----4---|------------------------|----------------------|
|----5----5----5----5---|------------------------|----------------------|
|-----------------------|------------------------|----------------------|
|-----------------------|------------------------|----------------------|




|------------------------------------------------|-----------------------------------------------------------|
|------------------------------------------------|-----------------------------------------------------------|
|------------------------------------------------|-----------------------------------------------------------|
|--------2---2---2-------3---3---3---0---0---0---|-------2---2---2---------------2---2---2---0---0---0---0---|
|------------------------------------------------|-------------------3---3---3-------------------------------|
|----0---------------0---------------------------|----0------------------------------------------------------|



|------------------------------------------------|-----------------------------------------------------------|
|------------------------------------------------|-----------------------------------------------------------|
|------------------------------------------------|-----------------------------------------------------------|
|--------2---2---2-------3---3---3---0---0---0---|-------2---2---2---------------2---2---2---0---0---0---0---|
|------------------------------------------------|-------------------3---3---3-------------------------------|
|----0---------------0---------------------------|----0------------------------------------------------------|



|------------------------------------------------|-----------------------------------------------------------|
|------------------------------------------------|-----------------------------------------------------------|
|------------------------------------------------|-----------------------------------------------------------|
|--------2---2---2-------3---3---3---0---0---0---|-------2---2---2---------------2---2---2---0---0---0---0---|
|------------------------------------------------|-------------------3---3---3-------------------------------|
|----0---------------0---------------------------|----0------------------------------------------------------|



|------------------------------------------------|---------------------------------------------------|
|------------------------------------------------|---------------------------------------------------|
|------------------------------------------------|---------------------------------------------------|
|--------2---2---2-------3---3---3---0---0---0---|-------2---2---2---------------2---2---2---0---0---|
|------------------------------------------------|-------------------3---3---3-----------------------|
|----0---------------0---------------------------|----0----------------------------------------------|

|-------------------------------------------------------------|
|-------------------------------------------------------------|
|-------------------------------------------------------------|
|----0--------------------------------------------------------|
|--------3---3---3---2---2---2---0---0---0--------------------|
|--------------------------------------------3---3---3----1---|

|------------------------------------------------|-----------------------------------------------------------|
|------------------------------------------------|-----------------------------------------------------------|
|------------------------------------------------|-----------------------------------------------------------|
|--------2---2---2-------3---3---3---0---0---0---|-------2---2---2---------------2---2---2---0---0---0---0---|
|------------------------------------------------|-------------------3---3---3-------------------------------|
|----0---------------0---------------------------|----0------------------------------------------------------|


|------------------------------------------------|-----------------------------------------------------------|
|------------------------------------------------|-----------------------------------------------------------|
|------------------------------------------------|-----------------------------------------------------------|
|--------2---2---2-------3---3---3---0---0---0---|-------2---2---2---------------2---2---2---0---0---0---0---|
|------------------------------------------------|-------------------3---3---3-------------------------------|
|----0---------------0---------------------------|----0------------------------------------------------------|



|------------------------------------------------|-----------------------------------------------------------||
|:-----------------------------------------------|----------------------------------------------------------:||
|--------1---1---1-------2---2---2---------------|-------1---1---1---------------1---1---1-------------------||
|--------2---2---2-------3---3---3---3---3---3---|-------2---2---2---2---2---2---2---2---2---3---3---3---3---||
|:-----------------------------------5---5---5---|-------------------3---3---3---------------5---5---5---5--:||
|----0---------------0---------------------------|----0------------------------------------------------------||



please contact me!!

good luck y hasta la vista baby!
comments
print report bad tab
2 comments total.
0 reply
zakk-rules wrote on March 10 2007, 08:03 am

Good tab.

0 reply
Gravenimage wrote on July 10 2008, 06:15 pm

For one, it's played on a seven string. Two, you missed the guitar solo.

I want to post or [tab]
guest
You may want to rate the tab now too:
select rating
Please do not post tabs as comments. Select "correction" instead!