Oops, an error
Loading. Please wait.

Peruvian Skies Bass Tab

ver2
ver2

Whole song

Interactive

More versions @911Tabs.com
1,903 views 1 this week
1 commentread comment
1 2 3 4 5
accurate
x 3
Autoscroll
+/-
esc
set tempo
stop
Difficulty
intermediate
Hey! There's an official Ultimate Guitar app which is ideal
for learning songs when you're away from computer. Get the app
WARNING: You are trying to view
                                    content from Ultimate-Guitar.com
                                    in an unauthorized application,
                                    which is prohibited.

                                    Please use an official Ultimate
                                    Guitar Tabs application for iPhone,
                                    iPad or Android to access legitimate
                                    chords, guitar, bass, and drum tabs
                                    from Ultimate-Guitar.com database.

                                    Type "ultimate guitar tabs" in Apple
                                    App Store's or Android Market's
                                    search to find the application.
Tabbed by: [Powertab, name was not given]
Posted by: Iron Pete
E-mail: Bludragon5891@aol.com

This song isn't too difficult to play, as long as you have a 6-string bass.
Listen to record for rhythm

Tuning: B E A D G C (Standard 6-string bass tuning)
 Intro
 
|----------|----------|----------|-----------------------------------|
|----------|----------|----------|-----------------------------------|
|----------|----------|----------|---------------3-------------------|
|----------|----------|----------|-------------3-----2-4-3---------2-|
|----------|----------|-0--------|-(0)--(0)-1/-----0-------2-----1---|
|----------|----------|----------|-----------------------------------|


|-------------------|---------------------------|
|-------------------|---------------------------|
|-------------------|---------------------------|
|-------------------|------------2-4--3-------2-|
|--0----------------|-0------(0)----------2-1---|
|-------------------|---------------------------|


|------------------|--------------------------------------------|
|------------------|--------------------------------------------|
|------------------|----------------3---------------------------|
|------------------|-------------3------------2-4--3----------2-|
|-0--------(0)-3-2-|--0---(0)-1/------------0-----------2--1----|
|------------------|--------------------------------------------|


 1st Verse
|-------------------------------|-----------------|
|-------------------------------|-----------------|
|-------------------------------|-----------------|
|-------------------------------|--------10\---9\-|
|-0--(0)-----10-12-(12)-(12)\---|-0---------------|
|--------/12--------------------|------8--8\-7-7\-|


|-----------------------|----+4-(+4)---------------------|
|-----------------------|--------------------------------|
|-----------------12-14-|--------------------------------|
|-------------/14-------|------------------10\-------9\--|
|-0-------(0)-----------|-0---0---(0)--------------------|
|-----------------------|---------------8\-----7-(7)-----|


|-----------------------------------|------------|
|-------------------------------7s9-|------------|
|-----------------------------------|------------|
|---------------10-------10---------|------------|
|------------10----12-12----12\-----|-0----------|
|-5--(5)-/12------------------------|------8--7--|


|-----------------------------|-------------------------|
|-------------------------7s9-|-------------------------|
|-----------------------------|-------------------------|
|----------------10-----------|--------10\-------9------|
|-0----(0)----10----12-10-----|-0-----------------------|
|----------11-----------------|------8-----7-(7)---7\---|


 Chorus
|------------------|-------------------------|-------------|
|------------------|-------------------------|-------------|
|------------------|-------------------------|-------------|
|------------------|-------------------------|-------------|
|------------------|--------------10-12-(12)S|=3----/15----|
|-10----(10)--(10)S|=5----(5)-/12------------|-------------|


|---------|------------------|-------|
|---------|------------------|-------|
|-0-------|------------------|-------|
|---------|------------------|-------|
|---------|------------------|-------|
|---------|-10----(10)--(10)S|=5-----|


|---------------|---------|--------------------------|
|---------------|---------|--------------------------|
|---------------|---------|--------------------------|
|---------------|---------|-----10-12--(12)----------|
|---------------|---------|-12-----------------------|
|-8----(8)--(8)S|=6-------|-----------------10-(10)\-|


|-----------------|-----------------|-------|
|-----------------|-----------------|-------|
|-----------------|-----------------|-------|
|-----------------|-----------------|-------|
|-----------------|-----------------|-------|
|-8----(8)-8-(8)\-|-7----(7)-7-(7)\-|-6-----|



 4/4
  H     +S   S  S  S  S  S  S  S   H     E     E    E   E
|--------------------------------|---------------------------|
|--------------------------------|---------------------------|
|--------------------------12s14-|---------------------------|
|-----------------10-------------|------------10\-------9\---|
|-0-----(0)----10----12-10-------|-0-------------------------|
|-----------12-------------------|-------8----------7--------|



|-----------------------------------------|--------------------------------|
|-----------------------------------------|--------------------------------|
|-----------------------------------------|----------------3---------------|
|-----------------------------------------|-------------3-------2-4--3----2|
|-0---(0)-----10-12-12--(12)\-------------|-0-----(0)-1/------0--------2-1-|
|---------/12-----------------------------|--------------------------------|



 2nd Verse
|---------------------------|------------------|
|---------------------------|------------------|
|---------------------------|------------------|
|-----------------10--------|------------------|
|-0-----(0)----10----12S====|=0----------------|
|-----------12--------------|------8-----7-----|


|-----------------------------|-----------------------------|
|---------------------------7s|=9--(9)\---------------------|
|-----------------------------|-----------------------------|
|-----------------------------|-----------------------------|
|-0--(0)-----10-12-12--(12)---|------------3--------2-------|
|--------/12------------------|-----------------------------|


|-----------------------|------------------------------------------|
|-----------------------|------------------------------------------|
|-----------------------|------------------------------------------|
|-----------------------|------------------------------------------|
|-0---------------------|-0----------3-------------2---------------|
|-----------------------|------------------------------------------|


|------------------------------------|----------------------------------|
|--------------------------------7s9-|----------------------------------|
|------------------------------------|----------------------------------|
|---------------------10-------------|--------------10\-----------------|
|-0--------(0)-----10----12--10------|-0--------------------------------|
|--------------/11-------------------|----------8-------7-(7)---(7)\----|


 Chorus
|---------|---------|-------|
|---------|---------|-------|
|---------|---------|-------|
|---------|---------|-------|
|-5-------|-0-------|-3-----|
|---------|---------|-------|


|---------|----------|-------|
|---------|----------|-------|
|---------|----------|-------|
|---------|----------|-------|
|---------|----------|-------|
|-3-------|-10-------|-5-----|


|---------|---------|--------------------------|
|---------|---------|--------------------------|
|---------|---------|--------------------------|
|---------|---------|-----10-12--(12)----------|
|---------|---------|-12-----------------------|
|-8-------|-6-------|-----------------10-(10)\-|


|-----------------|----------------|
|-----------------|----------------|
|-----------------|----------------|
|-----------------|----------------|
|-----------------|----------------|
|-8----(8)-8-(8)\-|-7----(7)-7-(7)-|


 12/8
|--------------------------|
|--------------------------|
|--------------------------|
|--------------------------|
|--------------------------|
|-6--6-6-6-6-6-6-6-6-6-6-6-|


|----------------------------------------------------|
|----------------------------------------------------|
|----------------------------------------------------|
|----------------------------------------------------|
|----------------------------------------------------|
|--6--6-6-6-6-6--6--6-6-6-------6---------6----------|

 Interlude
|-------------------|--------------------------|--------------------|
|-------------------|--------------------------|--------------------|
|-------------------|--------------------------|--------------------|
|-------------------|-0----(0)-0-2-3--5-(5)-7--|--------------------|
|-0-------2----3----|--------------------------|-0-------2----3-----|
|-------------------|--------------------------|--------------------|


|---------------------------------------------||-------------------|
|---------------------------------------------||-------------------|
|---------------------------------------------||-------------------|
|--------------1--1-1-1-------1-------1-------||-------------------|
|-1--1-1-1-1-1--------------------------------||-0-------2----3----|
|---------------------------------------------||-------------------|


|--------------------------|-------------------|
|--------------------------|-------------------|
|--------------------------|-------------------|
|-0----(0)-0-2-3--5-(5)-7--|-------------------|
|--------------------------|-0-------2----3----|
|--------------------------|-------------------|


|--------------------------------------------------|
|--------------------------------------------------|
|--------------------------------------------------|
|--------------1--1-1-1-------1---------1----------|
|-1--1-1-1-1-1-------------------------------------|
|--------------------------------------------------|

 Guitar Solo
|---------------------------|---------------------------|
|---------------------------|---------------------------|
|---------------------------|---------------------------|
|--5--5-5-5-5-5-5-5-5-5-5-5-|--0--0-0-0-0-0-0-0-0-0-0-0-|
|---------------------------|---------------------------|
|---------------------------|---------------------------|


|----------------------------|
|----------------------------|
|----------------------------|
|--3--3-3-3-3-3-3-3-3-3-3-3--|
|----------------------------|
|----------------------------|


|---------------------------|---------------------------|
|---------------------------|---------------------------|
|---------------------------|---------------------------|
|---------------------------|--5--5-5-5-5-5-5-5-5-5-5-5-|
|--3--3-3-3-3-3-3-3-3-3-3-3-|---------------------------|
|---------------------------|---------------------------|


|---------------------------|------------------------------|
|---------------------------|------------------------------|
|---------------------------|------------------------------|
|--0--0-0-0-0-0-0-0-0-0-0-0-|--3--3-3-3-3-3-3-3-3-3-3-3----|
|---------------------------|------------------------------|
|---------------------------|------------------------------|


|---------------------------|----------0h2-----------0h2-|
|---------------------------|----------------------------|
|---------------------------|-0--0-0-0------0--0-0-0-----|
|--1--1-1-1-1-1-1-1-1-1-1-1-|----------------------------|
|---------------------------|----------------------------|
|---------------------------|----------------------------|


|----------0h2-----------0h2--|
|-----------------------------|
|-----------------------------|
|-3--3-3-3------3--3-3-3------|
|-----------------------------|
|-----------------------------|


|----------0h2---------------|-----------------------|
|----------------------------|-----------------------|
|----------------------------|-----------------------|
|-2--2-2-2------2--2-2-2-2-2-|-1--1-1-1-1-1-1--1--1--|
|----------------------------|-----------------------|
|----------------------------|-----------------------|

 Interlude
 4/4
|---------------|---------------|---------------|----------------|
|---------------|---------------|---------------|----------------|
|---------------|---------------|---------------|----------------|
|---------------|---------------|---------------|----2-4-3-----2-|
|-0--0-0-0-0--6-|-0--0-0-0-3-2--|-0--0-0-0-0--6-|-0--------2-1---|
|---------------|---------------|---------------|----------------|


|---------------|---------------|---------------|----------------|
|---------------|---------------|---------------|----------------|
|---------------|---------------|---------------|----------------|
|---------------|---------------|---------------|----2-4-3-----2-|
|-0--0-0-0-0--6-|-0--0-0-0-3-2--|-0--0-0-0-0--6-|-0--------2-1---|
|---------------|---------------|---------------|----------------|


|----------------|----------------|-----------------|-----------------|
|----------------|----------------|-----------------|-----------------|
|----------------|----------------|-----------------|-----------------|
|----------------|----------------|-----------------|-------------2---|
|-0-0---0-0------|-0-0---0-0S7-6--|-0-0---0---0-3---|-0-0---0---0---1-|
|------------8\--|----------------|---------------3-|-----------------|


|-----------------|-----------------|
|-----------------|-----------------|
|-----------------|-----------------|
|-----------------|-----------------|
|-0-0---0---0-3---|-0-0---0---/7-6--|
|---------------3-|-----------------|


|---------------------------------|---------------------------------|
|---------------------------------|---------------------7---6---5---|
|---------------------9---8---7---|---------------------------------|
|---------------------------------|---------------------------------|
|-0---0-------0-------------------|-0---0-------0-------------------|
|---------------------------------|---------------------------------|


|---------------------------------|---------------------------------|
|---------------------------------|---------------------------------|
|---------------------9---8---7---|---------------------------------|
|---------------------------------|---------------------------------|
|-0---0-------0-------------------|-0---0-------0-------7---6-------|
|---------------------------------|---------------------------------|


|---------------------------------|---------------------------------|
|---------------------------------|---------------------7---6---5---|
|---------------------9---8---7---|---------------------------------|
|---------------------------------|---------------------------------|
|-0---0-------0-------------------|-0---0-------0-------------------|
|---------------------------------|---------------------------------|


|---------------------------------|---------------------------------|
|---------------------------------|---------------------7---6---5---|
|---------------------9---8---7---|---------------------------------|
|---------------------------------|---------------------------------|
|-0---0-------0-------------------|-0---0-------0-------------------|
|---------------------------------|---------------------------------|


|--------------------|---------------------|
|--------------------|---------------------|
|---------------2----|-(2)-----------------|
|--------------------|---------------------|
|--------------------|---------------------|
|-5-5-5-5-5-3-5------|--------5--3-3-5-3-5-|


|--------------------|---------------------|
|--------------------|---------------------|
|---------------2----|-(2)-----------------|
|--------------------|---------------------|
|--------------------|---------------------|
|-5-5-5-5-5-3-5------|--------5--3-3-5-3-1-|


|--------------------|---------------------|
|--------------------|---------------------|
|---------------2----|-(2)-----------------|
|--------------------|---------------------|
|--------------------|---------------------|
|-5-5-5-5-5-3-5------|--------5--3-3-5-3-5-|


|--------------------|---------------------|
|--------------------|---------------------|
|---------------2----|-(2)-----------------|
|--------------------|---------------------|
|--------------------|---------------------|
|-5-5-5-5-5-3-5------|--------5--3-3-5-3-5-|


|----------------|----------------|----------------|----------------|
|----------------|----------------|----------------|----------------|
|----------------|----------------|----------------|----------------|
|----7-5---------|-5--------------|----7-5---------|-5--------------|
|-0------7-6-5-0-|---7-6-5-3-5-3--|-0------7-6-5-0-|---7-6-5-3-5-3--|
|----------------|----------------|----------------|----------------|


|----------------|----------------|----------------|----------------|
|----------------|----------------|----------------|----------------|
|----------------|----------------|----------------|----------------|
|----7-5---------|-5--------------|----7-5---------|-5--------------|
|-0------7-6-5-0-|---7-6-5-3-5-3--|-0------7-6-5-0-|---7-6-5-3-5-3--|
|----------------|----------------|----------------|----------------|


 Chorus
 6/4
|---------------------------|---------------------------|
|---------------------------|---------------------------|
|---------------------------|---------------------------|
|---------------------------|---------------------------|
|--5--5-5-5-5-5-5-5-5-5-5-5-|--0--0-0-0-0-0-0-0-0-0-0-0-|
|---------------------------|---------------------------|


|------------------------------------|
|------------------------------------|
|------------------------------------|
|------------------------------------|
|--3--3-3-3-3-3---3--3---3--3---3--3-|
|------------------------------------|


|----------------------------------------------------------------|
|----------------------------------------------------------------|
|----------------------------------------------------------------|
|----------------------------------------------------------------|
|----------------------------------------------------------------|
|--3--3-3-3-3-3---3--3-3-------3--------3-----------3------------|


|---------------------------|---------------------------|
|---------------------------|---------------------------|
|---------------------------|---------------------------|
|---------------------------|---------------------------|
|--5--5-5-5-5-5-5-5-5-5-5-5-|--0--0-0-0-0-0-0-0-0-0-0-0-|
|---------------------------|---------------------------|


|---------------------------|---------------------------|
|---------------------------|---------------------------|
|---------------------------|---------------------------|
|---------------------------|---------------------------|
|--3--3-3-3-3-3-3-3-3-3-3-3-|--1--1-1-1-1-1-1-1-1-1-1-1-|
|---------------------------|---------------------------|


|------------------------------------------------------|
|------------------------------------------------------|
|------------------------------------------------------|
|------------------------------------------------------|
|--5--5-5-5-5-5-5-5-5-5-5-5---5--5-5-5-5-5-5-5-5-5-5-5-|
|------------------------------------------------------|


|-------------------------------------------------------|
|-------------------------------------------------------|
|-------------------------------------------------------|
|-------------------------------------------------------|
|--3--3-3-3-3-3-3-3-3-3-3-3---3--3-3-3-3-3-3-3-3-3-3-3--|
|-------------------------------------------------------|


|------------------------------------------------------|
|------------------------------------------------------|
|------------------------------------------------------|
|------------------------------------------------------|
|--2--2-2-2-2-2-2-2-2-2-2-2---2--2-2-2-2-2-2-2-2-2-2-2-|
|------------------------------------------------------|


|-----------------------------|
|-----------------------------|
|-----------------------------|
|-----------------------------|
|--1--1-1-1-1-1-1-1-1-1-1-1---|
|-----------------------------|

 Outro
 4/4
|---------------|---------------|---------------|----------------|
|---------------|---------------|---------------|----------------|
|---------------|---------------|---------------|----------------|
|---------------|---------------|---------------|----2-4-3-----2-|
|-0--0-0-0-0--6-|-0--0-0-0-3-2--|-0--0-0-0-0--6-|-0--------2-1---|
|---------------|---------------|---------------|----------------|


|---------------|---------------|---------------|----------------|
|---------------|---------------|---------------|----------------|
|---------------|---------------|---------------|----------------|
|---------------|---------------|---------------|----2-4-3-----2-|
|-0--0-0-0-0--6-|-0--0-0-0-3-2--|-0--0-0-0-0--6-|-0--------2-1---|
|---------------|---------------|---------------|----------------|


|---------------|---------------|---------------|----------------|
|---------------|---------------|---------------|----------------|
|---------------|---------------|---------------|----------------|
|---------------|---------------|---------------|----2-4-3-----2-|
|-0--0-0-0-0--6-|-0--0-0-0-3-2--|-0--0-0-0-0--6-|-0--------2-1---|
|---------------|---------------|---------------|----------------|


|---------------|---------------|
|---------------|---------------|
|---------------|---------------|
|---------------|---------------|
|-0--0-0-0-0--6-|-0--0-0-0-3-2--|
|---------------|---------------|


|---------------|----------------|-------------|
|---------------|----------------|-------------|
|---------------|----------------|-------------|
|---------------|----2-4-3-----2-|-------------|
|-0--0-0-0-0--6-|-0--------2-1---|-0-0---------|
|---------------|----------------|-------------|


FIN!



| /  slide up
| \  slide down
| h  hammer-on
| p  pull-off
| ~  vibrato
| +  harmonic
| x  Mute note
comments
We did not receive enough feedback on this tab! Please rate:
print report bad tab
1 2 3 4 5
1 comment total.
0 reply
skater710 wrote on July 26 2007, 02:18 am

Why do you NEED a 6-String when you can just go:

5h7 on the G ?

Oh well...Good job.

I want to post or [tab]
guest
You may want to rate the tab now too:
select rating
Please do not post tabs as comments. Select "correction" instead!