Oops, an error
Loading. Please wait.

Piano Concerto In A Minor Tab

948 views 6 this week
1 commentread comment
1 2 3 4 5
please rate
Autoscroll
+/-
esc
set tempo
stop
Hey! There's an official Ultimate Guitar app which is ideal
for learning songs when you're away from computer. Get the app
WARNING: You are trying to view
                                    content from Ultimate-Guitar.com
                                    in an unauthorized application,
                                    which is prohibited.

                                    Please use an official Ultimate
                                    Guitar Tabs application for iPhone,
                                    iPad or Android to access legitimate
                                    chords, guitar, bass, and drum tabs
                                    from Ultimate-Guitar.com database.

                                    Type "ultimate guitar tabs" in Apple
                                    App Store's or Android Market's
                                    search to find the application.
================================================================================
Title : Piano Concerto In A Minor, Opus No. 2
Artist : Chopin
From: John Petrucci's column in guitar world.
Tabbed: John Grivas (metros@accesshub.net)
================================================================================

Legend
------

 h  = hammer-on
 p  = pull-off
 b  = bend
 r  = bend release
 /  = slide up/down
<5> = natural harmonic
[5] = artifical harmonic
 ~  = vibrato
 tr = trill

E|-------------------------------------------------|-9-10-11-12-13-12-11-
B|-------------------------------------10-11-12-13-|---------------------
G|-------------------------10-11-12-13-------------|---------------------
D|-------------11-12-13-14-------------------------|---------------------
A|-12-13-14-15-------------------------------------|---------------------
E|-------------------------------------------------|---------------------

E|-10------------------------|------------------------------------------
B|----14-13-12-11-10-9-12-10-|------------------------------------------
G|---------------------------|-13-12-11-10-9-8-10-9---------------------
D|---------------------------|----------------------13-12-11-10-9-10-12-
A|---------------------------|------------------------------------------
E|---------------------------|------------------------------------------

E|----|-------------------------------------------|----------------------
B|----|-------------------------------------------|----------------------
G|----|-----------------------9-------------------|----------------------
D|-10-|-9-10-9-10-9-10-9-10-9---13-12-11-10-------|-------------11-12-13-
A|----|-------------------------------------14-13-|-12-13-14-15----------
E|----|-------------------------------------------|----------------------

E|----------------------------|-9-10-11-12-13-12-11-10------------------
B|----------------10-11-12-13-|------------------------14-13-12-11-10-9-
G|----10-11-12-13-------------|-----------------------------------------
D|-14-------------------------|-----------------------------------------
A|----------------------------|-----------------------------------------
E|----------------------------|-----------------------------------------

E|-------|---------------8------------------------------|--------------
B|-12-10-|----9-10-11-12---12-11-10-9-------------------|--------------
G|-------|-12-------------------------12-11-10-11-12-11-|-9-10----9----
D|-------|----------------------------------------------|------13---12-
A|-------|----------------------------------------------|--------------
E|-------|----------------------------------------------|--------------

E-----------------------------|--------------------------------------|-
B-----------------------------|------------------6-7-8-9-10-11-12-13-|-
G-9---------------------------|----------6-7-8-9---------------------|-
D---11-12-10-12-9-10-9-10-8-9-|-7-8-9-10-----------------------------|-
A-----------------------------|--------------------------------------|-
E-----------------------------|--------------------------------------|-

E|-9-10-11-12-13-12-11-10------------------------|----------------------
B|------------------------14-13-12-11-10-9-12-10-|----------------------
G|-----------------------------------------------|-13-12-11-10-9-8-10-9-
D|-----------------------------------------------|----------------------
A|-----------------------------------------------|----------------------
E|-----------------------------------------------|----------------------

E|------------------------|-------------------------------------------|-
B|------------------------|-------------------------------------------|-
G|------------------------|-----------------------9-------------------|-
D|-13-12-11-10-9-10-12-10-|-9-10-9-10-9-10-9-10-9---13-12-11-10-------|-
A|------------------------|-------------------------------------14-13-|-
E|------------------------|-------------------------------------------|-

E|-------------------------------------------------|-9-10-11-12-13-12-11-
B|-------------------------------------10-11-12-13-|---------------------
G|-------------------------10-11-12-13-------------|---------------------
D|-------------11-12-13-14-------------------------|---------------------
A|-12-13-14-15-------------------------------------|---------------------
E|-------------------------------------------------|---------------------

E|-10-------------------------|-------------------12-13-12-13-14-15-16-
B|----14-13-12-11-------------|-------13-14-15-16----------------------
G|----------------14-13-16-14-|-15-16----------------------------------
D|----------------------------|----------------------------------------
A|----------------------------|----------------------------------------
E|----------------------------|----------------------------------------

E|-17-18-19-|-17-16-15-14-------------------------------------|----------
B|----------|-------------18-17-16-15-------------------------|----------
G|----------|-------------------------18-17-16-14-------------|----------
D|----------|-------------------------------------19-18-17-16-|-15-14-13-
A|----------|-------------------------------------------------|----------
E|----------|-------------------------------------------------|----------

E|--------------------------------------|-------------------------------
B|--------------------------------------|-------------------------------
G|--------------------------------------|------------------8-9-14-13-12-
D|-12----12-15-12----10-14-10----9-14-9-|-------9-10-11-12--------------
A|----16----------14----------13--------|-12-13-------------------------
E|--------------------------------------|-------------------------------

E|----------------|-------------------------------------------------|----
B|----------------|-------------------------------------------------|----
G|-11-------------|-------------------------------12-13-14----------|----
D|----15-14-13-12-|-------------------13-14-15-16----------14-15-12-|----
A|----------------|-16-15-14-15-16-17-------------------------------|-16-
E|----------------|-------------------------------------------------|----

E|----------------------------------------------|----------------------
B|----------------------------------------------|----------------------
G|----------------------------12-13-------------|----------------------
D|----------------13-14-15-16-------17-16-15-14-|-------------------15-
A|-15-14-15-16-17-------------------------------|-18-17-16-17-18-19----
E|----------------------------------------------|----------------------

E|----------------------------|----------------------------------------
B|----------------------------|----------------------------------------
G|----------14-15-------------|-------------------------------14-15----
D|-16-17-18-------19-16-17----|-------------------15-16-17-18-------19-
A|-------------------------18-|-17-18-16-17-18-19----------------------
E|----------------------------|----------------------------------------

E|----------|-------------------------------------------------|----------
B|----------|-------------------------------12-13-------------|----------
G|----------|-------------------12-13-14-15-------16-15-14-13-|----------
D|-18-17-16-|-15-14-13-14-15-16-------------------------------|-17-16-15-
A|----------|-------------------------------------------------|----------
E|----------|-------------------------------------------------|----------

E|----------------------------------------|----------------------------
B|----------------------------14-15-16-17-|-18-17-16-15----------------
G|----------------14-15-16-17-------------|-------------18-17-16-15----
D|-14-15-16-17-18-------------------------|-------------------------19-
A|----------------------------------------|----------------------------
E|----------------------------------------|----------------------------

E|----------------------|----------------------------------------------
B|----------------------|-16-15-14-13----------------------------------
G|----------------------|-------------16-15-14-13----------------------
D|-18-17-16-15-14-13-14-|-------------------------17-16-15-14-13-12-11-
A|----------------------|----------------------------------------------
E|----------------------|----------------------------------------------

E|----|-------------------------------------------------|----------------
B|----|-15-14-13-12-------------------------11-12-13-12-|-15-13-11-10----
G|----|-------------15-14-13-12-11-12-13-14-------------|-------------13-
D|-12-|-------------------------------------------------|----------------
A|----|-------------------------------------------------|----------------
E|----|-------------------------------------------------|----------------

E|--------------------------------|--------------------------------------
B|---------------------9-10-11-10-|-13-11-10-9---------------------------
G|-12-11-10-9-10-11-12------------|------------12-11-10-9----------------
D|--------------------------------|-----------------------13-12-11-10----
A|--------------------------------|-----------------------------------13-
E|--------------------------------|--------------------------------------

E|----------|-----------------------------------------------|------------
B|----------|-----------------------------------------------|------------
G|----------|-----------------------------------------------|------------
D|----------|-----------------------------------------------|------------
A|-12-11-10-|-9-10-11-12-13-12-11-10-9-10-11-12-13-12-11-10-|-9-10-11-12-
E|----------|-----------------------------------------------|------------

E|-------------------------------------|-----12-13----12----------------
B|-------------------------------------|-----------15----13-15-12-13----
G|-------------------------------------|-----------------------------14-
D|-------------------------------------|--------------------------------
A|-15-14-13-12-11-12-13-14-15-14-13-12-|-11-----------------------------
E|-------------------------------------|--------------------------------

E|----------|-------------10-12----10-------------------------|----------
B|-12-------|-------------------13----12-13-10-12----10-------|----------
G|----12-14-|----12-------------------------------13----10-12-|----10----
D|----------|-15----14-15-------------------------------------|-14----13-
A|----------|-------------------------------------------------|----------
E|----------|-------------------------------------------------|----------

E|----8-10----8----------------------|----------------------------------
B|---------12---10-12-8-10----8------|----------------------------------
G|-------------------------10---9-10-|-7-9----7-------------------------
D|-14--------------------------------|-----10---9-10-7-9----------------
A|-----------------------------------|-------------------11-8-------8-9-
E|-----------------------------------|------------------------11-12-----

E|-------|-------------------------------------------------|-9-10-11-12-
B|-------|-------------------------------------10-11-12-13-|------------
G|-------|-------------------------10-11-12-13-------------|------------
D|-------|-------------11-12-13-14-------------------------|------------
A|-10-11-|-12-13-14-15-------------------------------------|------------
E|-------|-------------------------------------------------|------------

E|-13-12-11-10------------------------|----------------------------------
B|-------------14-13-12-11-10-9-12-10-|----------------------------------
G|------------------------------------|-13-12-11-10-9-8-10-9-------------
D|------------------------------------|----------------------13-12-11-10-
A|------------------------------------|----------------------------------
E|------------------------------------|----------------------------------

E|------------|-------------------------------------------|-------------
B|------------|-------------------------------------------|-------------
G|------------|-----------------------9-------------------|-------------
D|-9-10-12-10-|-9-10-9-10-9-10-9-10-9---13-12-11-10-------|-------------
A|------------|-------------------------------------14-13-|-12-13-14-15-
E|------------|-------------------------------------------|-------------

E|-------------------------------------|-9-10-11-12-13-12-11-10----------
B|-------------------------10-11-12-13-|------------------------14-13-12-
G|-------------10-11-12-13-------------|---------------------------------
D|-11-12-13-14-------------------------|---------------------------------
A|-------------------------------------|---------------------------------
E|-------------------------------------|---------------------------------

E|---------------|-------------------12-13-12-13-14-15-16-17-18-19-|-17-
B|-11-10-9-12-10-|-------13-14-15-16-------------------------------|----
G|---------------|-15-16-------------------------------------------|----
D|---------------|-------------------------------------------------|----
A|---------------|-------------------------------------------------|----
E|---------------|-------------------------------------------------|----

E|-16-15-14-------------------------------------|----------------------
B|----------18-17-16-15-------------------------|----------------------
G|----------------------18-17-16-15-------------|----------------------
D|----------------------------------19-18-17-16-|-15-14-13-12----------
A|----------------------------------------------|-------------16-15-14-
E|----------------------------------------------|----------------------

E|----------------------------|------------------|-
B|----------------------------|------------------|-
G|----------------------------|------------------|-
D|----------------------------|------------------|-
A|-13-------------------------|------------------|-
E|----17-16-15-14-13-12-11-10-|-9----------------|-
comments
We did not receive enough feedback on this tab! Please rate:
print report bad tab
1 2 3 4 5
1 comment total.
0 reply
madbass wrote on March 26 2013, 05:15 pm

This is a piano etude that you tabbed that John Petrucci played, not a concerto.

I want to post or [tab]
guest
You may want to rate the tab now too:
select rating
Please do not post tabs as comments. Select "correction" instead!