Oops, an error
Loading. Please wait.

Prophets Of War Bass Tab

ver1
ver1

Whole song

Interactive

More versions @911Tabs.com
3,007 views 9 this week
1 commentread comment
1 2 3 4 5
excellent!
x 3
Autoscroll
+/-
esc
set tempo
stop
Contributor
Difficulty
intermediate
Hey! There's an official Ultimate Guitar app which is ideal
for learning songs when you're away from computer. Get the app
WARNING: You are trying to view
                                    content from Ultimate-Guitar.com
                                    in an unauthorized application,
                                    which is prohibited.

                                    Please use an official Ultimate
                                    Guitar Tabs application for iPhone,
                                    iPad or Android to access legitimate
                                    chords, guitar, bass, and drum tabs
                                    from Ultimate-Guitar.com database.

                                    Type "ultimate guitar tabs" in Apple
                                    App Store's or Android Market's
                                    search to find the application.
                                Prophets Of War                                 
                                 Dream Theater
                           Transcribed By Dan Angelow
This is a great song:D
Please rate and comment if you have any suggestions.
Merry Christmas:D         

Bass



     W                   W                   W                 
G||-------------------|-------------------|-------------------|
D||-------------------|-------------------|-------------------|
A||-------------------|-------------------|-------------------|
E||-------------------|-------------------|-------------------|
B||-------------------|-------------------|-------------------|


  W                   W                   W                   W                 
-------------------|-------------------|-------------------|-------------------|
-------------------|-------------------|-------------------|-------------------|
-------------------|-------------------|-------------------|-------------------|
-------------------|-------------------|-------------------|-------------------|
-------------------|-------------------|-------------------|-------------------|


  W                   W                   W                   W                 
-------------------|-------------------|-------------------|-------------------|
-------------------|-------------------|-------------------|-------------------|
-------------------|-------------------|-------------------|-------------------|
-------------------|-------------------|-------------------|-------------------|
-------------------|-------------------|-------------------|-------------------|


  W                   S S S S S S S S S S S S S S S S  
-------------------|----------------------------------|
-------------------|----------------------------------|
-------------------|----------------------------------|
-------------------|--0-0-0-0-0-0-0-0-0-0-0-0-0-0-0-0-|
-------------------|----------------------------------|


  S S S S S S S S S S S S S S S S    S S S S S S S S S S S S S S S S  
----------------------------------|----------------------------------|
----------------------------------|----------------------------------|
----------------------------------|----------------------------------|
--0-0-0-0-0-0-0-0-0-0-0-0-0-0-0-0-|----------------------------------|
----------------------------------|--4-4-4-4-4-4-4-4-4-4-4-4-4-4-4-4-|


  S S S S S S S S S S S S S S S S    S S S S S S S S S S S S S S S S  
----------------------------------|----------------------------------|
----------------------------------|----------------------------------|
----------------------------------|----------------------------------|
----------------------------------|--3-3-3-3-3-3-3-3-3-3-3-3-3-3-3-3-|
--4-4-4-4-4-4-4-4-4-4-4-4-4-4-4-4-|----------------------------------|


  S S S S S S S S S S S S S S S S    S S S S S S S S S S S S S S S S  
----------------------------------|----------------------------------|
----------------------------------|----------------------------------|
----------------------------------|----------------------------------|
--3-3-3-3-3-3-3-3-3-3-3-3-3-3-3-3-|--5-5-5-5-5-5-5-5-5-5-5-5-5-5-5-5-|
----------------------------------|----------------------------------|


  S S S S S S S S S S S S S S S S    S S S S S S S S S S S S S S S S  
----------------------------------|----------------------------------|
----------------------------------|--7-7-7-7-7-7-7-7-7-7-7-7-7-7-7-7-|
----------------------------------|----------------------------------|
--5-5-5-5-5-5-5-5-5-5-5-5-5-5-5-5-|----------------------------------|
----------------------------------|----------------------------------|


  S S S S S S S S S S S S S S S S    S S S S S S S S S S S S S S S S  
----------------------------------|----------------------------------|
--7-7-7-7-7-7-7-7-7-7-7-7-7-7-7-7-|--5-5-5-5-5-5-5-5-5-5-5-5-5-5-5-5-|
----------------------------------|----------------------------------|
----------------------------------|----------------------------------|
----------------------------------|----------------------------------|


  S S S S S S S S S S S S S S S S    S S S S S S S S S S S S S S S S  
----------------------------------|----------------------------------|
--5-5-5-5-5-5-5-5-5-5-5-5-5-5-5-5-|--4-4-4-4-4-4-4-4-4-4-4-4-4-4-4-4-|
----------------------------------|----------------------------------|
----------------------------------|----------------------------------|
----------------------------------|----------------------------------|


  S S S S S S S S S S S S S S S S     S S S S S S S S S S S S S S S S  
-----------------------------------|----------------------------------|
--4-4-4-4-4-4-4-4-4-4-4-4-4-4-4-4s-|--9-9-9-9-9-9-9-9-9-9-9-9-9-9-9-9-|
-----------------------------------|----------------------------------|
-----------------------------------|----------------------------------|
-----------------------------------|----------------------------------|


  S S S S S S S S S S S S S S E      S S S S S S S S S S S S S S S S  
----------------------------------|--5-5-5-5-5-5-5-5-5-5-5-5-5-5-5-5-|
--9-9-9-9-9-9-9-9-9-9-9-9-9-9-9\--|----------------------------------|
----------------------------------|----------------------------------|
----------------------------------|----------------------------------|
----------------------------------|----------------------------------|


  S S S S S S S S S S S S S S S S    S S S S S S S S S S S S S S S S  
--5-5-5-5-5-5-5-5-5-5-5-5-5-5-5-5-|--5-5-5-5-5-5-5-5-5-5-5-5-5-5-5-5-|
----------------------------------|----------------------------------|
----------------------------------|----------------------------------|
----------------------------------|----------------------------------|
----------------------------------|----------------------------------|


  S S S S S S S S S S S S S S S S    S S S S S S S S S S S S S S S S  
--5-5-5-5-5-5-5-5-5-5-5-5-5-5-5-5-|----------------------------------|
----------------------------------|--5-5-5-5-5-5-5-5-5-5-5-5-5-5-5-5-|
----------------------------------|----------------------------------|
----------------------------------|----------------------------------|
----------------------------------|----------------------------------|


  S S S S S S S S S S S S S S S S    S S S S S S S S S S S S S S S S  
----------------------------------|----------------------------------|
--5-5-5-5-5-5-5-5-5-5-5-5-5-5-5-5-|--5-5-5-5-5-5-5-5-5-5-5-5-5-5-5-5-|
----------------------------------|----------------------------------|
----------------------------------|----------------------------------|
----------------------------------|----------------------------------|


  S S S S S S S S S S S S S S S S    S S S S S S S S S S S S S S S S  
----------------------------------|--4-4-4-4-4-4-4-4-4-4-4-4-4-4-4-4-|
--5-5-5-5-5-5-5-5-5-5-5-5-5-5-5-5-|----------------------------------|
----------------------------------|----------------------------------|
----------------------------------|----------------------------------|
----------------------------------|----------------------------------|


  S S S S S S S S S S S S S S S S    S S S S S S S S S S S S S S S S  
--4-4-4-4-4-4-4-4-4-4-4-4-4-4-4-4-|--4-4-4-4-4-4-4-4-4-4-4-4-4-4-4-4-|
----------------------------------|----------------------------------|
----------------------------------|----------------------------------|
----------------------------------|----------------------------------|
----------------------------------|----------------------------------|


  S S S S S S S S S S S S S S S S    W                   W                 
--4-4-4-4-4-4-4-4-4-4-4-4-4-4-4-4-|-------------------|-------------------|
----------------------------------|-------------------|-------------------|
----------------------------------|-------------------|-------------------|
----------------------------------|--0----------------|--L----------------|
----------------------------------|-------------------|-------------------|


  W                   Q.     E  E  E  E  E     Q    E   E   E  E  E  E   
-------------------|------------------------|---------------------------|
-------------------|------------------------|---------------------------|
-------------------|---------5--5--------8--|--7-------10--10--9--9--7--|
--L----------------|--L------------6--6-----|-------0-------------------|
-------------------|------------------------|---------------------------|


  Q    E   E   E   E   E  E     Q    E   E   E   E   E   E   
-----------------------------|------------------------------|
-----------------------------|------------------------------|
--7-------12--12--10--10--7--|--7-------15--15--14--14--12--|
-------0---------------------|-------0----------------------|
-----------------------------|------------------------------|


   E   E   E  E  E  E  E  E     Q    E   E   E  E  E  E   
-----------------------------|---------------------------|
-----------------------------|---------------------------|
--12--10--10--5--5--------8--|--7-------10--10--9--9--7--|
--------------------6--6-----|-------0-------------------|
-----------------------------|---------------------------|


  Q    E   E   E   E   E  E     Q    E   E   E   E   E   E   
-----------------------------|------------------------------|
-----------------------------|------------------------------|
--7-------12--12--10--10--7--|--7-------15--15--14--14--12--|
-------0---------------------|-------0----------------------|
-----------------------------|------------------------------|


   E   E   E  E  E  E  E  E     S S S S S S S S S S S S S S S S  
-----------------------------|--9-9-9-9-9-9-9-9-9-9-9-9-9-9-9-9-|
-----------------------------|----------------------------------|
--12--10--10--5--5--------8--|----------------------------------|
--------------------6--6-----|----------------------------------|
-----------------------------|----------------------------------|


  S S S S S S S S S S S S S S S S    S S S S S S S S S S S S S S S S  
--9-9-9-9-9-9-9-9-9-9-9-9-9-9-9-9-|--8-8-8-8-8-8-8-8-8-8-8-8-8-8-8-8-|
----------------------------------|----------------------------------|
----------------------------------|----------------------------------|
----------------------------------|----------------------------------|
----------------------------------|----------------------------------|


  S S S S S S S S S S S S S S S S    S S S S S S S S S S S S S S S S  
--8-8-8-8-8-8-8-8-8-8-8-8-8-8-8-8-|--7-7-7-7-7-7-7-7-7-7-7-7-7-7-7-7-|
----------------------------------|----------------------------------|
----------------------------------|----------------------------------|
----------------------------------|----------------------------------|
----------------------------------|----------------------------------|


  S S S S S S S S S S S S S S S S    S S S S S S S S S S S S S S S S  
--7-7-7-7-7-7-7-7-7-7-7-7-7-7-7-7-|--6-6-6-6-6-6-6-6-6-6-6-6-6-6-6-6-|
----------------------------------|----------------------------------|
----------------------------------|----------------------------------|
----------------------------------|----------------------------------|
----------------------------------|----------------------------------|


  S S S S S S S S S S S S S S S S    S S S S S S S S S S S S S S S S  
--6-6-6-6-6-6-6-6-6-6-6-6-6-6-6-6-|--5-5-5-5-5-5-5-5-5-5-5-5-5-5-5-5-|
----------------------------------|----------------------------------|
----------------------------------|----------------------------------|
----------------------------------|----------------------------------|
----------------------------------|----------------------------------|


  S S S S S S S S S S S S S S S S    S S S S S S S S S S S S S S S S  
--5-5-5-5-5-5-5-5-5-5-5-5-5-5-5-5-|--4-4-4-4-4-4-4-4-4-4-4-4-4-4-4-4-|
----------------------------------|----------------------------------|
----------------------------------|----------------------------------|
----------------------------------|----------------------------------|
----------------------------------|----------------------------------|


  S S S S S S S S S S S S S S S S    S S S S S S S S S S S S S S S S  
--4-4-4-4-4-4-4-4-4-4-4-4-4-4-4-4-|----------------------------------|
----------------------------------|----------------------------------|
----------------------------------|--7-7-7-7-7-7-7-7-7-7-7-7-7-7-7-7-|
----------------------------------|----------------------------------|
----------------------------------|----------------------------------|


  S S S S S S S S S S S S S S S S    S S S S S S S S S S S S S S S S  
----------------------------------|----------------------------------|
----------------------------------|----------------------------------|
--7-7-7-7-7-7-7-7-7-7-7-7-7-7-7-7-|--6-6-6-6-6-6-6-6-6-6-6-6-6-6-6-6-|
----------------------------------|----------------------------------|
----------------------------------|----------------------------------|


  S S S S S S S S S S S S S S S S    S S S S S S S S S S S S S S S S  
----------------------------------|----------------------------------|
----------------------------------|--5-5-5-5-5-5-5-5-5-5-5-5-5-5-5-5-|
--6-6-6-6-6-6-6-6-6-6-6-6-6-6-6-6-|----------------------------------|
----------------------------------|----------------------------------|
----------------------------------|----------------------------------|


  S S S S S S S S S S S S S S S S    S S S S S S S S S S S S S S S S  
----------------------------------|----------------------------------|
--5-5-5-5-5-5-5-5-5-5-5-5-5-5-5-5-|--7-7-7-7-7-7-7-7-7-7-7-7-7-7-7-7-|
----------------------------------|----------------------------------|
----------------------------------|----------------------------------|
----------------------------------|----------------------------------|


  S S S S S S S S S S S S S S S S    S S S S S S S S S S S S S S S S  
----------------------------------|----------------------------------|
--7-7-7-7-7-7-7-7-7-7-7-7-7-7-7-7-|--7-7-7-7-7-7-7-7-7-7-7-7-7-7-7-7-|
----------------------------------|----------------------------------|
----------------------------------|----------------------------------|
----------------------------------|----------------------------------|


  S S S S S S S S S S S S S S S S    S S S S S S S S S S S S S S S S  
----------------------------------|----------------------------------|
--7-7-7-7-7-7-7-7-7-7-7-7-7-7-7-7-|--5-5-5-5-5-5-5-5-5-5-5-5-5-5-5-5-|
----------------------------------|----------------------------------|
----------------------------------|----------------------------------|
----------------------------------|----------------------------------|


  S S S S S S S S S S S S S S S S    S S S S S S S S S S S S S S S S  
----------------------------------|----------------------------------|
--5-5-5-5-5-5-5-5-5-5-5-5-5-5-5-5-|--4-4-4-4-4-4-4-4-4-4-4-4-4-4-4-4-|
----------------------------------|----------------------------------|
----------------------------------|----------------------------------|
----------------------------------|----------------------------------|


  S S S S S S S S S S S S S S S S    S S S S S S S S S S S S S S S S  
----------------------------------|----------------------------------|
--4-4-4-4-4-4-4-4-4-4-4-4-4-4-4-4-|--9-9-9-9-9-9-9-9-9-9-9-9-9-9-9-9-|
----------------------------------|----------------------------------|
----------------------------------|----------------------------------|
----------------------------------|----------------------------------|


  S S S S S S S S S S S S S S S S    E  E  E  E  E  E  E  E   
----------------------------------|--------------------------|
--9-9-9-9-9-9-9-9-9-9-9-9-9-9-9-9-|--------------------------|
----------------------------------|--------------------------|
----------------------------------|--------------------------|
----------------------------------|--1--1--1--1--1--1--1--1--|


  E  E  E  E  E  E  E  E     E  E  E  E  E  E  E  E   
--------------------------|--------------------------|
--------------------------|--------------------------|
--------------------------|--------------------------|
--------------------------|--------------------------|
--1--1--1--1--1--1--1--1--|--1--1--1--1--1--1--1--1--|


  E  E  E  E  E  E  E  E     E  E  E  E  E  E  E  E   
--------------------------|--------------------------|
--------------------------|--------------------------|
--------------------------|--------------------------|
--------------------------|--3--3--3--3--3--3--3--3--|
--1--1--1--1--1--1--1--1--|--------------------------|


  E  E  E  E  E  E  E  E     E  E  E  E  E  E  E  E   
--------------------------|--------------------------|
--------------------------|--------------------------|
--------------------------|--------------------------|
--3--3--3--3--3--3--3--3--|--3--3--3--3--3--3--3--3--|
--------------------------|--------------------------|


  E  E  E  E  E  E  E  E     E  E  E  E  E  E  E  E   
--------------------------|--------------------------|
--------------------------|--------------------------|
--------------------------|--2--2--2--2--2--2--2--2--|
--3--3--3--3--3--3--3--3--|--------------------------|
--------------------------|--------------------------|


  E  E  E  E  E  E  E  E     E    E   E   E   E   E   E   E   
--------------------------|----------------------------------|
--------------------------|----------------------------------|
--2--2--2--2--2--2--2--2--|--2s--14--14--14--14--14--14--14--|
--------------------------|----------------------------------|
--------------------------|----------------------------------|


   E   E   E   E   E   E   E   E     Q    E   E   E  E  E  E   
----------------------------------|---------------------------|
----------------------------------|---------------------------|
--14--14--14--14--14--14--14--14--|--7-------10--10--9--9--7--|
----------------------------------|-------0-------------------|
----------------------------------|---------------------------|


  Q    E   E   E   E   E  E     Q    E   E   E   E   E   E   
-----------------------------|------------------------------|
-----------------------------|------------------------------|
--7-------12--12--10--10--7--|--7-------15--15--14--14--12--|
-------0---------------------|-------0----------------------|
-----------------------------|------------------------------|


   E   E   E  E  E  E  E  E     Q    E   E   E  E  E  E   
-----------------------------|---------------------------|
-----------------------------|---------------------------|
--12--10--10--5--5--------8--|--7-------10--10--9--9--7--|
--------------------6--6-----|-------0-------------------|
-----------------------------|---------------------------|


  Q    E   E   E   E   E  E     Q    E   E   E   E   E   E   
-----------------------------|------------------------------|
-----------------------------|------------------------------|
--7-------12--12--10--10--7--|--7-------15--15--14--14--12--|
-------0---------------------|-------0----------------------|
-----------------------------|------------------------------|


   E   E   E  E  E  E  E  E     Q    E   E   E  E  E  E   
-----------------------------|---------------------------|
-----------------------------|---------------------------|
--12--10--10--5--5--------8--|--7-------10--10--9--9--7--|
--------------------6--6-----|-------0-------------------|
-----------------------------|---------------------------|


  Q    E   E   E   E   E  E     Q    E   E   E   E   E   E   
-----------------------------|------------------------------|
-----------------------------|------------------------------|
--7-------12--12--10--10--7--|--7-------15--15--14--14--12--|
-------0---------------------|-------0----------------------|
-----------------------------|------------------------------|


   E   E   E  E  E  E  E  E     Q    E   E   E  E  E  E   
-----------------------------|---------------------------|
-----------------------------|---------------------------|
--12--10--10--5--5--------8--|--7-------10--10--9--9--7--|
--------------------6--6-----|-------0-------------------|
-----------------------------|---------------------------|


  Q    E   E   E   E   E  E     Q    E   E   E   E   E   E   
-----------------------------|------------------------------|
-----------------------------|------------------------------|
--7-------12--12--10--10--7--|--7-------15--15--14--14--12--|
-------0---------------------|-------0----------------------|
-----------------------------|------------------------------|


   E   E   E  E  E  E  E  E     W                   H        H         
-----------------------------|-------------------|--------------------|
-----------------------------|-------------------|--------------------|
--12--10--10--5--5--3--3--2--|--0----------------|--L--------0--------|
-----------------------------|-------------------|--------------------|
-----------------------------|-------------------|--------------------|


  W                   H        E  E  E  E     W                 
-------------------|-----------------------|-------------------|
-------------------|-----------------------|-------------------|
--2----------------|-----------------------|--0----------------|
-------------------|-----------------2--3--|-------------------|
-------------------|--0--------L--0--------|-------------------|


                                             |--3--|  |--3--|               
  H        Q    E  E     W                   E  E  E  E  E  E  Q     E  E   
----------------------|-------------------|--------------------------------|
----------------------|-------------------|--------------------------------|
--L--------0----------|-------------------|--7--7--7--7--7--7--7\----------|
----------------2--3--|--0----------------|--------------------------2--3--|
----------------------|-------------------|--------------------------------|


  H        Q.     E     E  E  E  E  Q    Q       W                 
---------------------|------------------------|-------------------|
------------------5--|--7--7--7--5--7----5----|-------------------|
--0--------L---------|------------------------|--3----------------|
---------------------|------------------------|-------------------|
---------------------|------------------------|-------------------|


  E  E  E  E  E  E  E  E     H        Q    Q        Q.     E  Q    E  E   
--------------------------|----------------------|-----------------------|
--------------------------|--5--------5----L\----|------------5----5-----|
--3--3--3--3--3--3--3--3--|----------------------|-----------------------|
--------------------------|----------------------|--3------3----------3--|
--------------------------|----------------------|-----------------------|


  E  E  E  E  E  E  E  E     E  E  E  E  E  E  E  E   
--------------------------|--------------------------|
--------------------------|--------------------------|
--2--2--2--2--2--2--2--2--|--2--2--2--2--2--2--2--2--|
--------------------------|--------------------------|
--------------------------|--------------------------|


  E    E   E   E   E   E   E   E      E   E   E   E   E   E   E   E   
----------------------------------|----------------------------------|
----------------------------------|----------------------------------|
--2s--14--14--14--14--14--14--14--|--14--14--14--14--14--14--14--14--|
----------------------------------|----------------------------------|
----------------------------------|----------------------------------|


  E  E  E  E  E  E  E  E     E  E  E  E  E  E  E  E   
--------------------------|--------------------------|
--------------------------|--------------------------|
--------------------------|--------------------------|
--0--0--0--0--0--0--0--0--|--0--0--0--0--0--0--0--0--|
--------------------------|--------------------------|


  E  E  E  E  E  E  E  E     E  E  E  E  E  E  E  E   
--------------------------|--------------------------|
--------------------------|--------------------------|
--------------------------|--------------------------|
--0--0--0--0--0--0--0--0--|--0--0--0--0--0--0--0--0--|
--------------------------|--------------------------|


  E  E  E  E  E  E  E  E     E  E  E  E  E  E  E  E   
--------------------------|--------------------------|
--------------------------|--------------------------|
--------------------------|--------------------------|
--3--3--3--3--3--3--3--3--|--3--3--3--3--3--3--3--3--|
--------------------------|--------------------------|


  E  E  E  E  E  E  E  E     E  E  E  E  E  E  E  E   
--------------------------|--------------------------|
--------------------------|--------------------------|
--------------------------|--------------------------|
--3--3--3--3--3--3--3--3--|--3--3--3--3--3--3--3--3--|
--------------------------|--------------------------|


  E  E  E  E  E  E  E  E     E  E  E  E  E  E  E  E   
--------------------------|--------------------------|
--------------------------|--------------------------|
--------------------------|--------------------------|
--5--5--5--5--5--5--5--5--|--5--5--5--5--5--5--5--5--|
--------------------------|--------------------------|


  E  E  E  E  E  E  E  E     E  E  E  E  E  E  E  E   
--------------------------|--------------------------|
--------------------------|--------------------------|
--------------------------|--------------------------|
--5--5--5--5--5--5--5--5--|--5--5--5--5--5--5--5--5--|
--------------------------|--------------------------|


  E  E  E  E  E  E  E  E     E  E  E  E  E  E  E  E   
--------------------------|--------------------------|
--------------------------|--------------------------|
--2--2--2--2--2--2--2--2--|--2--2--2--2--2--2--2--2--|
--------------------------|--------------------------|
--------------------------|--------------------------|


  E  E  E  E  E  E  E  E     E  E  E  E  E  E  E  E     W                 
--------------------------|--------------------------|-------------------|
--------------------------|--------------------------|-------------------|
--------------------------|--------------------------|-------------------|
--------------------------|--------------------------|-------------------|
--0--0--0--0--0--0--0--0--|--0--0--0--0--0--0--0--0--|--1----------------|


  W                   W                   W                   W                 
-------------------|-------------------|-------------------|-------------------|
-------------------|-------------------|-------------------|-------------------|
-------------------|-------------------|-------------------|-------------------|
-------------------|-------------------|-------------------|-------------------|
--L----------------|-------------------|-------------------|-------------------|


  W                   W                   W                 
-------------------|-------------------|-------------------|
-------------------|-------------------|-------------------|
-------------------|-------------------|-------------------|
-------------------|-------------------|-------------------|
-------------------|-------------------|-------------------|


  E  E  E  E  E  E  E  E     E  E  E  E  E  E  E  E    
--------------------------|---------------------------|
--------------------------|---------------------------|
--2--2--2--2--2--2--2--2--|--2--2--2--2--2--2--2--2s--|
--------------------------|---------------------------|
--------------------------|---------------------------|


   E   E   E   E   E   E   E   E      E   E   E   E   E  E  E  E   
----------------------------------|-------------------------------|
----------------------------------|-------------------------------|
--14--14--14--14--14--14--14--14--|--14--15--14--12--10--9--7--5--|
----------------------------------|-------------------------------|
----------------------------------|-------------------------------|


  E  E  E  E  E  E  E  E     E  E  E  E  E  E  E  E   
--------------------------|--------------------------|
--------------------------|--------------------------|
--------------------------|--------------------------|
--------------------------|--------------------------|
--1--1--1--1--1--1--1--1--|--1--1--1--1--1--1--1--1--|


  E  E  E  E  E  E  E  E     E  E  E  E  E  E  E  E   
--------------------------|--------------------------|
--------------------------|--------------------------|
--------------------------|--------------------------|
--------------------------|--------------------------|
--1--1--1--1--1--1--1--1--|--1--1--1--1--1--1--1--1--|


  E  E  E  E  E  E  E  E     E  E  E  E  E  E  E  E   
--------------------------|--------------------------|
--------------------------|--------------------------|
--------------------------|--------------------------|
--3--3--3--3--3--3--3--3--|--3--3--3--3--3--3--3--3--|
--------------------------|--------------------------|


  E  E  E  E  E  E  E  E     E  E  E  E  E  E  E  E   
--------------------------|--------------------------|
--------------------------|--------------------------|
--------------------------|--------------------------|
--3--3--3--3--3--3--3--3--|--3--3--3--3--3--3--3--3--|
--------------------------|--------------------------|


  E  E  E  E  E  E  E  E     E  E  E  E  E  E  E  E   
--------------------------|--------------------------|
--------------------------|--------------------------|
--------------------------|--------------------------|
--------------------------|--------------------------|
--1--1--1--1--1--1--1--1--|--1--1--1--1--1--1--1--1--|


  E  E  E  E  E  E  E  E     E  E  E  E  E  E  E  E   
--------------------------|--------------------------|
--------------------------|--------------------------|
--------------------------|--------------------------|
--------------------------|--------------------------|
--1--1--1--1--1--1--1--1--|--1--1--1--1--1--1--1--1--|


  E  E  E  E  E  E  E  E     E  E  E  E  E  E  E  E    
--------------------------|---------------------------|
--------------------------|---------------------------|
--------------------------|---------------------------|
--3--3--3--3--3--3--3--3--|--3--3--3--3--3--3--3--3s--|
--------------------------|---------------------------|


   E   E   E   E   E   E   E   E      E   E   E   E   E   E   E   E   
----------------------------------|----------------------------------|
----------------------------------|----------------------------------|
----------------------------------|----------------------------------|
--15--15--15--15--15--15--15--15--|--15--15--15--15--15--15--15--15--|
----------------------------------|----------------------------------|


  E  E  E  E  E  E  E  E     E  E  E  E  E  E  E  E   
--------------------------|--------------------------|
--------------------------|--------------------------|
--2--2--2--2--2--2--2--2--|--2--2--2--2--2--2--2--2--|
--------------------------|--------------------------|
--------------------------|--------------------------|


  E  E  E  E  E  E  E  E     E  E  E  E  E  E  E  E   
--------------------------|--------------------------|
--------------------------|--------------------------|
--2--2--2--2--2--2--2--2--|--2--2--2--2--2--2--2--2--|
--------------------------|--------------------------|
--------------------------|--------------------------|


  Q    E   E   E  E  E  E     Q    E   E   E   E   E  E   
---------------------------|-----------------------------|
---------------------------|-----------------------------|
--7-------10--10--9--9--7--|--7-------12--12--10--10--7--|
-------0-------------------|-------0---------------------|
---------------------------|-----------------------------|


  Q    E   E   E   E   E   E      E   E   E  E  E  E  E  E   
------------------------------|-----------------------------|
------------------------------|-----------------------------|
--7-------15--15--14--14--12--|--12--10--10--5--5--------8--|
-------0----------------------|--------------------6--6-----|
------------------------------|-----------------------------|


  Q    E   E   E  E  E  E     Q    E   E   E   E   E  E   
---------------------------|-----------------------------|
---------------------------|-----------------------------|
--7-------10--10--9--9--7--|--7-------12--12--10--10--7--|
-------0-------------------|-------0---------------------|
---------------------------|-----------------------------|


  Q    E   E   E   E   E   E      E   E   E  E  E  E  E  E   
------------------------------|-----------------------------|
------------------------------|-----------------------------|
--7-------15--15--14--14--12--|--12--10--10--5--5--------8--|
-------0----------------------|--------------------6--6-----|
------------------------------|-----------------------------|


  Q    E   E   E  E  E  E     Q    E   E   E   E   E  E   
---------------------------|-----------------------------|
---------------------------|-----------------------------|
--7-------10--10--9--9--7--|--7-------12--12--10--10--7--|
-------0-------------------|-------0---------------------|
---------------------------|-----------------------------|


  Q    E   E   E   E   E   E      E   E   E  E  E  E  E  E   
------------------------------|-----------------------------|
------------------------------|-----------------------------|
--7-------15--15--14--14--12--|--12--10--10--5--5--------8--|
-------0----------------------|--------------------6--6-----|
------------------------------|-----------------------------|


  Q    E  E  E  E  E  E     Q    E  E  E  E  E  E     Q    E  E  E  E  E  E   
-------------------------|-------------------------|-------------------------|
-------------------------|-------------------------|-------------------------|
-------------------------|-------------------------|-------------------------|
--0----0--3--3--2--2--0--|--0----0--5--5--3--3--0--|--0----0--8--8--7--7--5--|
-------------------------|-------------------------|-------------------------|


  E  E  E  E  E  E  E  E     W                   W                 
--------------------------|-------------------|-------------------|
--------------------------|-------------------|-------------------|
-----------5--5--------8--|-------------------|-------------------|
--5--3--3--------6--6-----|--0----------------|--L----------------|
--------------------------|-------------------|-------------------|


  W                   W                   W                   W                 
-------------------|-------------------|-------------------|-------------------|
-------------------|-------------------|-------------------|-------------------|
-------------------|-------------------|-------------------|-------------------|
--L----------------|--L----------------|--L----------------|--L----------------|
-------------------|-------------------|-------------------|-------------------|


  W                   W                   W                  
-------------------|-------------------|-------------------||
-------------------|-------------------|-------------------||
-------------------|-------------------|-------------------||
--L----------------|-------------------|-------------------||
-------------------|-------------------|-------------------||




Duration Legend
---------------
W - whole
H - half
Q - quarter
E - 8th
S - 16th
T - 32nd
X - 64th
. - note dotted
|-n-|  - n-tuplets


Tablature Legend
----------------
L - tied note
x - dead note
g - grace note
(n) - ghost note
> - accentuded note
NH - natural harmonic
AH - artificial harmonic
TH - tapped harmonic
SH - semi harmonic
PH - pitch harmonic
h - hammer on
p - pull off
b - bend
br - bendRelease
pb - preBend
pbr - preBendRelease
brb - bendReleaseBend
\n/ - tremolo bar dip
\n - tremolo bar dive
-/n - tremolo bar Release up
/n\ - tremolo bar inverted dip
/n - tremolo bar return
-\n - tremolo bar Release down
S - shift slide
s - legato slide
/ -  slide into from below or out of upwards
\ -  slide into from above or out of downwards
~ - vibrato
W - wide vibrato
tr - trill
TP - tremolo picking
T - tapping
S - slap
P - pop
< - fade in
^ - brush up
v - brush down
comments
We did not receive enough feedback on this tab! Please rate:
print report bad tab
1 2 3 4 5
1 comment total.
0 reply
super.k.man wrote on June 16 2010, 10:38 pm

with so many repeated patterns, it might help to add some reference lyrics... other than that, it looks GREAT!

I want to post or [tab]
guest
You may want to rate the tab now too:
select rating
Please do not post tabs as comments. Select "correction" instead!