Oops, an error
Loading. Please wait.

Prophets Of War Tab

9,543 views 27 this week
2 commentsread comments
1 2 3 4 5
excellent!
x 3
Autoscroll
+/-
esc
set tempo
stop
Contributor
Difficulty
intermediate
WARNING: You are trying to view
                                    content from Ultimate-Guitar.com
                                    in an unauthorized application,
                                    which is prohibited.

                                    Please use an official Ultimate
                                    Guitar Tabs application for iPhone,
                                    iPad or Android to access legitimate
                                    chords, guitar, bass, and drum tabs
                                    from Ultimate-Guitar.com database.

                                    Type "ultimate guitar tabs" in Apple
                                    App Store's or Android Market's
                                    search to find the application.
                                Prophets Of War                                 
                                 Dream Theater
                           Transcribed By Dan Angelow

Seen as i couldn't find an accurate tab of this song i thought i'd give it a shot:)
Please rate and comment if you have any suggestions.
I'll try n get the guitar pro version of this tab up too.:)
Merry Christmas:D

Each Guitar is layed out seperatly.

Gtr.1



     W                   W                   W                 
E||-------------------|-------------------|-------------------|
B||-------------------|-------------------|-------------------|
G||-------------------|-------------------|-------------------|
D||-------------------|-------------------|-------------------|
A||-------------------|-------------------|-------------------|
E||-------------------|-------------------|-------------------|


  W                   W                   W                   W                 
-------------------|-------------------|-------------------|-------------------|
-------------------|-------------------|-------------------|-------------------|
-------------------|-------------------|-------------------|-------------------|
-------------------|-------------------|-------------------|-------------------|
-------------------|-------------------|-------------------|-------------------|
-------------------|-------------------|-------------------|-------------------|


  W                   W                   W                   W                 
-------------------|-------------------|-------------------|-------------------|
-------------------|-------------------|-------------------|-------------------|
-------------------|-------------------|-------------------|-------------------|
-------------------|-------------------|-------------------|-------------------|
-------------------|-------------------|-------------------|-------------------|
-------------------|-------------------|-------------------|-------------------|


  W                   W                   W                   W                 
-------------------|-------------------|-------------------|-------------------|
-------------------|-------------------|-------------------|-------------------|
-------------------|-------------------|-------------------|-------------------|
-------------------|-------------------|-------------------|-------------------|
-------------------|-------------------|-------------------|-------------------|
-------------------|-------------------|-------------------|-------------------|


  W                   W                   W                   W                 
-------------------|-------------------|-------------------|-------------------|
-------------------|-------------------|-------------------|-------------------|
-------------------|-------------------|-------------------|-------------------|
-------------------|-------------------|-------------------|-------------------|
-------------------|-------------------|-------------------|-------------------|
-------------------|-------------------|-------------------|-------------------|


  W                   W                   W                   W                 
-------------------|-------------------|-------------------|-------------------|
-------------------|-------------------|-------------------|-------------------|
-------------------|-------------------|-------------------|-------------------|
-------------------|-------------------|-------------------|-------------------|
-------------------|-------------------|-------------------|-------------------|
-------------------|-------------------|-------------------|-------------------|


  W                   W                   W                   W                 
-------------------|-------------------|-------------------|-------------------|
-------------------|-------------------|-------------------|-------------------|
-------------------|-------------------|-------------------|-------------------|
-------------------|-------------------|-------------------|-------------------|
-------------------|-------------------|-------------------|-------------------|
-------------------|-------------------|-------------------|-------------------|


                      PM PM PM PM PM PM PM PM PM PM PM PM PM PM PM PM  
  W                   S  S  S  S  S  S  S  S  S  S  S  S  S  S  S  S   
-------------------|--------------------------------------------------|
-------------------|--------------------------------------------------|
-------------------|--------------------------------------------------|
-------------------|--------------------------------------------------|
-------------------|--3--3--3--3--3--3--3--3--3--3--3--3--3--3--3--3--|
-------------------|--------------------------------------------------|


  PM PM PM PM PM PM PM PM PM PM PM PM PM PM PM PM  
  S  S  S  S  S  S  S  S  S  S  S  S  S  S  S  S   
--------------------------------------------------|
--------------------------------------------------|
--------------------------------------------------|
--------------------------------------------------|
--3--3--3--3--3--3--3--3--3--3--3--3--3--3--3--3--|
--------------------------------------------------|


  PM PM PM PM PM PM PM PM PM PM PM PM PM PM PM PM  
  S  S  S  S  S  S  S  S  S  S  S  S  S  S  S  S   
--------------------------------------------------|
--------------------------------------------------|
--------------------------------------------------|
--------------------------------------------------|
--3--3--3--3--3--3--3--3--3--3--3--3--3--3--3--3--|
--------------------------------------------------|


  PM PM PM PM PM PM PM PM PM PM PM PM PM PM PM PM  
  S  S  S  S  S  S  S  S  S  S  S  S  S  S  S  S   
--------------------------------------------------|
--------------------------------------------------|
--------------------------------------------------|
--------------------------------------------------|
--3--3--3--3--3--3--3--3--3--3--3--3--3--3--3--3--|
--------------------------------------------------|


  PM PM PM PM PM PM PM PM PM PM PM PM PM PM PM PM  
  S  S  S  S  S  S  S  S  S  S  S  S  S  S  S  S   
--------------------------------------------------|
--------------------------------------------------|
--------------------------------------------------|
--------------------------------------------------|
--------------------------------------------------|
--3--3--3--3--3--3--3--3--3--3--3--3--3--3--3--3--|


  PM PM PM PM PM PM PM PM PM PM PM PM PM PM PM PM  
  S  S  S  S  S  S  S  S  S  S  S  S  S  S  S  S   
--------------------------------------------------|
--------------------------------------------------|
--------------------------------------------------|
--------------------------------------------------|
--------------------------------------------------|
--3--3--3--3--3--3--3--3--3--3--3--3--3--3--3--3--|


  PM PM PM PM PM PM PM PM PM PM PM PM PM PM PM PM  
  S  S  S  S  S  S  S  S  S  S  S  S  S  S  S  S   
--------------------------------------------------|
--------------------------------------------------|
--------------------------------------------------|
--------------------------------------------------|
--------------------------------------------------|
--3--3--3--3--3--3--3--3--3--3--3--3--3--3--3--3--|


  PM PM PM PM PM PM PM PM PM PM PM PM PM PM PM PM  
  S  S  S  S  S  S  S  S  S  S  S  S  S  S  S  S   
--------------------------------------------------|
--------------------------------------------------|
--------------------------------------------------|
--------------------------------------------------|
--------------------------------------------------|
--3--3--3--3--3--3--3--3--3--3--3--3--3--3--3--3--|


  PM PM PM PM PM PM PM PM PM PM PM PM PM PM PM PM  
  S  S  S  S  S  S  S  S  S  S  S  S  S  S  S  S   
--------------------------------------------------|
--------------------------------------------------|
--------------------------------------------------|
--------------------------------------------------|
--2--2--2--2--2--2--2--2--2--2--2--2--2--2--2--2--|
--------------------------------------------------|


  PM PM PM PM PM PM PM PM PM PM PM PM PM PM PM PM  
  S  S  S  S  S  S  S  S  S  S  S  S  S  S  S  S   
--------------------------------------------------|
--------------------------------------------------|
--------------------------------------------------|
--------------------------------------------------|
--2--2--2--2--2--2--2--2--2--2--2--2--2--2--2--2--|
--------------------------------------------------|


  PM PM PM PM PM PM PM PM PM PM PM PM PM PM PM PM  
  S  S  S  S  S  S  S  S  S  S  S  S  S  S  S  S   
--------------------------------------------------|
--------------------------------------------------|
--------------------------------------------------|
--------------------------------------------------|
--2--2--2--2--2--2--2--2--2--2--2--2--2--2--2--2--|
--------------------------------------------------|


  PM PM PM PM PM PM PM PM PM PM PM PM PM PM PM PM  
  S  S  S  S  S  S  S  S  S  S  S  S  S  S  S  S   
--------------------------------------------------|
--------------------------------------------------|
--------------------------------------------------|
--------------------------------------------------|
--2--2--2--2--2--2--2--2--2--2--2--2--2--2--2--2--|
--------------------------------------------------|


  Q.      E   E    E   E   E     Q.      E   E    E   E   E   
------------------------------|------------------------------|
------------------------------|------------------------------|
---------12--12s--11--11------|---------14--14s--12--12------|
------------------------------|--2---------------------------|
--2------10--10s---9---9s--7--|--2------12--12s--10--10s--7--|
--0------------------------0--|--0------------------------0--|


  Q.      E   E    E   E    E      E    E   E  E  E  E  E   E   
-------------------------------|-------------------------------|
-------------------------------|-------------------------------|
---------17--17s--16--16s--14--|--14s--12--12------------------|
--2----------------------------|---------------7--7--3--3--10--|
--2------15--15s--14--14s--12--|--12s--10--10--5--5--1--1---8--|
--0----------------------------|---------------5--5--1--1---8--|


  Q.      E   E    E   E   E     Q.      E   E    E   E   E   
------------------------------|------------------------------|
------------------------------|------------------------------|
---------12--12s--11--11------|---------14--14s--12--12------|
------------------------------|--2---------------------------|
--2------10--10s---9---9s--7--|--2------12--12s--10--10s--7--|
--0------------------------0--|--0------------------------0--|


  Q.      E   E    E   E    E      E    E   E  E  E  E  E   E   
-------------------------------|-------------------------------|
-------------------------------|-------------------------------|
---------17--17s--16--16s--14--|--14s--12--12------------------|
--2----------------------------|---------------7--7--3--3--10--|
--2------15--15s--14--14s--12--|--12s--10--10--5--5--1--1---8--|
--0----------------------------|---------------5--5--1--1---8--|


  Q.      E   E    E   E   E     Q.      E   E    E   E   E   
------------------------------|------------------------------|
------------------------------|------------------------------|
---------12--12s--11--11------|---------14--14s--12--12------|
------------------------------|--2---------------------------|
--2------10--10s---9---9s--7--|--2------12--12s--10--10s--7--|
--0------------------------0--|--0------------------------0--|


  Q.      E   E    E   E    E      E    E   E  E  E  E  E   E   
-------------------------------|-------------------------------|
-------------------------------|-------------------------------|
---------17--17s--16--16s--14--|--14s--12--12------------------|
--2----------------------------|---------------7--7--3--3--10--|
--2------15--15s--14--14s--12--|--12s--10--10--5--5--1--1---8--|
--0----------------------------|---------------5--5--1--1---8--|


  S S S S S S S S S S S S S S S S    S S S S S S S S S S S S S S S S  
----------------------------------|----------------------------------|
----------------------------------|----------------------------------|
--9-9-9-9-9-9-9-9-9-9-9-9-9-9-9-9-|--9-9-9-9-9-9-9-9-9-9-9-9-9-9-9-9-|
--x-x-x-x-x-x-x-x-x-x-x-x-x-x-x-x-|--x-x-x-x-x-x-x-x-x-x-x-x-x-x-x-x-|
--7-7-7-7-7-7-7-7-7-7-7-7-7-7-7-7-|--7-7-7-7-7-7-7-7-7-7-7-7-7-7-7-7-|
----------------------------------|----------------------------------|


  S S S S S S S S S S S S S S S S    S S S S S S S S S S S S S S S S  
----------------------------------|----------------------------------|
----------------------------------|----------------------------------|
--8-8-8-8-8-8-8-8-8-8-8-8-8-8-8-8-|--8-8-8-8-8-8-8-8-8-8-8-8-8-8-8-8-|
--x-x-x-x-x-x-x-x-x-x-x-x-x-x-x-x-|--x-x-x-x-x-x-x-x-x-x-x-x-x-x-x-x-|
--6-6-6-6-6-6-6-6-6-6-6-6-6-6-6-6-|--6-6-6-6-6-6-6-6-6-6-6-6-6-6-6-6-|
----------------------------------|----------------------------------|


  S S S S S S S S S S S S S S S S    S S S S S S S S S S S S S S S S  
----------------------------------|----------------------------------|
----------------------------------|----------------------------------|
--7-7-7-7-7-7-7-7-7-7-7-7-7-7-7-7-|--7-7-7-7-7-7-7-7-7-7-7-7-7-7-7-7-|
--x-x-x-x-x-x-x-x-x-x-x-x-x-x-x-x-|--x-x-x-x-x-x-x-x-x-x-x-x-x-x-x-x-|
--5-5-5-5-5-5-5-5-5-5-5-5-5-5-5-5-|--5-5-5-5-5-5-5-5-5-5-5-5-5-5-5-5-|
----------------------------------|----------------------------------|


  S S S S S S S S S S S S S S S S    S S S S S S S S S S S S S S S S  
----------------------------------|----------------------------------|
----------------------------------|----------------------------------|
--6-6-6-6-6-6-6-6-6-6-6-6-6-6-6-6-|--6-6-6-6-6-6-6-6-6-6-6-6-6-6-6-6-|
--x-x-x-x-x-x-x-x-x-x-x-x-x-x-x-x-|--x-x-x-x-x-x-x-x-x-x-x-x-x-x-x-x-|
--4-4-4-4-4-4-4-4-4-4-4-4-4-4-4-4-|--4-4-4-4-4-4-4-4-4-4-4-4-4-4-4-4-|
----------------------------------|----------------------------------|


  S S S S S S S S S S S S S S S S    S S S S S S S S S S S S S S S S  
----------------------------------|----------------------------------|
----------------------------------|----------------------------------|
--5-5-5-5-5-5-5-5-5-5-5-5-5-5-5-5-|--5-5-5-5-5-5-5-5-5-5-5-5-5-5-5-5-|
--x-x-x-x-x-x-x-x-x-x-x-x-x-x-x-x-|--x-x-x-x-x-x-x-x-x-x-x-x-x-x-x-x-|
--3-3-3-3-3-3-3-3-3-3-3-3-3-3-3-3-|--3-3-3-3-3-3-3-3-3-3-3-3-3-3-3-3-|
----------------------------------|----------------------------------|


  S S S S S S S S S S S S S S S S    S S S S S S S S S S S S S S S S  
----------------------------------|----------------------------------|
----------------------------------|----------------------------------|
--4-4-4-4-4-4-4-4-4-4-4-4-4-4-4-4-|--4-4-4-4-4-4-4-4-4-4-4-4-4-4-4-4-|
--x-x-x-x-x-x-x-x-x-x-x-x-x-x-x-x-|--x-x-x-x-x-x-x-x-x-x-x-x-x-x-x-x-|
--2-2-2-2-2-2-2-2-2-2-2-2-2-2-2-2-|--2-2-2-2-2-2-2-2-2-2-2-2-2-2-2-2-|
----------------------------------|----------------------------------|


  S S S S S S S S S S S S S S S S    S S S S S S S S S S S S S S S S  
----------------------------------|----------------------------------|
----------------------------------|----------------------------------|
--9-9-9-9-9-9-9-9-9-9-9-9-9-9-9-9-|--9-9-9-9-9-9-9-9-9-9-9-9-9-9-9-9-|
--x-x-x-x-x-x-x-x-x-x-x-x-x-x-x-x-|--x-x-x-x-x-x-x-x-x-x-x-x-x-x-x-x-|
--7-7-7-7-7-7-7-7-7-7-7-7-7-7-7-7-|--7-7-7-7-7-7-7-7-7-7-7-7-7-7-7-7-|
----------------------------------|----------------------------------|


   S  S  S  S  S  S  S  S  S  S  S  S  S  S  S  S  
--------------------------------------------------|
--------------------------------------------------|
--11-11-11-11-11-11-11-11-11-11-11-11-11-11-11-11-|
---x--x--x--x--x--x--x--x--x--x--x--x--x--x--x--x-|
---9--9--9--9--9--9--9--9--9--9--9--9--9--9--9--9-|
--------------------------------------------------|


   S  S  S  S  S  S  S  S  S  S  S  S  S  S  S  S  
--------------------------------------------------|
--------------------------------------------------|
--11-11-11-11-11-11-11-11-11-11-11-11-11-11-11-11-|
---x--x--x--x--x--x--x--x--x--x--x--x--x--x--x--x-|
---9--9--9--9--9--9--9--9--9--9--9--9--9--9--9--9-|
--------------------------------------------------|


   S  S  S  S  S  S  S  S  S  S  S  S  S  S  S  S  
--------------------------------------------------|
--------------------------------------------------|
--12-12-12-12-12-12-12-12-12-12-12-12-12-12-12-12-|
---x--x--x--x--x--x--x--x--x--x--x--x--x--x--x--x-|
--10-10-10-10-10-10-10-10-10-10-10-10-10-10-10-10-|
--------------------------------------------------|


   S  S  S  S  S  S  S  S  S  S  S  S  S  S  S  S  
--------------------------------------------------|
--------------------------------------------------|
--12-12-12-12-12-12-12-12-12-12-12-12-12-12-12-12-|
---x--x--x--x--x--x--x--x--x--x--x--x--x--x--x--x-|
--10-10-10-10-10-10-10-10-10-10-10-10-10-10-10-10-|
--------------------------------------------------|


   S  S  S  S  S  S  S  S  S  S  S  S  S  S  S  S  
--------------------------------------------------|
--------------------------------------------------|
--14-14-14-14-14-14-14-14-14-14-14-14-14-14-14-14-|
---x--x--x--x--x--x--x--x--x--x--x--x--x--x--x--x-|
--12-12-12-12-12-12-12-12-12-12-12-12-12-12-12-12-|
--------------------------------------------------|


   S  S  S  S  S  S  S  S  S  S  S  S  S  S  S  S  
--------------------------------------------------|
--------------------------------------------------|
--14-14-14-14-14-14-14-14-14-14-14-14-14-14-14-14-|
---x--x--x--x--x--x--x--x--x--x--x--x--x--x--x--x-|
--12-12-12-12-12-12-12-12-12-12-12-12-12-12-12-12-|
--------------------------------------------------|


  PM PM PM PM PM PM PM PM PM PM PM PM PM PM PM PM  
  S  S  S  S  S  S  S  S  S  S  S  S  S  S  S  S   
--------------------------------------------------|
--------------------------------------------------|
--------------------------------------------------|
--------------------------------------------------|
--0--0--0--0--0--0--0--0--0--0--0--0--0--0--0--0--|
--------------------------------------------------|


  PM PM PM PM PM PM PM PM PM PM PM PM PM PM PM PM  
  S  S  S  S  S  S  S  S  S  S  S  S  S  S  S  S   
--------------------------------------------------|
--------------------------------------------------|
--------------------------------------------------|
--------------------------------------------------|
--0--0--0--0--0--0--0--0--0--0--0--0--0--0--0--0--|
--------------------------------------------------|


  PM PM PM PM PM PM PM PM PM PM PM PM PM PM PM PM  
  S  S  S  S  S  S  S  S  S  S  S  S  S  S  S  S   
--------------------------------------------------|
--------------------------------------------------|
--------------------------------------------------|
--------------------------------------------------|
--------------------------------------------------|
--3--3--3--3--3--3--3--3--3--3--3--3--3--3--3--3--|


  PM PM PM PM PM PM PM PM PM PM PM PM PM PM PM PM  
  S  S  S  S  S  S  S  S  S  S  S  S  S  S  S  S   
--------------------------------------------------|
--------------------------------------------------|
--------------------------------------------------|
--------------------------------------------------|
--------------------------------------------------|
--3--3--3--3--3--3--3--3--3--3--3--3--3--3--3--3--|


  PM PM PM PM PM PM PM PM PM PM PM PM PM PM PM PM  
  S  S  S  S  S  S  S  S  S  S  S  S  S  S  S  S   
--------------------------------------------------|
--------------------------------------------------|
--------------------------------------------------|
--------------------------------------------------|
--------------------------------------------------|
--2--2--2--2--2--2--2--2--2--2--2--2--2--2--2--2--|


  PM PM PM PM PM PM PM PM PM PM PM PM PM PM PM PM  
  S  S  S  S  S  S  S  S  S  S  S  S  S  S  S  S   
--------------------------------------------------|
--------------------------------------------------|
--------------------------------------------------|
--------------------------------------------------|
--------------------------------------------------|
--2--2--2--2--2--2--2--2--2--2--2--2--2--2--2--2--|


  PM PM PM PM PM PM PM PM PM PM PM PM PM PM PM PM  
  S  S  S  S  S  S  S  S  S  S  S  S  S  S  S  S   
--------------------------------------------------|
--------------------------------------------------|
--------------------------------------------------|
--------------------------------------------------|
--2--2--2--2--2--2--2--2--2--2--2--2--2--2--2--2--|
--------------------------------------------------|


  PM PM PM PM PM PM PM PM PM PM PM PM PM PM PM PM                             
  S  S  S  S  S  S  S  S  S  S  S  S  S  S  S  S     E  E  E  E  E  E  E  E   
--------------------------------------------------|--------------------------|
--------------------------------------------------|--------------------------|
--------------------------------------------------|--5--5--5--5--5--5--5--5--|
--------------------------------------------------|--5--5--5--5--5--5--5--5--|
--2--2--2--2--2--2--2--2--2--2--2--2--2--2--2--2--|--3--3--3--3--3--3--3--3--|
--------------------------------------------------|--------------------------|


   E   E   E   E   E   E   E   E     E  E  E  E  E  E  E  E   
----------------------------------|--------------------------|
----------------------------------|--------------------------|
--11--11--11--11--12--12--12--12--|--5--5--5--5--5--5--5--5--|
---x---x---x---x---x---x---x---x--|--5--5--5--5--5--5--5--5--|
---9---9---9---9--10--10--10--10--|--3--3--3--3--3--3--3--3--|
----------------------------------|--------------------------|


   E   E   E   E   E   E   E   E      E   E   E   E   E   E   E   E   
----------------------------------|----------------------------------|
----------------------------------|----------------------------------|
--11--11--11--11--12--12--12--12--|--12--12--12--12--12--12--12--12--|
---x---x---x---x---x---x---x---x--|--12--12--12--12--12--12--12--12--|
---9---9---9---9--10--10--10--10--|--10--10--10--10--10--10--10--10--|
----------------------------------|--10--10--10--10--10--10--10--10--|


   E   E   E   E   E   E   E   E      E   E   E   E   E   E   E   E   
----------------------------------|----------------------------------|
----------------------------------|----------------------------------|
--11--11--11--11--12--12--12--12--|--12--12--12--12--12--12--12--12--|
---x---x---x---x---x---x---x---x--|--12--12--12--12--12--12--12--12--|
---9---9---9---9--10--10--10--10--|--10--10--10--10--10--10--10--10--|
----------------------------------|--10--10--10--10--10--10--10--10--|


   E   E   E   E   E   E   E   E     E  E  E  E  E  E  E  E   
----------------------------------|--------------------------|
----------------------------------|--------------------------|
--14--14--14--14--16--16--16--16--|--4--4--4--4--4--4--4--4--|
---x---x---x---x---x---x---x---x--|--x--x--x--x--x--x--x--x--|
--12--12--12--12--14--14--14--14--|--2--2--2--2--2--2--2--2--|
----------------------------------|--------------------------|


  E  E  E  E  E  E  E  E      E   E   E   E   E   E   E   E   
--------------------------|----------------------------------|
--------------------------|----------------------------------|
--8--8--8--8--9--9--9--9--|--11--11--11--11--12--12--12--12--|
--x--x--x--x--x--x--x--x--|---x---x---x---x---x---x---x---x--|
--6--6--6--6--7--7--7--7--|---9---9---9---9--10--10--10--10--|
--------------------------|----------------------------------|


   E   E   E   E   E   E   E   E     Q.      E   E    E   E   E   
----------------------------------|------------------------------|
----------------------------------|------------------------------|
--17--17--17--17--16--16--16--16--|---------12--12s--11--11------|
---x---x---x---x---x---x---x---x--|------------------------------|
--15--15--15--15--14--14--14--14--|--2------10--10s---9---9s--7--|
----------------------------------|--0------------------------0--|


  Q.      E   E    E   E   E     Q.      E   E    E   E    E   
------------------------------|-------------------------------|
------------------------------|-------------------------------|
---------14--14s--12--12------|---------17--17s--16--16s--14--|
--2---------------------------|--2----------------------------|
--2------12--12s--10--10s--7--|--2------15--15s--14--14s--12--|
--0------------------------0--|--0----------------------------|


   E    E   E  E  E  E  E   E     Q.      E   E    E   E   E   
-------------------------------|------------------------------|
-------------------------------|------------------------------|
--14s--12--12------------------|---------12--12s--11--11------|
---------------7--7--3--3--10--|------------------------------|
--12s--10--10--5--5--1--1---8--|--2------10--10s---9---9s--7--|
---------------5--5--1--1---8--|--0------------------------0--|


  Q.      E   E    E   E   E     Q.      E   E    E   E    E   
------------------------------|-------------------------------|
------------------------------|-------------------------------|
---------14--14s--12--12------|---------17--17s--16--16s--14--|
--2---------------------------|--2----------------------------|
--2------12--12s--10--10s--7--|--2------15--15s--14--14s--12--|
--0------------------------0--|--0----------------------------|


   E    E   E  E  E  E  E   E     Q.      E   E    E   E   E   
-------------------------------|------------------------------|
-------------------------------|------------------------------|
--14s--12--12------------------|---------12--12s--11--11------|
---------------7--7--3--3--10--|------------------------------|
--12s--10--10--5--5--1--1---8--|--2------10--10s---9---9s--7--|
---------------5--5--1--1---8--|--0------------------------0--|


  Q.      E   E    E   E   E     Q.      E   E    E   E    E   
------------------------------|-------------------------------|
------------------------------|-------------------------------|
---------14--14s--12--12------|---------17--17s--16--16s--14--|
--2---------------------------|--2----------------------------|
--2------12--12s--10--10s--7--|--2------15--15s--14--14s--12--|
--0------------------------0--|--0----------------------------|


   E    E   E  E  E  E  E   E     Q.      E   E    E   E   E   
-------------------------------|------------------------------|
-------------------------------|------------------------------|
--14s--12--12------------------|---------12--12s--11--11------|
---------------7--7--3--3--10--|------------------------------|
--12s--10--10--5--5--1--1---8--|--2------10--10s---9---9s--7--|
---------------5--5--1--1---8--|--0------------------------0--|


  Q.      E   E    E   E   E     Q.      E   E    E   E    E   
------------------------------|-------------------------------|
------------------------------|-------------------------------|
---------14--14s--12--12------|---------17--17s--16--16s--14--|
--2---------------------------|--2----------------------------|
--2------12--12s--10--10s--7--|--2------15--15s--14--14s--12--|
--0------------------------0--|--0----------------------------|


   E    E   E  E  E  E  E  E     W                   W                 
------------------------------|-------------------|-------------------|
------------------------------|-------------------|-------------------|
--14s--12--12-----------------|--2----------------|--L----------------|
---------------7--7--5--5--4--|--2----------------|--L----------------|
--12s--10--10--5--5--3--3--2--|--0----------------|--L----------------|
---------------5--5--3--3--2--|-------------------|-------------------|


  W                   H        H           W                 
-------------------|--------------------|-------------------|
-------------------|--------------------|-------------------|
--4----------------|--L--------4--------|--2----------------|
--4----------------|--L--------4--------|--2----------------|
--2----------------|--L--------2--------|--0----------------|
-------------------|--------------------|-------------------|


  H.           E  E     W                   H.           E  E   
---------------------|-------------------|---------------------|
---------------------|-------------------|--5------------------|
--L------------------|-------------------|--4------------------|
--L------------------|--2----------------|--2------------------|
--L------------------|--2----------------|--2------------------|
---------------2--3--|--0----------------|--0------------2--3--|


  W                   H        H           W                 
-------------------|--------------------|--3----------------|
-------------------|--------------------|--3----------------|
--2----------------|--L--------2--------|--5----------------|
--2----------------|--L--------2--------|--5----------------|
--0----------------|--L--------0--------|--3----------------|
-------------------|--------------------|-------------------|


  H        H           W                   W                 
--L--------3--------|--3----------------|--L----------------|
--L--------3--------|--3----------------|--L----------------|
--L--------5--------|--0----------------|--L----------------|
--L--------5--------|--0----------------|--L----------------|
--L-----------------|--2----------------|--L----------------|
--------------------|--3----------------|--L----------------|


  E  E  E  E  E  E  E  E     E  E  E  E  E  E  E  E   
--------------------------|--------------------------|
--------------------------|--------------------------|
--4--4--4--4--4--4--4--4--|--8--8--8--8--9--9--9--9--|
--x--x--x--x--x--x--x--x--|--x--x--x--x--x--x--x--x--|
--2--2--2--2--2--2--2--2--|--6--6--6--6--7--7--7--7--|
--------------------------|--------------------------|


   E   E   E   E   E   E   E   E      E   E   E   E   E   E   E   E   
----------------------------------|----------------------------------|
----------------------------------|----------------------------------|
--11--11--11--11--12--12--12--12--|--17--17--17--17--16--16--16--16--|
---x---x---x---x---x---x---x---x--|---x---x---x---x---x---x---x---x--|
---9---9---9---9--10--10--10--10--|--15--15--15--15--14--14--14--14--|
----------------------------------|----------------------------------|


  TP                   TP        TP          TP                
  W                    H         H           W                 
-------------------|----------------------|-------------------|
-------------------|----------------------|-------------------|
--9----------------|--11--------12--------|--9----------------|
-------------------|----------------------|-------------------|
--7----------------|---9--------10--------|--7----------------|
-------------------|----------------------|-------------------|


   TP        TP           TP                   TP        TP        
   H         H            W                    H         H         
----------------------|--------------------|----------------------|
----------------------|--------------------|----------------------|
--11--------12--------|--12----------------|--11--------12--------|
----------------------|--12----------------|----------------------|
---9--------10--------|--10----------------|---9--------10--------|
----------------------|--10----------------|----------------------|


   TP                   TP        TP          TP                
   W                    H         H           W                 
--------------------|----------------------|-------------------|
--------------------|----------------------|-------------------|
--12----------------|--14--------16--------|--9----------------|
--12----------------|----------------------|-------------------|
--10----------------|--12--------14--------|--7----------------|
--10----------------|----------------------|-------------------|


   TP        TP          TP                   TP        TP        
   H         H           W                    H         H         
----------------------|-------------------|----------------------|
----------------------|-------------------|----------------------|
--16--------17--------|--9----------------|--16--------17--------|
----------------------|-------------------|----------------------|
--14--------15--------|--7----------------|--14--------15--------|
----------------------|-------------------|----------------------|


  TP       TP           TP        TP           TP        TP        
  H        H            H         H            H         H         
--------------------|----------------------|----------------------|
--------------------|----------------------|----------------------|
--8--------9--------|--11--------12--------|--14--------16--------|
--------------------|----------------------|----------------------|
--6--------7--------|---9--------10--------|--12--------14--------|
--------------------|----------------------|----------------------|


   TP        TP                                                   
   H         H            W                   H         H         
----------------------|--------------------|---------------------|
----------------------|--------------------|---------------------|
--17--------16--------|--17----------------|--L\-----------------|
----------------------|--------------------|---------------------|
--15--------14--------|--15----------------|--L\-----------------|
----------------------|--------------------|---------------------|


  W                   W                   W                   W                 
-------------------|-------------------|-------------------|-------------------|
-------------------|-------------------|-------------------|-------------------|
-------------------|-------------------|-------------------|-------------------|
-------------------|-------------------|-------------------|-------------------|
-------------------|-------------------|-------------------|-------------------|
-------------------|-------------------|-------------------|-------------------|


                                     (Feedback)                           
  W                   H.             Q           E  E  E  E  E  E  E  E   
-------------------|---------------(28)-------|--------------------------|
-------------------|--------------------------|--------------------------|
-------------------|--------------------------|--4--4--4--4--4--4--4--4--|
-------------------|--------------------------|--4--4--4--4--4--4--4--4--|
-------------------|--------------------------|--2--2--2--2--2--2--2--2--|
-------------------|--------------------------|--------------------------|


  E  E  E  E  E  E  E  E     E  E  E  E  E  E  E  E   
--------------------------|--------------------------|
--------------------------|--------------------------|
--4--4--4--4--4--4--4--4--|--8--8--8--8--8--8--8--8--|
--4--4--4--4--4--4--4--4--|--x-----x--x--x--x--x--x--|
--2--2--2--2--2--2--2--2--|--6--6--6--6--6--6--6--6--|
--------------------------|--------------------------|


  E  E  E  E   E   E   E   E     E  E  E  E  E  E  E  E   
------------------------------|--------------------------|
------------------------------|--------------------------|
--9--9--9--9--11--11--11--11--|--5--5--5--5--5--5--5--5--|
--x--x--x--x---x---x---x---x--|--5--5--5--5--5--5--5--5--|
--7--7--7--7---9---9---9---9--|--3--3--3--3--3--3--3--3--|
------------------------------|--------------------------|


   E   E   E   E   E   E   E   E     E  E  E  E  E  E  E  E   
----------------------------------|--------------------------|
----------------------------------|--------------------------|
--11--11--11--11--12--12--12--12--|--5--5--5--5--5--5--5--5--|
---x---x---x---x---x---x---x---x--|--5--5--5--5--5--5--5--5--|
---9---9---9---9--10--10--10--10--|--3--3--3--3--3--3--3--3--|
----------------------------------|--------------------------|


   E   E   E   E   E   E   E   E      E   E   E   E   E   E   E   E   
----------------------------------|----------------------------------|
----------------------------------|----------------------------------|
--11--11--11--11--12--12--12--12--|--12--12--12--12--12--12--12--12--|
---x---x---x---x---x---x---x---x--|--12--12--12--12--12--12--12--12--|
---9---9---9---9--10--10--10--10--|--10--10--10--10--10--10--10--10--|
----------------------------------|--10--10--10--10--10--10--10--10--|


   E   E   E   E   E   E   E   E      E   E   E   E   E   E   E   E   
----------------------------------|----------------------------------|
----------------------------------|----------------------------------|
--11--11--11--11--12--12--12--12--|--12--12--12--12--12--12--12--12--|
---x---x---x---x---x---x---x---x--|--12--12--12--12--12--12--12--12--|
---9---9---9---9--10--10--10--10--|--10--10--10--10--10--10--10--10--|
----------------------------------|--10--10--10--10--10--10--10--10--|


   E   E   E   E   E   E   E   E     E  E  E  E  E  E  E  E   
----------------------------------|--------------------------|
----------------------------------|--------------------------|
--14--14--14--14--16--16--16--16--|--5--5--5--5--5--5--5--5--|
---x---x---x---x---x---x---x---x--|--5--5--5--5--5--5--5--5--|
--12--12--12--12--14--14--14--14--|--3--3--3--3--3--3--3--3--|
----------------------------------|--------------------------|


   E   E   E   E   E   E   E   E     E  E  E  E  E  E  E  E   
----------------------------------|--------------------------|
----------------------------------|--------------------------|
--11--11--11--11--12--12--12--12--|--5--5--5--5--5--5--5--5--|
---x---x---x---x---x---x---x---x--|--5--5--5--5--5--5--5--5--|
---9---9---9---9--10--10--10--10--|--3--3--3--3--3--3--3--3--|
----------------------------------|--------------------------|


   E   E   E   E   E   E   E   E      E   E   E   E   E   E   E   E   
----------------------------------|----------------------------------|
----------------------------------|----------------------------------|
--11--11--11--11--12--12--12--12--|--12--12--12--12--12--12--12--12--|
---x---x---x---x---x---x---x---x--|--12--12--12--12--12--12--12--12--|
---9---9---9---9--10--10--10--10--|--10--10--10--10--10--10--10--10--|
----------------------------------|--10--10--10--10--10--10--10--10--|


   E   E   E   E   E   E   E   E      E   E   E   E   E   E   E   E   
----------------------------------|----------------------------------|
----------------------------------|----------------------------------|
--11--11--11--11--12--12--12--12--|--12--12--12--12--12--12--12--12--|
---x---x---x---x---x---x---x---x--|--12--12--12--12--12--12--12--12--|
---9---9---9---9--10--10--10--10--|--10--10--10--10--10--10--10--10--|
----------------------------------|--10--10--10--10--10--10--10--10--|


   E   E   E   E   E   E   E   E     E  E  E  E  E  E  E  E   
----------------------------------|--------------------------|
----------------------------------|--------------------------|
--14--14--14--14--16--16--16--16--|--4--4--4--4--4--4--4--4--|
---x---x---x---x---x---x---x---x--|--x--x--x--x--x--x--x--x--|
--12--12--12--12--14--14--14--14--|--2--2--2--2--2--2--2--2--|
----------------------------------|--------------------------|


  E  E  E  E  E  E  E  E      E   E   E   E   E   E   E   E   
--------------------------|----------------------------------|
--------------------------|----------------------------------|
--8--8--8--8--9--9--9--9--|--11--11--11--11--12--12--12--12--|
--x--x--x--x--x--x--x--x--|---x---x---x---x---x---x---x---x--|
--6--6--6--6--7--7--7--7--|---9---9---9---9--10--10--10--10--|
--------------------------|----------------------------------|


   E   E   E   E   E   E   E   E     Q.      E   E    E   E   E   
----------------------------------|------------------------------|
----------------------------------|------------------------------|
--17--17--17--17--16--16--16--16--|---------12--12s--11--11------|
---x---x---x---x---x---x---x---x--|------------------------------|
--15--15--15--15--14--14--14--14--|--2------10--10s---9---9s--7--|
----------------------------------|--0------------------------0--|


  Q.      E   E    E   E   E     Q.      E   E    E   E    E   
------------------------------|-------------------------------|
------------------------------|-------------------------------|
---------14--14s--12--12------|---------17--17s--16--16s--14--|
--2---------------------------|--2----------------------------|
--2------12--12s--10--10s--7--|--2------15--15s--14--14s--12--|
--0------------------------0--|--0----------------------------|


   E    E   E  E  E  E  E   E     Q.      E   E    E   E   E   
-------------------------------|------------------------------|
-------------------------------|------------------------------|
--14s--12--12------------------|---------12--12s--11--11------|
---------------7--7--3--3--10--|------------------------------|
--12s--10--10--5--5--1--1---8--|--2------10--10s---9---9s--7--|
---------------5--5--1--1---8--|--0------------------------0--|


  Q.      E   E    E   E   E     Q.      E   E    E   E    E   
------------------------------|-------------------------------|
------------------------------|-------------------------------|
---------14--14s--12--12------|---------17--17s--16--16s--14--|
--2---------------------------|--2----------------------------|
--2------12--12s--10--10s--7--|--2------15--15s--14--14s--12--|
--0------------------------0--|--0----------------------------|


   E    E   E  E  E  E  E   E     Q.     E  E  E  E  E   
-------------------------------|------------------------|
-------------------------------|------------------------|
--14s--12--12------------------|------------------------|
---------------7--7--3--3--10--|------------------------|
--12s--10--10--5--5--1--1---8--|--2------5--5--4--4--2--|
---------------5--5--1--1---8--|--0------3--3--2--2--0--|


  Q.     E  E  E  E  E     Q.      E   E  E  E  E     E  E  E  E  E  E  E   E   
------------------------|--------------------------|---------------------------|
------------------------|--------------------------|---------------------------|
------------------------|--------------------------|---------------------------|
--2---------------------|--2-----------------------|-----------7--7--3--3--10--|
--2------7--7--5--5-----|--2------10--10--9--9--7--|--7--5--5--5--5--1--1---8--|
--0------5--5--3--3--0--|--0-------8---8--7--7--5--|--5--3--3--5--5--1--1---8--|


  Q.     E  E  E  E  E     Q.     E  E  E  E  E     Q.      E   E  E  E  E   
------------------------|------------------------|--------------------------|
------------------------|------------------------|--------------------------|
------------------------|------------------------|--------------------------|
------------------------|--2---------------------|--2-----------------------|
--2------5--5--4--4--2--|--2------7--7--5--5-----|--2------10--10--9--9--7--|
--0------3--3--2--2--0--|--0------5--5--3--3--0--|--0-------8---8--7--7--5--|


  E  E  E  E  E  E  E   E     W                   W                 
---------------------------|-------------------|-------------------|
---------------------------|-------------------|-------------------|
---------------------------|-------------------|-------------------|
-----------7--7--3--3--10--|--2----------------|--L----------------|
--7--5--5--5--5--1--1---8--|--2----------------|--L----------------|
--5--3--3--5--5--1--1---8--|--0----------------|--L----------------|


  W                   W                   W                   W                 
-------------------|-------------------|-------------------|-------------------|
-------------------|-------------------|-------------------|-------------------|
-------------------|-------------------|-------------------|-------------------|
--L----------------|--L----------------|--L----------------|--L----------------|
--L----------------|--L----------------|--L----------------|--L----------------|
--L----------------|--L----------------|--L----------------|--L----------------|


  W                   W                   W                  
-------------------|-------------------|-------------------||
-------------------|-------------------|-------------------||
-------------------|-------------------|-------------------||
--L----------------|-------------------|-------------------||
--L----------------|-------------------|-------------------||
--L----------------|-------------------|-------------------||


|===================================================================================|
|-----------------------------------------------------------------------------------|
|===================================================================================|



Gtr.2



     W                   W                   W                 
E||-------------------|-------------------|-------------------|
B||-------------------|-------------------|-------------------|
G||-------------------|-------------------|-------------------|
D||-------------------|-------------------|-------------------|
A||-------------------|-------------------|-------------------|
E||-------------------|-------------------|-------------------|


  W                   W                   W                   W                 
-------------------|-------------------|-------------------|-------------------|
-------------------|-------------------|-------------------|-------------------|
-------------------|-------------------|-------------------|-------------------|
-------------------|-------------------|-------------------|-------------------|
-------------------|-------------------|-------------------|-------------------|
-------------------|-------------------|-------------------|-------------------|


  W                   W                   W                   W                 
-------------------|-------------------|-------------------|-------------------|
-------------------|-------------------|-------------------|-------------------|
-------------------|-------------------|-------------------|-------------------|
-------------------|-------------------|-------------------|-------------------|
-------------------|-------------------|-------------------|-------------------|
-------------------|-------------------|-------------------|-------------------|


  W                   W                   W                   W                 
-------------------|-------------------|-------------------|-------------------|
-------------------|-------------------|-------------------|-------------------|
-------------------|-------------------|-------------------|-------------------|
-------------------|-------------------|-------------------|-------------------|
-------------------|-------------------|-------------------|-------------------|
-------------------|-------------------|-------------------|-------------------|


  W                   W                   W                   W                 
-------------------|-------------------|-------------------|-------------------|
-------------------|-------------------|-------------------|-------------------|
-------------------|-------------------|-------------------|-------------------|
-------------------|-------------------|-------------------|-------------------|
-------------------|-------------------|-------------------|-------------------|
-------------------|-------------------|-------------------|-------------------|


  W                   W                   W                   W                 
-------------------|-------------------|-------------------|-------------------|
-------------------|-------------------|-------------------|-------------------|
-------------------|-------------------|-------------------|-------------------|
-------------------|-------------------|-------------------|-------------------|
-------------------|-------------------|-------------------|-------------------|
-------------------|-------------------|-------------------|-------------------|


  W                   W                   W                   W                 
-------------------|-------------------|-------------------|-------------------|
-------------------|-------------------|-------------------|-------------------|
-------------------|-------------------|-------------------|-------------------|
-------------------|-------------------|-------------------|-------------------|
-------------------|-------------------|-------------------|-------------------|
-------------------|-------------------|-------------------|-------------------|


  W                   W                   W                   W                 
-------------------|-------------------|-------------------|-------------------|
-------------------|-------------------|-------------------|-------------------|
-------------------|-------------------|-------------------|-------------------|
-------------------|-------------------|-------------------|-------------------|
-------------------|-------------------|-------------------|-------------------|
-------------------|-------------------|-------------------|-------------------|


  W                   W                   W                   W                 
-------------------|-------------------|-------------------|-------------------|
-------------------|-------------------|-------------------|-------------------|
-------------------|-------------------|-------------------|-------------------|
-------------------|-------------------|-------------------|-------------------|
-------------------|-------------------|-------------------|-------------------|
-------------------|-------------------|-------------------|-------------------|


  W                   W                   W                 
-------------------|-------------------|-------------------|
-------------------|-------------------|-------------------|
-------------------|-------------------|-------------------|
-------------------|-------------------|-------------------|
-------------------|-------------------|-------------------|
-------------------|-------------------|-------------------|


  S S S S S S S S S S S S S S S S    S S S S S S S S S S S S S S S S  
----------------------------------|----------------------------------|
----------------------------------|----------------------------------|
----------------------------------|--4-4-4-4-4-4-4-4-4-4-4-4-4-4-4-4-|
--4-4-4-4-4-4-4-4-4-4-4-4-4-4-4-4-|--4-4-4-4-4-4-4-4-4-4-4-4-4-4-4-4-|
--2-2-2-2-2-2-2-2-2-2-2-2-2-2-2-2-|--2-2-2-2-2-2-2-2-2-2-2-2-2-2-2-2-|
----------------------------------|----------------------------------|


  W                   W                   W                   W                 
-------------------|-------------------|-------------------|-------------------|
-------------------|-------------------|-------------------|-------------------|
-------------------|-------------------|-------------------|-------------------|
-------------------|-------------------|-------------------|-------------------|
-------------------|-------------------|-------------------|-------------------|
-------------------|-------------------|-------------------|-------------------|


  Q.      E   E    E   E   E     Q.      E   E    E   E   E   
------------------------------|------------------------------|
------------------------------|------------------------------|
---------12--12s--11--11------|---------14--14s--12--12------|
------------------------------|--2---------------------------|
--2------10--10s---9---9s--7--|--2------12--12s--10--10s--7--|
--0------------------------0--|--0------------------------0--|


  Q.      E   E    E   E    E      E    E   E  E  E  E  E   E   
-------------------------------|-------------------------------|
-------------------------------|-------------------------------|
---------17--17s--16--16s--14--|--14s--12--12------------------|
--2----------------------------|---------------7--7--3--3--10--|
--2------15--15s--14--14s--12--|--12s--10--10--5--5--1--1---8--|
--0----------------------------|---------------5--5--1--1---8--|


  Q.      E   E    E   E   E     Q.      E   E    E   E   E   
------------------------------|------------------------------|
------------------------------|------------------------------|
---------12--12s--11--11------|---------14--14s--12--12------|
------------------------------|--2---------------------------|
--2------10--10s---9---9s--7--|--2------12--12s--10--10s--7--|
--0------------------------0--|--0------------------------0--|


  Q.      E   E    E   E    E      E    E   E  E  E  E  E   E   
-------------------------------|-------------------------------|
-------------------------------|-------------------------------|
---------17--17s--16--16s--14--|--14s--12--12------------------|
--2----------------------------|---------------7--7--3--3--10--|
--2------15--15s--14--14s--12--|--12s--10--10--5--5--1--1---8--|
--0----------------------------|---------------5--5--1--1---8--|


  W                   W                   W                   W                 
-------------------|-------------------|-------------------|-------------------|
-------------------|-------------------|-------------------|-------------------|
-------------------|-------------------|-------------------|-------------------|
-------------------|-------------------|-------------------|-------------------|
-------------------|-------------------|-------------------|-------------------|
-------------------|-------------------|-------------------|-------------------|


  W                   W                   W                   W                 
-------------------|-------------------|-------------------|-------------------|
-------------------|-------------------|-------------------|-------------------|
-------------------|-------------------|-------------------|-------------------|
-------------------|-------------------|-------------------|-------------------|
-------------------|-------------------|-------------------|-------------------|
-------------------|-------------------|-------------------|-------------------|


  W                   W                   W                   W                 
-------------------|-------------------|-------------------|-------------------|
-------------------|-------------------|-------------------|-------------------|
-------------------|-------------------|-------------------|-------------------|
-------------------|-------------------|-------------------|-------------------|
-------------------|-------------------|-------------------|-------------------|
-------------------|-------------------|-------------------|-------------------|


  W                   W                   W                   W                 
-------------------|-------------------|-------------------|-------------------|
-------------------|-------------------|-------------------|-------------------|
-------------------|-------------------|-------------------|-------------------|
-------------------|-------------------|-------------------|-------------------|
-------------------|-------------------|-------------------|-------------------|
-------------------|-------------------|-------------------|-------------------|


  W                   W                   W                   W                 
-------------------|-------------------|-------------------|-------------------|
-------------------|-------------------|-------------------|-------------------|
-------------------|-------------------|-------------------|-------------------|
-------------------|-------------------|-------------------|-------------------|
-------------------|-------------------|-------------------|-------------------|
-------------------|-------------------|-------------------|-------------------|


  W                   W                   W                   W                 
-------------------|-------------------|-------------------|-------------------|
-------------------|-------------------|-------------------|-------------------|
-------------------|-------------------|-------------------|-------------------|
-------------------|-------------------|-------------------|-------------------|
--0----------------|--L----------------|-------------------|-------------------|
-------------------|-------------------|--3----------------|--L----------------|


  W                   W                   W                   W                 
-------------------|-------------------|-------------------|-------------------|
-------------------|-------------------|-------------------|-------------------|
-------------------|-------------------|-------------------|-------------------|
-------------------|-------------------|-------------------|-------------------|
-------------------|-------------------|--2----------------|--L----------------|
--2----------------|--L----------------|-------------------|-------------------|


  E  E  E  E  E  E  E  E     E  E  E  E  E  E  E  E   
--------------------------|--------------------------|
--------------------------|--------------------------|
--5--5--5--5--5--5--5--5--|--5--5--5--5--5--5--5--5--|
--5--5--5--5--5--5--5--5--|--5--5--5--5--5--5--5--5--|
--3--3--3--3--3--3--3--3--|--3--3--3--3--3--3--3--3--|
--------------------------|--------------------------|


  E  E  E  E  E  E  E  E     E  E  E  E  E  E  E  E   
--------------------------|--------------------------|
--------------------------|--------------------------|
--5--5--5--5--5--5--5--5--|--5--5--5--5--5--5--5--5--|
--5--5--5--5--5--5--5--5--|--5--5--5--5--5--5--5--5--|
--3--3--3--3--3--3--3--3--|--3--3--3--3--3--3--3--3--|
--------------------------|--------------------------|


  E  E  E  E  E  E  E  E     E  E  E  E  E  E  E  E   
--------------------------|--------------------------|
--------------------------|--------------------------|
--------------------------|--------------------------|
--5--5--5--5--5--5--5--5--|--5--5--5--5--5--5--5--5--|
--5--5--5--5--5--5--5--5--|--5--5--5--5--5--5--5--5--|
--3--3--3--3--3--3--3--3--|--3--3--3--3--3--3--3--3--|


  E  E  E  E  E  E  E  E     E  E  E  E  E  E  E  E   
--------------------------|--------------------------|
--------------------------|--------------------------|
--------------------------|--------------------------|
--5--5--5--5--5--5--5--5--|--5--5--5--5--5--5--5--5--|
--5--5--5--5--5--5--5--5--|--5--5--5--5--5--5--5--5--|
--3--3--3--3--3--3--3--3--|--3--3--3--3--3--3--3--3--|


  E  E  E  E  E  E  E  E     E  E  E  E  E  E  E  E   
--------------------------|--------------------------|
--------------------------|--------------------------|
--4--4--4--4--4--4--4--4--|--4--4--4--4--4--4--4--4--|
--4--4--4--4--4--4--4--4--|--4--4--4--4--4--4--4--4--|
--2--2--2--2--2--2--2--2--|--2--2--2--2--2--2--2--2--|
--------------------------|--------------------------|


  E  E  E  E  E  E  E  E     E  E  E  E  E  E  E  E   
--------------------------|--------------------------|
--------------------------|--------------------------|
--4--4--4--4--4--4--4--4--|--4--4--4--4--4--4--4--4--|
--4--4--4--4--4--4--4--4--|--4--4--4--4--4--4--4--4--|
--2--2--2--2--2--2--2--2--|--2--2--2--2--2--2--2--2--|
--------------------------|--------------------------|


  Q.      E   E    E   E   E     Q.      E   E    E   E   E   
------------------------------|------------------------------|
------------------------------|------------------------------|
---------12--12s--11--11------|---------14--14s--12--12------|
------------------------------|--2---------------------------|
--2------10--10s---9---9s--7--|--2------12--12s--10--10s--7--|
--0------------------------0--|--0------------------------0--|


  Q.      E   E    E   E    E      E    E   E  E  E  E  E   E   
-------------------------------|-------------------------------|
-------------------------------|-------------------------------|
---------17--17s--16--16s--14--|--14s--12--12------------------|
--2----------------------------|---------------7--7--3--3--10--|
--2------15--15s--14--14s--12--|--12s--10--10--5--5--1--1---8--|
--0----------------------------|---------------5--5--1--1---8--|


  Q.      E   E    E   E   E     Q.      E   E    E   E   E   
------------------------------|------------------------------|
------------------------------|------------------------------|
---------12--12s--11--11------|---------14--14s--12--12------|
------------------------------|--2---------------------------|
--2------10--10s---9---9s--7--|--2------12--12s--10--10s--7--|
--0------------------------0--|--0------------------------0--|


  Q.      E   E    E   E    E      E    E   E  E  E  E  E   E   
-------------------------------|-------------------------------|
-------------------------------|-------------------------------|
---------17--17s--16--16s--14--|--14s--12--12------------------|
--2----------------------------|---------------7--7--3--3--10--|
--2------15--15s--14--14s--12--|--12s--10--10--5--5--1--1---8--|
--0----------------------------|---------------5--5--1--1---8--|


  TP                                       TP                
  W                   W                    W                 
-------------------|-------------------|--------------------|
-------------------|-------------------|--------------------|
--9----------------|--L----------------|--11----------------|
-------------------|-------------------|--------------------|
-------------------|-------------------|--------------------|
-------------------|-------------------|--------------------|


                        TP                                     
   W                    W                    W                 
--------------------|--------------------|--------------------|
--------------------|--------------------|--------------------|
---L----------------|--12----------------|---L----------------|
--------------------|--------------------|--------------------|
--------------------|--------------------|--------------------|
--------------------|--------------------|--------------------|


   TP                   TP                   TP                
   W                    W                    W                 
--------------------|--------------------|--------------------|
--------------------|--------------------|--------------------|
--14----------------|--16----------------|--21----------------|
--------------------|--------------------|--------------------|
--------------------|--------------------|--------------------|
--------------------|--------------------|--------------------|


                                           TP                
  W                   W                    W                 
-------------------|-------------------|--------------------|
-------------------|-------------------|--------------------|
--L----------------|--L----------------|--20----------------|
-------------------|-------------------|--------------------|
-------------------|-------------------|--------------------|
-------------------|-------------------|--------------------|


  W                   W                   W                   W                 
-------------------|-------------------|-------------------|-------------------|
-------------------|-------------------|-------------------|-------------------|
-------------------|-------------------|-------------------|-------------------|
-------------------|-------------------|-------------------|-------------------|
-------------------|-------------------|-------------------|-------------------|
-------------------|-------------------|-------------------|-------------------|


  W                   W                   W                   W                 
-------------------|-------------------|-------------------|-------------------|
-------------------|-------------------|-------------------|-------------------|
------
comments
We did not receive enough feedback on this tab! Please rate:
1 2 3 4 5
2 comments total.
+1 reply
Meticulous wrote on August 1 2009, 10:28 pm

Flawless

0 reply
brenten000 wrote on January 10 2011, 10:17 pm

Its right but the tuning is actually a half step down from standard. I was playing along and had to tune down a half step to make the tabs sound right. But hey this is the only tab ive seen that looks and sounds right.

I want to post or [tab]
guest
You may want to rate the tab now too:
select rating
Please do not post tabs as comments. Select "correction" instead!