Oops, an error
Loading. Please wait.

Pull Me Under Bass Tab

ver2
ver2
More versions @911Tabs.com
17,087 views 45 this week
2 commentsread comments
1 2 3 4 5
excellent!
x 4
Autoscroll
+/-
esc
set tempo
stop
Contributor
Difficulty
intermediate
WARNING: You are trying to view
                                    content from Ultimate-Guitar.com
                                    in an unauthorized application,
                                    which is prohibited.

                                    Please use an official Ultimate
                                    Guitar Tabs application for iPhone,
                                    iPad or Android to access legitimate
                                    chords, guitar, bass, and drum tabs
                                    from Ultimate-Guitar.com database.

                                    Type "ultimate guitar tabs" in Apple
                                    App Store's or Android Market's
                                    search to find the application.
Track 1
      W                   W                   W                 
G||--------------------|-------------------|-------------------|
D||*-------------------|-------------------|-------------------|
A||*-------------------|-------------------|-------------------|
E||---0----------------|--L----------------|--L----------------|


                                  NH                      NH           
  W                      Q.       E  H           Q.       E  H         
--------------------||----------<>5--L--------|---------<>5--L--------|
-------------------*||*---------<>5--L--------|---------<>5--L--------|
-------------------*||*-----------------------|-----------------------|
--L-----------------||---0--------------------|--0--------------------|


           NH                      NH                                       
  Q.       E  H           Q.       E  H               E    E  H.            
---------<>5--L--------|---------<>5--L---------||---14s--12--L------------|
---------<>5--L--------|---------<>5--L--------*||*------------------------|
-----------------------|-----------------------*||*------------------------|
--0--------------------|--0---------------------||-------------------------|


   E    E  H.               E   E  H.            
--11s--12--L------------|------12--L------------|
------------------------|--11---L--L------------|
------------------------|-----------------------|
------------------------|-----------------------|


   E   E  Q.      E   E    E        S S E  E  E  E  S S E  S S  
------12--L----------14s--16---||------------------------------|
--10---L--L------12---L-------*||*-----------------------------|
------------------------------*||*--5-7------------------------|
-------------------------------||-------0--0--0--0--0-0-0--0-0-|


  S S E  E  E  E  S S E  S S    S S E  E  E  E  S S E  S S  
-----------------------------|-----------------------------|
-----------------------------|-----------------------------|
--5-7------------------------|--5-7------------------------|
------0--0--0--0--0-0-0--0-0-|------0--0--0--0--0-0-0--0-0-|


  S S E  E  E  E  E  Q         S S E  E  E  E  S S E  S S  
---------------------------||-----------------------------|
--------------------------*||-----------------------------|
--5-7----3--3--3--5--5----*||--5-7----3--3--3-------------|
------0--------------------||------0-----------1-1-1--1-1-|


    S S E  E  E  E  E  E  E     S S E  E  E  E  E  E  E   
|----------------------------|---------------------------|
|*---------------------------|---------------------------|
|*---------------------------|---------------------------|
|---0-0-0--5--3--0--0--0--0--|--0-0-0--2--3--0--0--0--0--|


  S S E  E  E  E  E  E  E     S S E  E  E  S S E  Q       
---------------------------|----------------------------||
---------------------------|---------------------------*||
---------4-----------------|---------2--3------5--L----*||
--0-0-0-----3--0--0--0--0--|--0-0-0--------0-0----------||


  S S E  E  E  S S E  Q         S S E  E  E  S S E  S S E   
---------------------------||------------------------------|
---------------------------||*-----------------------------|
---------2--3------5--L----||*-----------------------------|
--0-0-0--------0-0---------||---0-0-0--5--3--0-0-0--0-0-0--|


  S S E  E  E  S S E  S S E     S S E  E  E  S S E  S S E   
-----------------------------|-----------------------------|
-----------------------------|-----------------------------|
-----------------------------|---------4-------------------|
--0-0-0--2--3--0-0-0--0-0-0--|--0-0-0-----3--0-0-0--0-0-0--|


  S S E  E  E  S S E  Q         S S E  E  E  S S E  Q     
----------------------------||---------------------------|
---------------------------*||---------------------------|
---------2--3------5--L----*||---------2--3------5--L----|
--0-0-0--------0-0----------||--0-0-0--------0-0---------|


  S S E  S S E  S S E  S S E     S S E  S S E  S S E  S S E   
------------------------------|------------------------------|
------------------------------|------------------------------|
------------------------------|------------------------------|
--0-0----0-0----0-0----0-0----|--0-0----0-0----0-0----0-0----|


  S S E  S S E  S S E  S S E       E  S S E  S S E  S S E  S S  
------------------------------||-------------------------------|
------------------------------||*------------------------------|
------------------------------||*------------------------------|
--0-0----0-0----0-0----0-0----||------0-0----0-0----0-0----0-0-|


  E  S S E  S S E  S S E  S S    E  S S E  S S E  S S E  S S  
------------------------------|------------------------------|
------------------------------|------------------------------|
------------------------------|------------------------------|
-----0-0----0-0----0-0----0-0-|-----0-0----0-0----0-0----0-0-|


  E  S S E  S S E  S S E  S S      S S S S S S S S S S S S S S S S  
-------------------------------||----------------------------------|
------------------------------*||----------------------------------|
------------------------------*||----------------------------------|
-----0-0----0-0----0-0----0-0--||--0-0-0-0-0-0-0-0-0-0-0-0-0-0-0-0-|


  S S S S S S S S S S S S S S S S    S S S S S S S S S S S S S S S S  
----------------------------------|----------------------------------|
----------------------------------|----------------------------------|
--3-3-3-3-3-3-3-3-3-3-3-3-3-3-3-3-|--4-4-4-4-4-4-4-4-4-4-4-4-4-4-4-4-|
----------------------------------|----------------------------------|


  S S S S S S S S S S S S S S S S    S S S S S S E  E  S S Q     
----------------------------------|-----------------------------|
----------------------------------|-----------------------------|
----------------------2-2-2-2-2-2-|-----------------------------|
--3-3-3-3-3-3-3-3-3-3-------------|--0-0-0-0-0-0-0--L--0-0-0----|


  S S S S S S E  E  S S Q       S S S S S S E  E  S S Q     
-----------------------------|-----------------------------|
-----------------------------|-----------------------------|
--3-3-3-3-3-3-3--L--3-3-3----|--4-4-4-4-4-4-4--L--4-4-4----|
-----------------------------|-----------------------------|


  S S S S S S E  E  S S Q         S S S S S S S S S S S S S S S S  
-----------------------------||-----------------------------------|
-----------------------------||*----------------------------------|
--------------------2-2-2----||*----------------------------------|
--3-3-3-3-3-3-3--L-----------||---0-0-0-0-0-0-0-0-0-0-0-0-0-0-0-0-|


  S S S S S S S S S S S S S S S S    S S S S S S S S S S S S S S S S  
----------------------------------|----------------------------------|
----------------------------------|----------------------------------|
----------------------------------|--4-4-4-4-4-4-4-4-4-4-4-4-4-4-4-4-|
--2-2-2-2-2-2-2-2-2-2-2-2-2-2-2-2-|----------------------------------|


  S S S S S S S S S S S S S S S S      S S S S S S S S S S S S S S S S  
-----------------------------------||----------------------------------|
----------------------------------*||----------------------------------|
----------------------2-2-2-2-2-2-*||----------------------------------|
--3-3-3-3-3-3-3-3-3-3--------------||--3-3-3-3-3-3-3-3-1-1-1-1-1-1-1-1-|


  S S E  H        E   E        S S S S S S S S S S S S S S S S  
--------------------------||-----------------------------------|
--------------------------||*----------------------------------|
--------------------------||*----------------------------------|
--0-0----------------15\--||---0-0-2-0-3-0-0-6-0-5-0-0-3-0-1-0-|


  S S S S S S S S S S S S S S S S    S S S S S S S S S S S S S S S S  
----------------------------------|----------------------------------|
----------------------------------|----------------------------------|
----------------------------------|----------------------------------|
--0-0-2-0-3-0-0-6-0-5-0-0-3-0-1-0-|--0-0-2-0-3-0-0-6-0-5-0-0-3-0-1-0-|


  S S S S S S S S S S S S S S S S      S S S S S S S S S S S S S S S S  
-----------------------------------||------------------------5-4-2-----|
----------------------------------*||------------------5-4-2-------5-4-|
----------------------------------*||------------3-2-0-----------------|
--0-0-2-0-3-0-0-6-0-5-0-0-3-0-1-0--||--0-2-3-2-0-----------------------|


  S S S S T T S S S S S S S S S S S    S S S S T T S S S S S S S S S S S  
------------------------------------|------------------------------------|
------------------------------------|------------------------------------|
----------2-3-2---2---2-------------|----------3-5-3---3---3-------------|
--0-2-3-5-------5---5---3-5-2-5-3-2-|--0-3-5-7-------7---7---5-7-3-7-5-3-|


  S S S S T T S S S S S S S S S S S  
------------------------------------|
------------------------------------|
----------5-7-5---5---5-------------|
--0-5-7-9-------9---9---7-9-5-9-7-5-|


  S S S  S T  T S  S S S S  S  S T  T S  S  S  
----------------------------------------------|
----------------------------------------------|
-----------7-10-7----------------9-12-9-------|
--0-7-8-10--------10-8-0-9-10-12--------12-10-|


  S  S  S  S  T  T  S  S  S  S  S  S  S  S  S  S  S  
----------------------------------------------------|
----------------------------------------------------|
-------------10-12-10----10----10-------------------|
--0-10-12-14----------14----14----12-14-10-14-12-10-|


  S  S  S  S  T  T  S  S  S  S  S  S  S  S  S  S  S  
----------------------------------------------------|
----------------------------------------------------|
-------------12-14-12----12----12-------------------|
--0-12-14-15----------15----15----14-15-12-15-14-12-|


  S  S  S  S  T  T  S  S  S  S  S  S  S  S  S  S  S  
----------------------------------------------------|
----------------------------------------------------|
-------------14-16-14----14----14-------------------|
--0-14-15-17----------17----17----15-17-14-17-15-14-|


  S  S  S  S  T  T  S  S  S  S  S  S  S  S  S  S S  
----------------------------------------------17---|
-------------10-12-10----10-------15-------15------|
----10-12-14----------14-------15----14-15---------|
--0-------------------------13-------------------0-|


  E  S S E  S S E  S S S S E     E  S S E  S S E  S S S S E   
------------------------------|------------------------------|
------------------------------|------------------------------|
------------------------------|---------------------------2--|
--L--0-0-0--0-0-0--0-0-0-0-1--|--L--1-1-1--1-1-1--1-1-1-1----|


  E  E  E  E  E  E  E  E     E  E  E  E  S S S S E  H         
--------------------------|----------------------------------|
--------------------------|----------------------------------|
--L--3--L--2--L--0--L-----|-----3--L--2--2-0-2-5-2--2--------|
-----------------------3--|--L-------------------------------|


  E  S S E  S S E  S S E  S S    E  S S E  S S E  S S E  S S  
------------------------------|------------------------------|
--7------7------7------7------|--7------7------7------7------|
-----0-0----0-0----0-0----0-0-|-----0-0----0-0----0-0----0-0-|
------------------------------|------------------------------|


  E  S S E  S S E  S S E  S S    E  S S Q    E  E  Q       H        E  Q    E   
------------------------------|-------------------------|----------------------|
--7------7------7------7------|--7----------------------|----------------------|
-----0-0----0-0----0-0----0-0-|-----0-0-----------------|----------------------|
------------------------------|---------1----L--3--3----|--5--------L--7----8--|


  W                   H        E  E  E  E     H        S S E  S E.   
-------------------|-----------------------|------------------------|
-------------------|-----------------------|------------------------|
-------------------|--5--------L--7--L--8--|--L------------1----1---|
--L----------------|-----------------------|-----------0-0----0-----|


  S S E  E  E  E  S S E  S S    S S E  E  E  E  S S E  S S  
-----------------------------|-----------------------------|
-----------------------------|-----------------------------|
-----------------------------|-----------------------------|
--5-7-0--0--0--0--0-0-0--0-0-|--5-7-0--0--0--0--0-0-0--0-0-|


  S S E  E  E  E  S S E  S S    S S E  E  E  E  S S E  S S  
-----------------------------|-----------------------------|
-----------------------------|-----------------------------|
-----------------------------|-----------------------------|
--5-7-0--0--0--0--0-0-0--0-0-|--5-7-0--0--0--0--0-0-0--0-0-|


    Q    Q    E  E  E  E     E  S S H        E  E     Q    Q    E  E  E  E   
|-------------------------|------------------------|------------------------|
|*------------------------|------------------------|------------------------|
|*---------------------5--|--L--7-5-7--------5-----|---------------------5--|
|---0----3----5--7--L-----|---------------------7--|--0----3----5--7--L-----|


  E  S S Q    S S E  S S E       E  S S Q    S S E  S S E   
-----------------------------||----------------------------|
----------------------------*||----------------------------|
--L--7-5-3--------5------5--*||--L--7-5-3------------------|
--------------0-0----0-0-----||--------------1-1-1--1-1-1--|


  S S S S S S S S S S S S S S S S    S S S S S S S S S S S S S S S S  
----------------------------------|----------------------------------|
----------------------------------|----------------------------------|
----------------------------------|--3-3-3-3-3-3-3-3-3-3-3-3-3-3-3-3-|
--0-0-0-0-0-0-0-0-0-0-0-0-0-0-0-0-|----------------------------------|


  S S S S S S S S S S S S S S S S    S S S S S S S S S S S S S S S S  
----------------------------------|----------------------------------|
----------------------------------|----------------------------------|
--4-4-4-4-4-4-4-4-4-4-4-4-4-4-4-4-|----------------------2-2-2-2-2-2-|
----------------------------------|--3-3-3-3-3-3-3-3-3-3-------------|


  S S S S S S E  E  S S Q       S S S S S S E  E  S S Q     
-----------------------------|-----------------------------|
-----------------------------|-----------------------------|
-----------------------------|--3-3-3-3-3-3-3--L--3-3-3----|
--0-0-0-0-0-0-0--L--0-0-0----|-----------------------------|


  S S S S S S E  E  S S Q       S S S S S S E  E  S S Q     
-----------------------------|-----------------------------|
-----------------------------|-----------------------------|
--4-4-4-4-4-4-4--L--4-4-4----|--------------------2-2-2----|
-----------------------------|--3-3-3-3-3-3-3--L-----------|


  S S S S S S S S S S S S S S S S    S S S S S S S S S S S S S S S S  
----------------------------------|----------------------------------|
----------------------------------|----------------------------------|
----------------------------------|----------------------------------|
--0-0-0-0-0-0-0-0-0-0-0-0-0-0-0-0-|--2-2-2-2-2-2-2-2-2-2-2-2-2-2-2-2-|


  S S S S S S S S S S S S S S S S    S S S S S S S S  S  S  S  S  S  S  S S  
----------------------------------|------------------------------------17---|
----------------------------------|------------------------15-------15------|
--4-4-4-4-4-4-4-4-4-4-4-4-4-4-4-4-|---------------------------14-15---------|
----------------------------------|--3-3-3-3-3-3-3-3-12-13----------------0-|


  E  S S E  S S E  S S S S E     E  S S E  S S E  S S S S E   
------------------------------|------------------------------|
------------------------------|------------------------------|
------------------------------|---------------------------2--|
--L--0-0-0--0-0-0--0-0-0-0-1--|--L--1-1-1--1-1-1--1-1-1-1----|


  E  E  E  E  E  E  E  E     E  E  E  E  S S S S E  H         
--------------------------|----------------------------------|
--------------------------|----------------------------------|
--L--3--L--2--L--0--L-----|-----3--L--2--2-0-2-5-2--2--------|
-----------------------3--|--L-------------------------------|


  E  S S E  S S E  S S E  S S    E  S S E  S S E  S S E  S S  
------------------------------|------------------------------|
--7------7------7------7------|--7------7------7------7------|
-----0-0----0-0----0-0----0-0-|-----0-0----0-0----0-0----0-0-|
------------------------------|------------------------------|


  E  S S E  S S E  S S E  S S    E  S S Q    E  E  Q       H        E  Q    E   
------------------------------|-------------------------|----------------------|
--7------7------7------7------|--7----------------------|----------------------|
-----0-0----0-0----0-0----0-0-|-----0-0-----------------|----------------------|
------------------------------|---------1----L--3--3----|--5--------L--7----8--|


  W                   H        E  E  E  E     H        S S E  S E.   
-------------------|-----------------------|------------------------|
-------------------|-----------------------|------------------------|
-------------------|--5--------L--7--L--8--|--L------------1----1---|
--L----------------|-----------------------|-----------0-0----0-----|


  W                   W                   W                 
-------------------|-------------------|-------------------|
-------------------|-------------------|-------------------|
-------------------|-------------------|-------------------|
--0----------------|--L----------------|--L----------------|


  Q    E  E  E  E  E   E     W                   W                 
--------------------------|-------------------|-------------------|
--------------------------|-------------------|-------------------|
-------3--3--3--5--5s--2--|-------------------|-------------------|
--L-----------------------|--0----------------|--L----------------|


                                                         NH           
  W                   Q    E  E  E   E  Q       Q.       E  H         
-------------------|-------------------------|---------<>4--L--------|
-------------------|-------------------------|---------<>4--L--------|
-------------------|-------3--3--3s--8--8----|-----------------------|
--L----------------|--L----------------------|--0--------------------|


           NH                      NH                                     
  Q.       E  H           Q.       E  H           Q    E  E  Q    E  S S  
---------<>5--L--------|---------<>7--L--------|-------------------------|
---------<>5--L--------|---------<>7--L--------|-------------------------|
-----------------------|-----------------------|-------3--3--L----L--2-5-|
--0--------------------|--0--------------------|--0----------------------|


           NH                      NH                      NH           
  Q.       E  H           Q.       E  H           Q.       E  H         
---------<>4--L--------|---------<>5--L--------|---------<>7--L--------|
---------<>4--L--------|---------<>5--L--------|---------<>7--L--------|
-----------------------|-----------------------|-----------------------|
--0--------------------|--0--------------------|--0--------------------|


  Q.     E  S S E  S S E     E  E  E  E  E  E  E  E   
--------------------------|--------------------------|
--------------------------|--------------------------|
---------9--9-7-5---------|--------------------------|
--0----------------7-5-3--|--0--0--0--0--0--0--0--0--|


  E  E  E  E  E  E  E  E     E  E  E  E  E  E  E  E   
--------------------------|--------------------------|
--------------------------|--------------------------|
--3--3--3--3--3--3--3--3--|--4--4--4--4--4--4--4--4--|
--------------------------|--------------------------|


  E  E  E  E  E  E  E  E     E  E  E  E  E  E  E  E   
--------------------------|--------------------------|
--------------------------|--------------------------|
-----------------2--2--2--|--------------------------|
--3--3--3--3--3-----------|--0--0--0--0--0--0--0--0--|


  E  E  E  E  E  E  E  E     E  E  E  E  E  E  E  E   
--------------------------|--------------------------|
--------------------------|--------------------------|
--------------------------|--4--4--4--4--4--4--4--4--|
--3--3--3--3--3--3--3--3--|--------------------------|


  E  E  E  E  E  E  E  E     E  E   E   E   E   E  E  E   
--------------------------|--------11--------------------|
--------------------------|------------12------10--9-----|
--------------2--2--2--2--|--3--3----------12---------7--|
--3--3--3--3--------------|------------------------------|


  E  E  E   E  E  E  S  S  E     E  E  E  E  E  E  E  E   
------------------7--7s-9s-7--|--------------------------|
------------------7--7s-9s-7--|--------------------------|
-----7--9--10-----------------|--8-----------------------|
--0------------0--------------|-----1--1--1--3--3--3--3--|


  E  E  E  E  E  E  E  E     E  S S E  S S E  S S E  S S  
--------------------------|------------------------------|
--------------------------|--7------7------7------7------|
--------------------------|-----0-0----0-0----0-0----0-0-|
--5--5--5--5--7--7--7--7--|------------------------------|


  E  S S E  S S E  S S E  S S    E  S S E  S S E  S S E  S S  
------------------------------|------------------------------|
--7------7------7------7------|--7------7------7------7------|
-----0-0----0-0----0-0----0-0-|-----0-0----0-0----0-0----0-0-|
------------------------------|------------------------------|


  E  S S Q    E  E  Q       H        E  Q    E     W                 
-------------------------|----------------------|-------------------|
--7----------------------|----------------------|-------------------|
-----0-0-----------------|----------------------|-------------------|
---------1----L--3--3----|--5--------L--7----8--|--L----------------|


  H        E  E  E  E     H        S S E  S E.   
-----------------------|------------------------|
-----------------------|------------------------|
--5--------L--7--L--8--|--L------------1----1---|
-----------------------|-----------0-0----0-----|


  S S S S S S S S S S S S S S S S    S S S S S S S S S S S S S S S S  
----------------------------------|----------------------------------|
----------------------------------|----------------------------------|
--0-0-0-0-0-0-0-0-0-0-0-0-0-0-0-0-|--0-0-0-0-0-0-0-0-0-0-0-0-0-0-0-0-|
----------------------------------|----------------------------------|


  S S S S S S S S S S S S S S S S    E  S S Q    E  E  Q     
----------------------------------|-------------------------|
----------------------------------|-------------------------|
--0-0-0-0-0-0-0-0-0-0-0-0-0-0-0-0-|--0--0-0-----------------|
----------------------------------|---------1----L--3--3----|


  H        E  Q    E     W                   H        E  E  E  E   
----------------------|-------------------|-----------------------|
----------------------|-------------------|-----------------------|
----------------------|-------------------|--5--------L--7--L--8--|
--5--------L--7----8--|--L----------------|-----------------------|


  H        S S E.  E.       S S E  E  E  E  S S E  S S  
-----------------------||------------------------------|
-----------------------||*-----------------------------|
--L------------1---1---||*-----------------------------|
-----------0-0---------||---5-7-0--0--0--0--0-0-0--0-0-|


  S S E  E  E  E  S S E  S S    S S E  E  E  E  S S E  S S  
-----------------------------|-----------------------------|
-----------------------------|-----------------------------|
-----------------------------|-----------------------------|
--5-7-0--0--0--0--0-0-0--0-0-|--5-7-0--0--0--0--0-0-0--0-0-|


                  |-3-|                                        
  S S E  E  E  E  S S S Q          S S E  E  E  E  S S E  S S  
------------------------------||------------------------------|
-----------------------------*||*-----------------------------|
------------------------7----*||*--5-7------------------------|
--5-7-0--0--0--0--0-0-0-------||-------0--0--0--0--0-0-0--0-0-|


  S S E  E  E  E  S S E  S S    S S E  E  E  E  S S E  S S  
-----------------------------|-----------------------------|
-----------------------------|-----------------------------|
--7-8------------------------|--8-9------------------------|
------0--0--0--0--0-0-0--0-0-|------0--0--0--0--0-0-0--0-0-|


  S  S E  E  E  Q    Q          S S E  E  E  E  S S Q      
---------------------------||-----------------------------|
--------------------------*||*----------------------------|
--8-10----------3----1----*||*--5-7-----------------7\----|
-------0--0--0-------------||-------0--0--0--0--0-0-------|


  |-3-|                          |-3-|                        
  S S S E  E  E  E  S S Q        S S S E  E  E  E  S S Q      
------------------------------|------------------------------|
------------------------------|------------------------------|
--------8---------------8\----|--------9---------------9\----|
--0-0-0----0--0--0--0-0-------|--0-0-0----0--0--0--0-0-------|


  |-3-|                                                     
  S S S  E   Q    Q    Q         S S E  E  E  E  S S Q      
-----------------------------||----------------------------|
----------------------------*||----------------------------|
--------10--10----3----1----*||--5-7-----------------7\----|
--0-0-0----------------------||------0--0--0--0--0-0-------|


  |-3-|                     
  S S S E  E  E  H          
--------------------------||
--------------------------||
--------8-----------------||
--0-0-0----0--0-----------||




Duration Legend
---------------
W - whole
H - half
Q - quarter
E - 8th
S - 16th
T - 32nd
X - 64th
. - note dotted
|-n-|  - n-tuplets


Tablature Legend
----------------
L - tied note
x - dead note
g - grace note
(n) - ghost note
> - accentuded note
NH - natural harmonic
AH - artificial harmonic
TH - tapped harmonic
SH - semi harmonic
PH - pitch harmonic
h - hammer on
p - pull off
b - bend
br - bendRelease
pb - preBend
pbr - preBendRelease
brb - bendReleaseBend
\n/ - tremolo bar dip
\n - tremolo bar dive
-/n - tremolo bar Release up
/n\ - tremolo bar inverted dip
/n - tremolo bar return
-\n - tremolo bar Release down
S - shift slide
s - legato slide
/ -  slide into from below or out of upwards
\ -  slide into from above or out of downwards
~ - vibrato
W - wide vibrato
tr - trill
TP - tremolo picking
T - tapping
S - slap
P - pop
< - fade in
^ - brush up
v - brush down
comments
print report bad tab
2 comments total.
0 reply
lemon_detective wrote on January 19 2011, 04:26 pm

Really great tab, can I just ask though, what is the "L"?

0 reply
lemon_detective wrote on January 19 2011, 04:52 pm

Never mind, just found the key >.

I want to post or [tab]
guest
You may want to rate the tab now too:
select rating
Please do not post tabs as comments. Select "correction" instead!