Oops, an error
Loading. Please wait.

Pull Me Under Tab

ver3
ver3
More versions @911Tabs.com
6,283 views 33 this week
no commentswrite comment
1 2 3 4 5
excellent!
x 3
Autoscroll
+/-
esc
set tempo
stop
Contributor
Difficulty
advanced
Hey! There's an official Ultimate Guitar app which is ideal
for learning songs when you're away from computer. Get the app
WARNING: You are trying to view
                                    content from Ultimate-Guitar.com
                                    in an unauthorized application,
                                    which is prohibited.

                                    Please use an official Ultimate
                                    Guitar Tabs application for iPhone,
                                    iPad or Android to access legitimate
                                    chords, guitar, bass, and drum tabs
                                    from Ultimate-Guitar.com database.

                                    Type "ultimate guitar tabs" in Apple
                                    App Store's or Android Market's
                                    search to find the application.
                                  PULL ME UNDER
                          As recorded by Dream Theater
                      (From the 1992 Album IMAGES & WORDS)

Words by Kevin Moore

Music by John Petrucci, Mike Portnoy, John Myung, James Labrie & Kevin Moore
Done By Daniel Pacheco
Gtr I (E A D G B E) - 'Clean'
Gtr II (E A D G B E) - 'Dist Rhythm'
Gtr III (E A D G B E) - 'Dist Lead'

   Intro
    Q=102
    Em              Em9             Em6             C/E    D6
   4/4
    Gtr I
         ~~~~~~          ~~~~~~          ~~~~~~
    Q  E E +H       Q  E E +H       Q  E E +H       Q  E E +E  E E E
||----------------|---------------|---------------|-------------------|
||o---------------|---------------|---------------|----------------0--|
||-------0-(0)----|------0-(0)----|------0-(0)----|------0-(0)---2----|
||-----7----------|----4----------|---------------|------------0------|
||o---------------|---------------|----4----------|----3--------------|
||--0-------------|-0-------------|-0-------------|-0-----------------|


  Em              Em9             Em6             C/E    F+11
       ~~~~~~          ~~~~~~          ~~~~~~
  Q  E E +H       Q  E E +H       Q  E E +H       Q  E E +E  E E E
|---------------|---------------|---------------|-------------------||
|---------------|---------------|---------------|----------------0-o||
|------0-(0)----|------0-(0)----|------0-(0)----|------0-(0)---2----||
|----7----------|----4----------|---------------|-------------------||
|---------------|---------------|----4----------|----3-------------o||
|-0-------------|-0-------------|-0-------------|-0----------1------||


  Em              Em9             Em6             C/E    D6
  Q  E E E Q  E   Q  E E E Q  E   Q  E E E Q  E   Q  E E +E  E E E
|----------0----|----------0----|----------0----|------------------|
|-------------0-|-------------0-|-------------0-|----------------0-|
|------0--------|------0--------|------0--------|------0-(0)---2---|
|----7----------|----4----------|---------------|------------0-----|
|---------------|---------------|----4----------|----3-------------|
|-0------0------|-0------0------|-0------0------|-0----------------|


  Em              Em9             Em6             C/E        F+11
  Q  E E E Q  E   Q  E E E Q  E   Q  E E E Q  E   Q  E E +E  E E E
|----------0----|----------0----|----------0----|------------------|
|-------------0-|-------------0-|-------------0-|----------------3-|
|------0--------|------0--------|------0--------|------0-(0)---2---|
|----7----------|----4----------|---------------|------------------|
|---------------|---------------|----4----------|----3-------------|
|-0------0------|-0------0------|-0------0------|-0----------1-----|


    Em              Em9             Em6
         ~~~~~~          ~~~~~~          ~~~~~~
    Q  E E +H       Q  E E +H       Q  E E +H
||----------------|---------------|---------------|
||o---------------|---------------|---------------|
||-------0-(0)----|------0-(0)----|------0-(0)----|
||-----7----------|----4----------|---------------|
||o---------------|---------------|----4----------|
||--0-------------|-0-------------|-0-------------|
|
|   Gtr II
|   W               W               W
||--0-------------|-0-------------|-0-------------|
||o-0-------------|-0-------------|-0-------------|
||--9-------------|-9-------------|-9-------------|
||--9-------------|-9-------------|-9-------------|
||o-7-------------|-7-------------|-7-------------|
||--0-------------|-0-------------|-0-------------|


  1.                   2.
  C/E     D6            C/E         F+11
  Q   E E +E  E E E     Q   E E +E  E E E
|--------------------||-------------------|
|-----------------0-o||-----------------0-|
|-------0-(0)---2----||-------0-(0)---2---|
|-------------0------||-------------------|
|-----3-------------o||-----3-------------|
|-0------------------||-0-----------1-----|
|
| Q   Q   +E  E Q       Q   Q  +E   E Q
|-0------------------||-0-----------------|
|-0-----------------o||-0-----------------|
|-9--5---(5)-7-7-----||-9--5---(5)--------|
|-9--5---(5)-7-7-----||-9--5---(5)--3-3---|
|-7--3---(3)-5-5---o-||-7--3---(3)--3-3---|
|-0------------------||-0-----------1-1---|


    E5    A5G5E5              F#G5E5              C#G5E5
    Gtr II
    PM--|     PM------------|     PM------------|     PM----|
    S S E E E E E E E   S S E E E E E E E   S S E E E E E E E
||--------------------|-------------------|-------------------|
||o-------------------|-------------------|-------------------|
||--------------------|-------------------|-------------------|
||--------7s5-2-2-2-2-|-------4s5-2-2-2-2-|-------6-5-2-2-2-2-|
||o-------7s5-2-2-2-2-|-------4s5-2-2-2-2-|-------4-5-2-2-2-2-|
||--0-0-0-----0-0-0-0-|-0-0-0-----0-0-0-0-|-0-0-0-----0-0-0-0-|


  1.                      2.
        B5C5    D5               B5C5    F5
  PM--|                    PM--|
  S S E E E S S E +Q       S S E E E S S E +Q
|-----------------------||----------------------|
|----------------------o||----------------------|
|-----------------------||----------------------|
|-------4s5-----7-(7)---||-------4s5-----3-(3)--|
|-------2s3-----5-(5)--o||-------2s3-----3-(3)--|
|-0-0-0-2s3-0-0-5-(5)---||-0-0-0-2s3-0-0-1-(1)--|


    E5    A5G5E5                  F#G5E5                  C#G5E5
    PM--|     PM|   PM|     PM--|     PM|   PM|     PM--|     PM|   PM|
    S S E E E S S E S S E   S S E E E S S E S S E   S S E E E S S E S S E
||------------------------|-----------------------|------------------------|
||o-----------------------|-----------------------|------------------------|
||------------------------|-----------------------|------------------------|
||--------7s5-----2-----2-|-------4s5-----2-----2-|-------6-5-----2-----2--|
||o-------7s5-----2-----2-|-------4s5-----2-----2-|-------4-5-----2-----2--|
||--0-0-0-----0-0-0-0-0-0-|-0-0-0-----0-0-0-0-0-0-|-0-0-0-----0-0-0-0-0-0--|


  1.                      2.
        B5C5    D5               B5C5    F5
  PM--|     PM|            PM--|     PM|
  S S E E E S S E +Q       S S E E E S S E +Q
|-----------------------||----------------------|
|----------------------o||----------------------|
|-----------------------||----------------------|
|-------4s5-----7-(7)---||-------4s5-----3-(3)--|
|-------2s3-----5-(5)--o||-------2s3-----3-(3)--|
|-0-0-0-2s3-0-0-5-(5)---||-0-0-0-2s3-0-0-1-(1)--|


  E5
  S S E S S E S S E S S E   S S E S S E S S E S S E   S S E S S E S S E S S E
|-------------------------|-------------------------|--------------------------|
|-------------------------|-------------------------|--------------------------|
|-------------------------|-------------------------|--------------------------|
|-------------------------|-------------------------|--------------------------|
|-2-2---2-2---2-2---2-2---|-2-2---2-2---2-2---2-2---|-2-2---2-2---2-2---2-2----|
|-0-0---0-0---0-0---0-0---|-0-0---0-0---0-0---0-0---|-0-0---0-0---0-0---0-0----|


 1st Verse
  Em9
   S  S S S  S  S S S  S  S S S  S  S S S
|-----------------------------------------|
|-----------------------------------------|
|-11-11-----11-11-----11-11-----11-11-----|
|--9--9------9--9------9--9------9--9-----|
|--7--7------7--7------7--7------7--7-----|
|-------0-0-------0-0-------0-0-------0-0-|


  Em9+5
   S  S S S  S  S S S  S  S S S  S  S S S
|-----------------------------------------|
|-----------------------------------------|
|-12-12-----12-12-----12-12-----12-12-----|
|-10-10-----10-10-----10-10-----10-10-----|
|--9--9------9--9------9--9------9--9-----|
|-------0-0-------0-0-------0-0-------0-0-|


  Esus4
   S  S S S  S  S S S  S  S S S  S  S S S
|-----------------------------------------|
|-10-10-----10-10-----10-10-----10-10-----|
|--9--9------9--9------9--9------9--9-----|
|--9--9------9--9------9--9------9--9-----|
|-----------------------------------------|
|-------0-0-------0-0-------0-0-------0-0-|


  C5/E                Cb5/E
   S  S S S  S  S S S  S  S S S  S  S S S
|-----------------------------------------|
|-13-13-----13-13-----13-13-----13-13-----|
|-12-12-----12-12-----11-11-----11-11-----|
|-10-10-----10-10-----10-10-----10-10-----|
|-----------------------------------------|
|-------0-0-------0-0-------0-0-------0-0-|


  E9
   S  S S S  S  S S S  S  S S S  S  S S S
|-----------------------------------------|
|-----------------------------------------|
|-11-11-----11-11-----11-11-----11-11-----|
|--9--9------9--9------9--9------9--9-----|
|--7--7------7--7------7--7------7--7-----|
|-------0-0-------0-0-------0-0-------0-0-|


  C+11/E
   S  S S S  S  S S S  S  S S S  S  S S S
|-----------------------------------------|
|-----------------------------------------|
|-12-12-----12-12-----12-12-----12-12-----|
|-10-10-----10-10-----10-10-----10-10-----|
|--9--9------9--9------9--9------9--9-----|
|-------0-0-------0-0-------0-0-------0-0-|


  Esus4
   S  S S S  S  S S S  S  S S S  S  S S S
|-----------------------------------------|
|-10-10-----10-10-----10-10-----10-10-----|
|--9--9------9--9------9--9------9--9-----|
|--9--9------9--9------9--9------9--9-----|
|-----------------------------------------|
|-------0-0-------0-0-------0-0-------0-0-|


  C5/E                F9/E      Fb5/E
   S  S S S  S  S S S  S  S S S  S  S S S
|-----------------------------------------|
|-13-13-----13-13-------------------------|
|-12-12-----12-12-----12-12-----10-10-----|
|-10-10-----10-10-----10-10------9--9-----|
|----------------------8--8------8--8-----|
|-------0-0-------0-0-------0-0-------0-0-|


 Pre-Chorus
  Em                Gsus4
  Gtr I
  Q  E E +E  E Q    E E E E +E  E Q
|------2-(2)------|-------3-(3)------|
|------------5----|-------------3----|
|--------------4--|-----5------------|
|-----------------|---5--------------|
|-----------------|------------------|
|-----------------|------------------|
|
| Gtr II
| W                 W
|-----------------|-3----------------|
|-8---------------|-3----------------|
|-9---------------|-5----------------|
|-9---------------|-5----------------|
|-7---------------|-3----------------|
|-0---------------|-3----------------|


  G#sus4                  G5       B
                |-3-|
  E E E E +E  E S S S E   Q  a E E E E E E
|-------4-(4)-----------|------------0------|
|-------------5-4-5-4---|--------------4----|
|-----6---------------6-|----0h2-0-------4--|
|---6-------------------|-------------------|
|-----------------------|----------2--------|
|-----------------------|-3-----------------|
|
| W                       H        H
|-4---------------------|-3-----------------|
|-4---------------------|-3--------4--------|
|-6---------------------|-0--------4--------|
|-6---------------------|-0--------4--------|
|-4---------------------|----------2--------|
|-4---------------------|-3-----------------|


  Em9                   Gsus4
  E E E  E  +E  E  Q    E  E  E  E  +E  E  E E
|---------------------|------------------------|
|---------------8-----|-----------------8----8-|
|-------11-(11)---11--|---------11-(11)---11---|
|-----9---------------|------12----------------|
|---7-----------------|---10-------------------|
|-0-------------------|-8----------------------|
|
| W                     W
|---------------------|-3----------------------|
|-8-------------------|-3----------------------|
|-9-------------------|-5----------------------|
|-9-------------------|-5----------------------|
|-7-------------------|-3----------------------|
|-0-------------------|-3----------------------|


  G#sus4                  G5      B
                |-3-|
  E E E E +E  E S S S E   E E E E E E E E
|-------4-(4)-----------|-------------0-----|
|-------------5-4-5-4---|---------------4---|
|-----6---------------6-|-------0-----------|
|---6-------------------|-----7-----4-------|
|-4---------------------|---5-----2---------|
|-----------------------|-3-----------------|
|
| W                       H       H
|-4---------------------|-3-----------------|
|-4---------------------|-3-------4---------|
|-6---------------------|-0-------4---------|
|-6---------------------|-0-------4---------|
|-4---------------------|---------2---------|
|-4---------------------|-3-----------------|


 Interlude
  E5                                D5/A
  Gtr III
  S S S S S S S S S S S S S S S S   S S S S S S S S S S S S S S S S
|-------7---------7---------7-----|-------8---------8---------8-----|
|---5-----5-7-5-------7-5-----5---|-7-5-------7-5-------7-5-----5---|
|-4---4---------4---4-----4-----4-|-----5---5-----5---5-----5-----5-|
|---------------------------------|---------------------------------|
|---------------------------------|---------------------------------|
|---------------------------------|---------------------------------|
|
| Gtr II
| PM--------------------------------------------------------------|
| S S S S S S S S S S S S S S S S   S S S S S S S S S S S S S S S S
|---------------------------------|---------------------------------|
|---------------------------------|---------------------------------|
|---------------------------------|---------------------------------|
|---------------------------------|-7-7-7-7-7-7-7-7-7-7-7-7-7-7-7-7-|
|-2-2-2-2-2-2-2-2-2-2-2-2-2-2-2-2-|-5-5-5-5-5-5-5-5-5-5-5-5-5-5-5-5-|
|-0-0-0-0-0-0-0-0-0-0-0-0-0-0-0-0-|-5-5-5-5-5-5-5-5-5-5-5-5-5-5-5-5-|


  A/C#                                        C5
   S  S S  S S  S  S S  S S  S  S S  S  S S   S S S S S S S S S S S S S S S S
|---------12-----------12-----------12------|-----------------8-----7-5-------|
|-12-10--------12-10--------12-10------10---|-8---7-5---7-8-----7-------5-8-7-|
|-------9----9-------9----9-------9-------9-|---5-----5-----5-----5-----------|
|-------------------------------------------|---------------------------------|
|-------------------------------------------|---------------------------------|
|-------------------------------------------|---------------------------------|
|
|  PM-----------------------------------------------------------------------|
|  S  S S  S S  S  S S  S S  S  S S  S  S S   S S S S S S S S S S S S S S S S
|-------------------------------------------|---------------------------------|
|-------------------------------------------|---------------------------------|
|-------------------------------------------|---------------------------------|
|--7--7-7--7-7--7--7-7--7-7--7--7-7--7--7-7-|-5-5-5-5-5-5-5-5-5-5-5-5-5-5-5-5-|
|--4--4-4--4-4--4--4-4--4-4--4--4-4--4--4-4-|-3-3-3-3-3-3-3-3-3-3-3-3-3-3-3-3-|
|-------------------------------------------|---------------------------------|


  E5                                  F#5
  +S  S S S S S S S S S S S S S S S   S S S S S S S S S S S S S S S S
|---------7---------7---------7-----|-------8---------8---------8-----|
|-(7)-5-----5-7-5-------7-5-----5---|-7-5-------7-5-------7-5-----5---|
|-------4---------4---4-----4-----4-|-----5---5-----5---5-----5-----5-|
|-----------------------------------|---------------------------------|
|-----------------------------------|---------------------------------|
|-----------------------------------|---------------------------------|
|
|  PM---------------------------------------------------------------|
|  S  S S S S S S S S S S S S S S S   S S S S S S S S S S S S S S S S
|-----------------------------------|---------------------------------|
|-----------------------------------|---------------------------------|
|-----------------------------------|---------------------------------|
|-----------------------------------|---------------------------------|
|--2--2-2-2-2-2-2-2-2-2-2-2-2-2-2-2-|-4-4-4-4-4-4-4-4-4-4-4-4-4-4-4-4-|
|--0--0-0-0-0-0-0-0-0-0-0-0-0-0-0-0-|-2-2-2-2-2-2-2-2-2-2-2-2-2-2-2-2-|


  C#b5
   S  S S  S S  S  S S  S S  S  S S  S  S S
|---------12-----------12-----------12------|
|-12-10--------12-10--------12-10------10---|
|-------9----9-------9----9-------9-------9-|
|-------------------------------------------|
|-------------------------------------------|
|-------------------------------------------|
|
|  PM----------------------------------------
|  S  S S  S S  S  S S  S S  S  S S  S  S S
|-------------------------------------------|
|-------------------------------------------|
|-------------------------------------------|
|--5--5-5--5-5--5--5-5--5-5--5--5-5--5--5-5-|
|--4--4-4--4-4--4--4-4--4-4--4--4-4--4--4-4-|
|-------------------------------------------|


  C5                      F5          Fb5
   S  S  S  S  S  S  S  S  S  S  S  S  S  S  S  S
|-15----14-12----14-15----13----12-10----12-13----|
|----13-------12-------12----10-------10-------10-|
|-------------------------------------------------|
|-------------------------------------------------|
|-------------------------------------------------|
|-------------------------------------------------|
|
|----------------------------------------------|
|  S  S  S  S  S  S  S  S  S  S  S  S  S  S  S  S
|-------------------------------------------------|
|-------------------------------------------------|
|-------------------------------------------------|
|--5--5--5--5--5--5--5--5-------------------------|
|--3--3--3--3--3--3--3--3--3--3--3--3--2--2--2--2-|
|--------------------------1--1--1--1--1--1--1--1-|


 2nd Verse
  E5             G   Em
   E   E Q  H        W
|-12---------------|---------------------------------|
|------------------|---------------------------------|
|------------------|---------------------------------|
|------------------|---------------------------------|
|------------------|---------------------------------|
|------------------|---------------------------------|
|
|  S S E Q  Q  E E   S S S S S S S S S S S S S S S S
|------------------|---------------------------------|
|------------------|---------------------------------|
|----------------0-|---------------------------------|
|--2-------------0-|---------------------------------|
|--2---------------|---------------------------------|
|--0-0-----------3-|-0-0-2-0-3-0-0-6-0-5-0-0-3-0-1-0-|


  Em6                               C/E
  Gtr II
  S S S S S S S S S S S S S S S S   S S S S S S S S S S S S S S S S
|---------------------------------|---------------------------------|
|---------------------------------|---------------------------------|
|---------------------------------|---------------------------------|
|---------------------------------|---------------------------------|
|---------------------------------|---------------------------------|
|-0-0-2-0-3-0-0-6-0-5-0-0-3-0-1-0-|-0-0-2-0-3-0-0-6-0-5-0-0-3-0-1-0-|


  E5                                Em
  S S S S S S S S S S S S S S S S   S S S S S S S S S S S S S S S S
|---------------------------------|---------------------------------|
|---------------------------------|---------------------------------|
|---------------------------------|---------------------------------|
|---------------------------------|---------------------------------|
|---------------------------------|---------------------------------|
|-0-0-2p0-3p0-0-6p0-5p0-0-3p0-1p0-|-0-0-2p0-3p0-0-6p0-5p0-0-3p0-1p0-|


  Em6                               C/E
  S S S S S S S S S S S S S S S S   S S S S S S S S S S S S S S S S
|---------------------------------|---------------------------------|
|---------------------------------|---------------------------------|
|---------------------------------|-----------------------5-4-2-----|
|---------------------------------|-----------------5-4-2-----------|
|---------------------------------|-----------3-2-0-----------------|
|-0-0-2p0-3p0-0-6p0-5p0-0-3p0-1p0-|-0-2-3-2-0-------------------3-1-|


 Pre-Chorus
  Em                                  C/E
              |-3-|                               |-3-|
  S S S S S S S S S S S S S S S S S   S S S S S S S S S S S S S S S S S
|-----------------------------------|-----------------------------------|
|-----------------------------------|-----------------------------------|
|-----------------------------------|-----------------------------------|
|-----------------------------------|-----------------------------------|
|---------2-3-2-3-2---2-------------|---------3-5-3-5-3---3-------------|
|-0-2-3-5-----------5---3-5-2-5-3-2-|-0-3-5-7-----------7---5-7-3-7-5-3-|


  A/C#
              |-3-|
  S S S S S S S S S S S S S S S S S
|-----------------------------------|
|-----------------------------------|
|-----------------------------------|
|-----------------------------------|
|---------5-7-5-7-5---5-------------|
|-0-5-7-9-----------9---7-9-5-9-7-5-|


  G                      B
                |-3--|                  |-3--|
  S S S  S S  S T  T T S S S  S  S S  S T  T T  S
|--------------------------------------------------|
|--------------------------------------------------|
|--------------------------------------------------|
|--------------------------------------------------|
|----------7-10-7-10-7-------------9-12-9-12-9-----|
|-0-7-8-10-------------8-0-8-10-12-------------10--|


  Em
                    |--3--|
  S  S  S  S  S  S  S  S  S  S  S  S  S  S  S  S  S
|---------------------------------------------------|
|---------------------------------------------------|
|---------------------------------------------------|
|---------------------------------------------------|
|------------10-12-10-12-10----10-------------------|
|-0-10-12-14----------------14----12-14-10-14-12-10-|


  C/E
                    |--3--|
  S  S  S  S  S  S  S  S  S  S  S  S  S  S  S  S  S
|---------------------------------------------------|
|---------------------------------------------------|
|---------------------------------------------------|
|---------------------------------------------------|
|------------12-14-12-14-12----12-------------------|
|-0-12-14-15----------------15----14-15-12-15-14-12-|


  A/C#
  Gtr III
  W
|---------------------------------------------------|
|---------------------------------------------------|
|---------------------------------------------------|
|---------------------------------------------------|
|---------------------------------------------------|
|---------------------------------------------------|
|
| Gtr II
|                   |--3--|
| S  S  S  S  S  S  S  S  S  S  S  S  S  S  S  S  S
|---------------------------------------------------|
|---------------------------------------------------|
|---------------------------------------------------|
|---------------------------------------------------|
|------------14-16-14-16-14----14-------------------|
|-0-14-15-17----------------17----15-17-14-17-15-14-|


  G                            B
                                                 ~~
  H                            S S  S S  S S  S  S
|--------------------------------------------------|
|--------------------------------------------13-12-|
|----------------------------------10------9-------|
|-------------------------------------9-10---------|
|------------------------------7-8-----------------|
|--------------------------------------------------|
|
|                   |--3--|
| S  S  S  S  S  S  T  T  T  S S S  S S  S S  S  S
|--------------------------------------------------|
|--------------------------------------------------|
|---------------------------------------------5--4-|
|-----------------------------------3------2-------|
|------------15-19-15-19-15-----------2--3---------|
|-0-15-17-19----------------17-0-1-----------------|


  E5                            F5
    ~~~~            ~~           ~~~
   +Q.        S  S  Q      S  S  E
|----------------------------------|
|-(12)-------12-13-15-----13-12----|
|-------------------------------14-|
|----------------------------------|
|----------------------------------|
|----------------------------------|
|
|      PM|    PM|     PM|
|   E  S S E  S  S  E S S  E     E
|----------------------------------|
|----------------------------------|
|----------------------------------|
|----------------------------------|
|---2------2--------2------2-----3-|
|---0--0-0-0--0--0--0-0-0--0-----1-|


                                                                               B5
 ~~~~~~                                                                      ~~~~~
   +E   T  T  T  T  T  T  T  T  T  T  T  T  T  T  T  T  T  T  T  T  T  T  T  T  E
|---------------------------------------------------------------------17-18-19-19-|
|---------------------------------------------16-17-18-19-18-17-18-19-------------|
|-(14)----------------14-16-17-19-17-16-17-19-------------------------------------|
|------17-15-14-15-17-------------------------------------------------------------|
|---------------------------------------------------------------------------------|
|---------------------------------------------------------------------------------|
|
|       PM---|                  PM---|                  PM---|
|  +E   S     S     E           S     S     E           S     S     E           E
|---------------------------------------------------------------------------------|
|---------------------------------------------------------------------------------|
|---------------------------------------------------------------------------------|
|-------------------------------------------------------------------------------4-|
|--(3)--------------3-----------------------3-----------------------3-----------2-|
|--(1)--1-----1-----1-----------1-----1-----1-----------1-----1-----1-------------|


       C5 B5    A5  Gsus2   Csus2B5
                       11/8
    ~~~~
   +W                    W
|-(19)----------------|----------------------------|
|---------------------|----------------------------|
|---------------------|----------------------------|
|---------------------|----------------------------|
|---------------------|----------------------------|
|---------------------|----------------------------|
|
|                                        ~~~~~~~~~~
|  +E  Q  E +E   Q  E   +E  Q  E S S S S H    +E
|-------------------5-|-(5)-3----------------------|
|---------------10--8-|-(8)-3----------------------|
|----------------9--7-|-(7)-5----------7-----------|
|--(4)-5--4-(4)--7--5-|-(5)-5--9-9-7-9---9----(9)--|
|--(2)-3--2-(2)--7--5-|-(5)-3----------------------|
|---------------------|----------------------------|


 Chorus
  A5                                              A5/EF5     G5
 4/4
  Gtrs I, II
  W               W               W                Q  Q  +E  E Q
|---------------|---------------|---------------|-----------------|
|---------------|---------------|---------------|-----------------|
|-2-------------|-2-------------|-2-------------|--2--------------|
|-2-------------|-2-------------|-2-------------|--2--3--(3)-5-5--|
|-0-------------|-0-------------|-0-------------|--0--3--(3)-5-5--|
|---------------|---------------|---------------|--0--1--(1)-3-3--|
|
| Gtr III
| Q  E E +H       Q  E E +H       Q  E E +H        Q  Q  +E  E Q
|---------------|---------------|---------------|-----------------|
|----3----------|------1-(1)----|---------------|-10--6--(6)-8-8--|
|------5-(5)----|----4----------|------5-(5)----|--9--5--(5)-7-7--|
|---------------|---------------|----4----------|--7--3--(3)-5-5--|
|-0-------------|-0-------------|-0-------------|-----------------|
|---------------|---------------|---------------|-----------------|
  W               W               W


  A5         G/BC5                  D5         E5   F5              Bbsus2
  H      +E  Q  E   W               H      +E  Q     E    H     +E  Q.
|-----------------|---------------|--------------------|-----------------|
|-----------------|---------------|--------------------|------------1----|
|-2------(2)----5-|-5-------------|-7------(7)-9----10-|-10----(10)-3----|
|-2------(2)----5-|-5-------------|-7------(7)-9----10-|-10----(10)-3----|
|-0------(0)-2--3-|-3-------------|-5------(5)-7-----8-|--8-----(8)-1----|
|------------3----|---------------|--------------------|-----------------|
|
| Q  E E +H         Q  E E +H       Q  E E +Q     E  E    H     +E  Q.
|-----------------|---------------|--------------------|-----------------|
|----3------------|------1-(1)----|---------------1p=0-|--1-----(1)-1----|
|------5-(5)------|----4----------|------5-(5)---------|------------3----|
|-----------------|---------------|----4-------2-------|--3-----(3)-3----|
|-0------(0)-2--3-|-3-------------|-5------------------|------------1----|
|-----------------|---------------|--------------------|-----------------|
  H      +E  Q  E   W               H       E  Q.         H     +E  Q.


    D5E5                    D5E5
    Gtr II
    S S E E E E S S E S S   S S E E E E S S E S S
||------------------------|------------------------||
||o-----------------------|-----------------------o||
||------------------------|------------------------||
||--0h2-------------------|-0h2--------------------||
||o-0h2-2-2-2-2-2-2-2-2-2-|-0h2-2-2-2-2-2-2-2-2-2-o||
||------0-0-0-0-0-0-0-0-0-|-----0-0-0-0-0-0-0-0-0--||


 3rd Verse
  E5
     ~          ~           ~
                                 |-3-|
  Q  Q  E E S S E   +E  S S H    S S S E
|-----------------|----------------------|
|-----------------|----------------------|
|-----------------|----------------------|
|-----------------|----------------------|
|-----------x-x-5-|-(5)-7-5-7----5-7-5---|
|-0--3--5-7-------|--------------------7-|


                            C  D5/A
     ~          ~           ~  PM--------|
  Q  Q  E E S S E   +E  S S Q  S S E S S E
|-----------------|------------------------|
|-----------------|------------------------|
|-----------------|------------------------|
|-----------------|----------------7-----7-|
|-----------x-x-5-|-(5)-7-5----5-5-5-5-5-5-|
|-0--3--5-7-------|---------8--5-5-5-5-5-5-|


  E5
     ~          ~           ~
  Q  Q  E E S S E   +E  S S Q  H
|-----------------|--------------------|
|-----------------|--------------------|
|-----------------|--------------------|
|-----------------|--------------------|
|-----------x-x-5-|-(5)-7-5-7--5tr7----|
|-0--3--5s7-------|--------------------|


                            C  F5
     ~          ~           ~
  Q  Q  E E S S E   +E  S S Q  S S E S S E
|-----------------|------------------------|
|-----------------|------------------------|
|-----------------|------------------------|
|-----------------|----------------3-----3-|
|-----------x-x-5-|-(5)-7-5----3-3-3-3-3-3-|
|-0--3--5-7-------|---------8--1-1-1-1-1-1-|


 Pre-Chorus
  Em                Gsus4
  Gtr I
  Q  E E +E  E Q    E E E E +E  E Q
|------2-(2)------|-------3-(3)------|
|------------5----|-------------3----|
|--------------4--|-----5------------|
|-----------------|---5--------------|
|-----------------|------------------|
|-----------------|------------------|
|
| Gtr II
| W                 W
|-----------------|-3----------------|
|-8---------------|-3----------------|
|-9---------------|-5----------------|
|-9---------------|-5----------------|
|-7---------------|-3----------------|
|-0---------------|-3----------------|


  G#sus4                  G        B
                |-3-|
  E E E E +E  E S S S E   Q  a E E E E E E
|-------4-(4)-----------|------------0------|
|-------------5-4-5-4---|--------------4----|
|-----6---------------6-|----0h2-0-------4--|
|---6-------------------|-------------------|
|-----------------------|----------2--------|
|-----------------------|-3-----------------|
|
| W                       H        H
|-4---------------------|-3-----------------|
|-4---------------------|-3--------4--------|
|-6---------------------|-0--------4--------|
|-6---------------------|-0--------4--------|
|-4---------------------|----------2--------|
|-4---------------------|-3-----------------|


  Em                    Gsus4
  E E E  E  +E  E  Q    E  E  E  E  +E  E  E E
|---------------------|------------------------|
|---------------8-----|-----------------8----8-|
|-------11-(11)---11--|---------11-(11)---11---|
|-----9---------------|------12----------------|
|---7-----------------|---10-------------------|
|-0-------------------|-8----------------------|
|
| W                     W
|---------------------|-3----------------------|
|-8-------------------|-3----------------------|
|-9-------------------|-5----------------------|
|-9-------------------|-5----------------------|
|-7-------------------|-3----------------------|
|-0-------------------|-3----------------------|


  G#sus4                  G       B
                |-3-|
  E E E E +E  E S S S E   E E E E E E E E
|-------4-(4)-----------|-------------0-----|
|-------------5-4-5-4---|---------------4---|
|-----6---------------6-|-------0-----------|
|---6-------------------|-----7-----4-------|
|-4---------------------|---5-----2---------|
|-----------------------|-3-----------------|
|
| W                       H       H
|-4---------------------|-3-----------------|
|-4---------------------|-3-------4---------|
|-6---------------------|-0-------4---------|
|-6---------------------|-0-------4---------|
|-4---------------------|---------2---------|
|-4---------------------|-3-----------------|


 Interlude
  E5                                F#5
  Gtr III
  S S S S S S S S S S S S S S S S   S S S S S S S S S S S S S S S S
|-------7---------7---------7-----|-------8---------8---------8-----|
|-7-5-------7-5-------7-5-----5---|-7-5-------7-5-------7-5-----5---|
|-----4---4-----4---4-----4-----4-|-----5---5-----5---5-----5-----5-|
|---------------------------------|---------------------------------|
|---------------------------------|---------------------------------|
|---------------------------------|---------------------------------|
|
| Gtr II
| PM--------------------------------------------------------------|
| S S S S S S S S S S S S S S S S   S S S S S S S S S S S S S S S S
|---------------------------------|---------------------------------|
|---------------------------------|---------------------------------|
|---------------------------------|---------------------------------|
|---------------------------------|---------------------------------|
|-2-2-2-2-2-2-2-2-2-2-2-2-2-2-2-2-|-4-4-4-4-4-4-4-4-4-4-4-4-4-4-4-4-|
|-0-0-0-0-0-0-0-0-0-0-0-0-0-0-0-0-|-2-2-2-2-2-2-2-2-2-2-2-2-2-2-2-2-|


  C#b5
   S  S S  S S  S  S S  S S  S  S S  S  S S
|---------12-----------12-----------12------|
|-12-10--------12-10--------12-10------10---|
|-------9----9-------9----9-------9-------9-|
|-------------------------------------------|
|-------------------------------------------|
|-------------------------------------------|
|
|  PM----------------------------------------
|  S  S S  S S  S  S S  S S  S  S S  S  S S
|-------------------------------------------|
|-------------------------------------------|
|-------------------------------------------|
|--5--5-5--5-5--5--5-5--5-5--5--5-5--5--5-5-|
|--4--4-4--4-4--4--4-4--4-4--4--4-4--4--4-4-|
|-------------------------------------------|


  C5
   S  S  S  S  S  S  S  S  S  S  S  S  S  S  S  S
|-15----14-12----14-15----------13-------12-13----|
|----13-------12-------12----------12h13-------12-|
|----------------------------10-------------------|
|-------------------------14----------------------|
|-------------------------------------------------|
|-------------------------------------------------|
|
|----------------------|
|  S  S  S  S  S  S  S  S  S  S  S  S  S  S  S  S
|-------------------------------------------------|
|-------------------------------------------------|
|--------------------------------------------5--4-|
|--5--5--5--5--5--5--5--5--------3--------2-------|
|--3--3--3--3--3--3--3--3-----------2--3----------|
|--------------------------0--1-------------------|


  E5                           F5
                   ~~           ~~~
   Q.        S  S  Q      S  S  E
|---------------------------------|
|-12--------12-13-15-----13-12----|
|------------------------------14-|
|---------------------------------|
|---------------------------------|
|---------------------------------|
|
|     PM|    PM|     PM|
|  E  S S E  S  S  E S S  E     E
|---------------------------------|
|---------------------------------|
|---------------------------------|
|---------------------------------|
|--2------2--------2------2-----3-|
|--0--0-0-0--0--0--0-0-0--0-----1-|


                                                                               B5
 ~~~~~~                                                                      ~~~~~~~
   +E   T  T  T  T  T  T  T  T  T  T  T  T  T  T  T  T  T  T  T  T  T  T  T  T  +E
|---------------------------------------------------------------------17-18-19-(19)-|
|---------------------------------------------16-17-18-19-18-17-18-19---------------|
|-(14)----------------14-16-17-19-17-16-17-19---------------------------------------|
|------17-15-14-15-17---------------------------------------------------------------|
|-----------------------------------------------------------------------------------|
|-----------------------------------------------------------------------------------|
|
|       PM---|                  PM---|                  PM---|
|  +E   S     S     E           S     S     E           S     S     E            E
|-----------------------------------------------------------------------------------|
|-----------------------------------------------------------------------------------|
|-----------------------------------------------------------------------------------|
|--------------------------------------------------------------------------------4--|
|--(3)--------------3-----------------------3-----------------------3------------2--|
|--(1)--1-----1-----1-----------1-----1-----1-----------1-----1-----1---------------|


       C5 B5    A5  Gsus2   Csus2B5
                       11/8
    ~~~~                                  ~~~~~~~~~~~~~~~~
   +W                    H       Q        H         +E
|-(19)----------------|-----------------------------------|
|---------------------|------------------10b12=====(10)r-|
|---------------------|-----------------------------------|
|---------------------|-----------------------------------|
|---------------------|-----------------------------------|
|---------------------|-----------------------------------|
|
|                                         ~~~~~~~~~~~~~~~~
|  +E  Q  E +E   Q  E   +E  Q  E S S S S  H         +E
|-------------------5-|-(5)-3-----------------------------|
|---------------10--8-|-(8)-3-----------------------------|
|----------------9--7-|-(7)-5----------7------------------|
|--(4)-5--4-(4)--7--5-|-(5)-5--9-9-7-9----9---------(9)--|
|--(2)-3--2-(2)--7--5-|-(5)-3-----------------------------|
|---------------------|-----------------------------------|


 Chorus
  A5                                              A5/EF5     G5
 4/4
  Gtrs I, II
  W               W               W                Q  Q  +E  E Q
|---------------|---------------|---------------|-----------------|
|---------------|---------------|---------------|-----------------|
|-2-------------|-2-------------|-2-------------|--2--------------|
|-2-------------|-2-------------|-2-------------|--2--3--(3)-5-5--|
|-0-------------|-0-------------|-0-------------|--0--3--(3)-5-5--|
|---------------|---------------|---------------|--0--1--(1)-3-3--|
|
| Gtr III
| Q  E E +H       Q  E E +H       Q  E E +H        Q  Q  +E  E Q
|---------------|---------------|---------------|-----------------|
|----3----------|------1-(1)----|---------------|-10--6--(6)-8-8--|
|------5-(5)----|----4----------|------5-(5)----|--9--5--(5)-7-7--|
|---------------|---------------|----4----------|--7--3--(3)-5-5--|
|-0-------------|-0-------------|-0-------------|-----------------|
|---------------|---------------|---------------|-----------------|
  W               W               W


  A5         G/BC5                  D5         E5   F5                Bb5
  H      +E  Q  E   W               H      +E  Q     E    H     +E    E +S  E.
|-----------------|---------------|--------------------|-----------------------|
|-----------------|---------------|--------------------|-----------------------|
|-2------(2)----5-|-5-------------|-7------(7)-9----10-|-10----(10)---3-(3)-3--|
|-2------(2)----5-|-5-------------|-7------(7)-9----10-|-10----(10)---3-(3)-3--|
|-0------(0)-2--3-|-3-------------|-5------(5)-7-----8-|--8-----(8)---1-(1)-1--|
|------------3----|---------------|--------------------|-----------------------|
|
| Q  E E +H         Q  E E +H       Q  E E +Q     E  E    H      S  S E +S  E.
|-----------------|---------------|--------------------|-----------------------|
|----3-1-(1)------|------1-(1)----|---------------1p=0-|--1--------------------|
|-----------------|----4----------|------5-(5)---------|--------------3-(3)-3--|
|-----------------|---------------|----4-------2-------|--3-----------3-(3)-3--|
|-0------(0)-2--3-|-3-------------|-5------------------|---------1--1-1-(1)-1--|
|-----------------|---------------|--------------------|-----------------------|
  H      +E  Q  E   W               H       E  Q.         H      H


 Keyboard Solo
  Em              Em9             Em6             C/E    D6
  Gtr I
       ~~~~~~          ~~~~~~          ~~~~~~
  Q  E E +H       Q  E E +H       Q  E E +H       Q  E E +E  E E E
|---------------|---------------|---------------|------------------|
|---------------|---------------|---------------|----------------0-|
|------0-(0)----|------0-(0)----|------0-(0)----|------0-(0)---2---|
|----7----------|----4----------|---------------|------------0-----|
|---------------|---------------|----4----------|----3-------------|
|-0-------------|-0-------------|-0-------------|-0----------------|


  Em              Em9             Em6             C/E        F+11
       ~~~~~~          ~~~~~~          ~~~~~~
  Q  E E +H       Q  E E +H       Q  E E +H       Q  E E +E  E E E
|---------------|---------------|---------------|------------------|
|---------------|---------------|---------------|----------------0-|
|------0-(0)----|------0-(0)----|------0-(0)----|------0-(0)---2---|
|----7----------|----4----------|---------------|------------------|
|---------------|---------------|----4----------|----3-------------|
|-0-------------|-0-------------|-0-------------|-0----------1-----|


  Em                 Em9                Em6              C/E
  E E E  E  +H       E E E  E  +H       E E E E +H       E  E  E  E  +H
|--------0--(0)----|--------0--(0)----|-------0-(0)----|----------8--(8)----|
|--------0--(0)----|-------10-(10)----|-------7-(7)----|----------8--(8)----|
|-------11-(11)----|--------0--(0)----|-------0-(0)----|---------11-(11)----|
|-----9------------|-----7------------|-----5----------|------12------------|
|---7--------------|---9--------------|---4------------|---10---------------|
|-0----------------|-0----------------|-0--------------|-8------------------|
  W                  W                  W                W


  Em                            Em9
  Gtr I
  E. S E  E  S  S  E  S  S  E   E. S E  E  S  S  E  S  S  E
|-----------------------------|-----------------------------|
|--------12-12-12-12-12-12-12-|--------15-15-15-15-15-15-15-|
|--------11-11-11-11-11-11-11-|--------14-14-14-14-14-14-14-|
|---------9--9--9--9--9--9--9-|--------12-12-12-12-12-12-12-|
|--------10-10-10-10-10-10-10-|--------14-14-14-14-14-14-14-|
|-0--0-0----------------------|-0--0-0----------------------|
|
| Gtr II
| W                             W
|-----------------------------|-----------------------------|
|-----------------------------|-----------------------------|
|-----------------------------|-----------------------------|
|-----------------------------|-----------------------------|
|-----------------------------|-----------------------------|
|-----------------------------|-----------------------------|


  Em6                           C/E    F5
  E. S E  E  S  S  E  S  S  E   E. S E  E  S  S  E    S  S  E
|-----------------------------|-----------------------------------|
|--------12-12-12-12-12-12-12-|--------12-12-12-12---12-12-12-----|
|---------9--9--9--9--9--9--9-|--------12-12-12-12---12-12-12-----|
|--------11-11-11-11-11-11-11-|--------10-10-10-10---10-10-10-----|
|--------10-10-10-10-10-10-10-|---------8--8--8--8----8--8--8-----|
|-0--0-0----------------------|-0--0-0----------------------------|
|
| W                             Q    E  E  S  S  S S  S  S  S S
|-----------------------------|-----------------------------------|
|-----------------------------|-----------------------------------|
|-----------------------------|-----------------------------------|
|-----------------------------|---------3--3--3--3----3--3--3-----|
|-----------------------------|---------3--3--3--3----3--3--3-----|
|-----------------------------|---------1--1--1--1----1--1--1-----|


 Guitar Solo
  E5                        C5
  Gtr III
               ~~~~~~~~~                 ~~~~~~~~~
  E.   +S  +E  E +E  Q.     E.   +S  +E  E +E  Q.
|-------------------------|-------------------------|
|-7b8==(7)r(7)-5-(5)------|-7b8==(7)r(7)-5-(5)------|
|--------------------4----|--------------------5----|
|-------------------------|-------------------------|
|-------------------------|-------------------------|
|-------------------------|-------------------------|
|
| W                         W
|-------------------------|-------------------------|
|-------------------------|-------------------------|
|-------------------------|-5-----------------------|
|-2-----------------------|-5-----------------------|
|-2-----------------------|-3-----------------------|
|-0-----------------------|-------------------------|


  C#sus2                 G5                          B5
            ~~~~~~~~~~~~~~~~~~                       ~
                           |-----6-----| |----6----|
  Q     +E  E +Q.    E    +S  S S  S S S S S S S S S H
|-----------9-(9)---10-|-(10)-9-7-------------------------|
|----------------------|----------10-8-7------------------|
|-9b11r=(9)------------|-----------------9-7-6------------|
|----------------------|-----------------------9-7-5------|
|----------------------|-----------------------------9----|
|----------------------|----------------------------------|
|
| W                        H                         H
|----------------------|----------------------------------|
|-4--------------------|----------------------------------|
|-6--------------------|-----------------------------4----|
|-6--------------------|---5-------------------------4----|
|-4--------------------|---5-------------------------2----|
|----------------------|---3------------------------------|


  E5                               C5
                    ~~~~~~~~~~~                      ~~~~~~~~~~~
   E.     +S   +E   E  +E   Q.      E.     +S   +E   E  +E   Q.
|-14b15==(14)r(14)-12-(12)-------|-14b15==(14)r(14)-12-(12)-------|
|--------------------------12----|--------------------------13----|
|--------------------------------|--------------------------------|
|--------------------------------|--------------------------------|
|--------------------------------|--------------------------------|
|--------------------------------|--------------------------------|
|
|  W                                W
|--------------------------------|--------------------------------|
|--------------------------------|--------------------------------|
|--------------------------------|--5-----------------------------|
|--2-----------------------------|--5-----------------------------|
|--2-----------------------------|--3-----------------------------|
|--0-----------------------------|--------------------------------|


  C#sus2
   |------6-------|  |------6-------|  |------6-------|  |------6-------|
   S  S  S  S  S  S  S  S  S  S  S  S  S  S  S  S  S  S  S  S  S  S  S  S
|-16-12-16-12----12-16-12-16-12----12-17-12-17-12----12-16-12-16-12----12---|
|-------------14----------------14----------------14----------------14------|
|---------------------------------------------------------------------------|
|---------------------------------------------------------------------------|
|---------------------------------------------------------------------------|
|---------------------------------------------------------------------------|
|
|  W
|---------------------------------------------------------------------------|
|--4------------------------------------------------------------------------|
|--6------------------------------------------------------------------------|
|--6------------------------------------------------------------------------|
|--4------------------------------------------------------------------------|
|---------------------------------------------------------------------------|


  G5                                            B5
                                                                                ~
   T  T  T  T  T  T  T  T  T  T  T  T  T  T T T T  T T T  T T T T T T T T T T T T
|-14h15p14p12----------------------------------------------------------------------|
|-------------15-13-12s10-12h13p12p10----------------------------------------------|
|-------------------------------------12p11p9s8-9h11p9p8---------------------------|
|--------------------------------------------------------10p9p7S5-7h9p7p5----------|
|-------------------------------------------------------------------------9p7p6-7--|
|----------------------------------------------------------------------------------|
|
|  H                                            H
|----------------------------------------------------------------------------------|
|----------------------------------------------------------------------------------|
|-----------------------------------------------4----------------------------------|
|--5--------------------------------------------4----------------------------------|
|--5--------------------------------------------2----------------------------------|
|--3-------------------------------------------------------------------------------|


  C         Am        Em         G           F5    Fb5  F/A        G5
   ~~~
  +W                   W                      W              W
|-------------------|----------------------|--------------|-------------|
|-------------------|----------------------|--------------|-------------|
|-------------------|----------------------|--------------|-------------|
|-------------------|----------------------|--------------|-------------|
|-(7)---------------|----------------------|--------------|-------------|
|-------------------|----------------------|--------------|-------------|
|
|  E  E E E E E E E   +E  E E  E E E S S E    H    Q.   E   +H     H
|-------------------|----------------------|--------------|-------------|
|-------7-----------|----------------------|--------------|-------------|
|---------7---------|----------------7s9s7-|--------------|--------0----|
|-----5-------------|----------------7s9s7-|-10----9----7-|-(7)----0----|
|--3--------0-3-2---|-------8-10---5-------|--8----8----8-|-(8)---------|
|-----------------0-|-(0)-7------3---------|--------------|-------------|


 Chorus
  A5                                              A5/EF5     G5
  Gtrs I, II
  W               W               W                Q  Q  +E  E Q
|---------------|---------------|---------------|-----------------|
|---------------|---------------|---------------|-----------------|
|-2-------------|-2-------------|-2-------------|--2--------------|
|-2-------------|-2-------------|-2-------------|--2--3--(3)-5-5--|
|-0-------------|-0-------------|-0-------------|--0--3--(3)-5-5--|
|---------------|---------------|---------------|--0--1--(1)-3-3--|
|
| Gtr III
| Q  E E +H       Q  E E +H       Q  E E +H        Q  Q  +E  E Q
|---------------|---------------|---------------|-----------------|
|----3----------|------1-(1)----|---------------|-10--6--(6)-8-8--|
|------5-(5)----|----4----------|------5-(5)----|--9--5--(5)-7-7--|
|---------------|---------------|----4----------|--7--3--(3)-5-5--|
|-0-------------|-0-------------|-0-------------|-----------------|
|---------------|---------------|---------------|-----------------|
  W               W               W


  A5         G/BC5                  D5         E5   F5         Bb5
  H      +E  Q  E   W               H      +E  Q     E    H    S S E S S E
|-----------------|---------------|--------------------|---------------------|
|-----------------|---------------|--------------------|---------------------|
|-2------(2)----5-|-5-------------|-7------(7)-9----10-|-10----3-3-3-3-3-3---|
|-2------(2)----5-|-5-------------|-7------(7)-9----10-|-10----3-3-3-3-3-3---|
|-0------(0)-2--3-|-3-------------|-5------(5)-7-----8-|--8----1-1-1-1-1-1---|
|------------3----|---------------|--------------------|---------------------|
|
|                                                              PMPM  PM|
| Q  E E +H         Q  E E +H       Q  E E +Q     E  E    H    S S E S S E
|-----------------|---------------|--------------------|---------------------|
|----3------------|------1-(1)----|---------------1p=0-|--1------------------|
|------5-(5)------|----4----------|------5-(5)---------|-----------3-----3---|
|-----------------|---------------|----4-------2-------|--3--------3-----3---|
|-0------(0)-2--3-|-3-------------|-5------------------|-------1-1-1-1-1-1---|
|-----------------|---------------|--------------------|---------------------|
  H      +E  Q  E   W               H       E  Q.         H    H


  A5
  Gtr II
  PM--|                   PM--|
  S S E E E S S E S S E   S S E E E S S E S S E
|-----------------------|-----------------------|
|-----------------------|-----------------------|
|-------7-5-----2-----2-|-------4-5-----2-----2-|
|-------7-7-----2-----2-|-------5-5-----2-----2-|
|-0-0-0-----0-0-0-0-0-0-|-0-0-0-----0-0-0-0-0-0-|
|-----------------------|-----------------------|


                                F5     G5
  PM--|
  S S E E E S S E S S E   S S E Q  +E  E Q
|-----------------------|---------------------|
|-----------------------|-------6--(6)-8-8----|
|-------4-5-----2-----2-|-------5--(5)-7-7----|
|-------5-5-----2-----2-|-------3--(3)-5-5----|
|-0-0-0-----0-0-0-0-0-0-|-0-0-0---------------|
|-----------------------|---------------------|


  A5                 G/B       C5
  Gtr III
  ~~~~                                  ~~~~~~~~~~~~~~~~~
  H             E     E     E   E       H           +Q.    E
|-5-------------------7---------8----|--8-----------(8)------|
|-8b10---------------10b12-----11b13-|-11b13=======(11)r-----|
|------------------------------------|-----------------------|
|------------------------------------|-----------------------|
|------------------------------------|-----------------------|
|------------------------------------|-----------------------|
|
| Gtr I
| Q        E E +H                       Q      E E  +H
|------------------------------------|-----------------------|
|----------3-------------------------|-----------1--(1)------|
|------------5-(5)-------------------|---------4-------------|
|------------------------------------|-----------------------|
|-0------------(0)----2---------3----|--3--------------------|
|------------------------------------|-----------------------|
| H            +E     Q         E       W
|
| Gtr II
| S    S E E E  S  S  E    +E   E       W
|------------------------------------|-----------------------|
|------------------------------------|-----------------------|
|----------7-5------------------5----|--5--------------------|
|----------7-7--------5----(5)--5----|--5--------------------|
|-0----0-0------0--0--2----(2)--3----|--3--------------------|
|------------------------------------|-----------------------|


  D5             E5      F5                    Bb5
                                  ~~~~~
   H          E   E    E  E       H         E   E    S  E.
|-10-------------12------13----|-13----------------------------|
|-13b15----------15b17---16b18-|-16b18---------11------11------|
|------------------------------|---------------13b15---13b15---|
|------------------------------|-------------------------------|
|------------------------------|-------------------------------|
|------------------------------|-------------------------------|
|
|  Q     E E +Q        E  E       H        +E   Q.
|------------------------------|-------------------------------|
|----------------------1p=0----|--1--------(1)--1--------------|
|----------5-(5)---------------|----------------3--------------|
|--------4--------2------------|--3--------(3)--3--------------|
|--5---------------------------|----------------1--------------|
|------------------------------|-------------------------------|
|  H          E   Q.              H        +E   Q.
|
|  H         +E   Q       E       H        +E   E    S  E.
|------------------------------|-------------------------------|
|------------------------------|-------------------------------|
|--7---------(7)--9------10----|-10-------(10)--3-------3------|
|--7---------(7)--9------10----|-10-------(10)--3-------3------|
|--5---------(5)--7-------8----|--8--------(8)--1-------1------|
|------------------------------|-------------------------------|


   Outro
    D5E5                    D5E5
    Gtr II
        PM--------------|       PM--------------|
    S S E E E E S S E S S   S S E E E E S S E S S
||------------------------|-----------------------|
||o-----------------------|-----------------------|
||------------------------|-----------------------|
||--0h2-------------------|-0h2-------------------|
||o-0h2-2-2-2-2-2-2-2-2-2-|-0h2-2-2-2-2-2-2-2-2-2-|
||------0-0-0-0-0-0-0-0-0-|-----0-0-0-0-0-0-0-0-0-|


  D5E5                    D5E5
      PM--------------|
  S S E E E E S S E S S   S S E E E Q   Q
|-----------------------|--------------------||
|-----------------------|-------------------o||
|-----------------------|--------------^9----||
|-0h2-------------------|-0-2----------^9----||
|-0h2-2-2-2-2-2-2-2-2-2-|-0-2-2-2-2-2--^7---o||
|-----0-0-0-0-0-0-0-0-0-|-----0-0-0-0--^0----||


    D5E5                      F5E5
        PM--------------|       PM--------------|
    S S E E E E S S E S S   S S E E E E S S E S S
||------------------------|-----------------------|
||o-----------------------|-----------------------|
||------------------------|-----------------------|
||--0h2-------------------|-2s3-------------------|
||o-0h2-2-2-2-2-2-2-2-2-2-|-2s3-2-2-2-2-2-2-2-2-2-|
||------0-0-0-0-0-0-0-0-0-|-----0-0-0-0-0-0-0-0-0-|


  F5CbE5                  F#G5E5    C5 Bb5
      PM--------------|
  S S E E E E S S E S S   S S E E E Q  Q
|-----------------------|-------------------||
|-----------------------|------------------o||
|-----------------------|-------------------||
|-3-4-------------------|-4-5-------5--3----||
|-3-3-2-2-2-2-2-2-2-2-2-|-4-5-2-2-2-3--1---o||
|-----0-0-0-0-0-0-0-0-0-|-----0-0-0-3--1----||


    D5E5                 D5  E5F5E5        F5
        PM--|                    PM------|
                         |-3-|
    S S E E E E S S Q    S S S E E E E S S  Q
||---------------------|-----------------------|
||o--------------------|-----------------------|
||------------------9--|-------------------10--|
||--0s2-------------9--|-0-0-2-3-----------10--|
||o-0s2-2-2-2-2-----7--|-0-0-2-3-2-2-2------8--|
||------0-0-0-0-0-0----|---------0-0-0-0-0-----|


  D5  F5F#E5        F#b5  D5  F#G5
          PM------|
  |-3-|                   |-3-|
  S S S E E E E S S  Q    S S S E E. S S S S S S S S S
|-----------------------|-------------------------------||
|-----------------------|------------------------------o||
|-------------------11--|-------------------------------||
|-0-0-3-4-----------10--|-0-0-4-5-5------2-5-----2------||
|-0-0-3-4-2-2-2------9--|-0-0-4-5-5--0-3-----0-1-------o||
|---------0-0-0-0-0-----|--------------------------3-1--||


  D5E5                 D5  E5F5E5
      PM--------|
                       |-3-|
  S S E E E E S S Q    S S S E E E H
|--------------------|------------------*|
|--------------------|------------------*|
|-----------------9--|------------------*|
|-0s2-------------9--|-0-0-2-3----------*|
|-0s2-2-2-2-2-----7--|-0-0-2-3-2-2------*|
|-----0-0-0-0-0-0----|---------0-0------*|


Duration Legend
---------------
W - whole; H - half; Q - quarter; E - 8th; S - 16th; T - 32nd; X - 64th; a - acciaccatura
+ - note tied to previous; . - note dotted; .. - note double dotted
Uncapitalized letters represent notes that are staccato (1/2 duration)
Irregular groupings are notated above the duration line
Duration letters will always appear directly above the note/fret number it represents the
duration for.  Duration letters with no fret number below them represent rests.  Multi-
bar rests are notated in the form Wxn, where n is the number of bars to rest for.  Low
melody durations appear below the staff

Tablature Legend
----------------
 h   - hammer-on
 p   - pull-off
 b   - bend
 pb  - pre-bend
 r   - bend release (if no number after the r, then release immediately)
 /  - slide into or out of (from/to "nowhere")
 s   - legato slide
 S   - shift slide
  - natural harmonic
[n]  - artificial harmonic
n(n) - tapped harmonic
 ~   - vibrato
 tr  - trill
 T   - tap
 TP  - trem. picking
 PM  - palm muting
n/  - tremolo bar dip; n = amount to dip
 n  - tremolo bar down
 n/  - tremolo bar up
/n  - tremolo bar inverted dip
 =   - hold bend; also acts as connecting device for hammers/pulls
 <>  - volume swell (louder/softer)
 x   - on rhythm slash represents muted slash
 o   - on rhythm slash represents single note slash

Misc Legend
-----------
 |  - bar
||  - double bar
||o - repeat start
o|| - repeat end
*|  - double bar (ending)
 :  - bar (freetime)
 $  - Segno
 &  - Coda
Tempo markers -  = BPM(8/16=s8/s16), where s8 = swing 8ths, s16 = swing 16ths
comments
We did not receive enough feedback on this tab! Please rate:
print report bad tab
1 2 3 4 5
I want to post or [tab]
guest
You may want to rate the tab now too:
select rating
Please do not post tabs as comments. Select "correction" instead!