Oops, an error
Loading. Please wait.

Repentance Tab

ver1
ver1

Solo

Whole song

More versions @911Tabs.com
10,771 views 6 this week
4 commentsread comments
1 2 3 4 5
accurate
x 6
Autoscroll
+/-
esc
set tempo
stop
Contributor
Difficulty
advanced
WARNING: You are trying to view
                                    content from Ultimate-Guitar.com
                                    in an unauthorized application,
                                    which is prohibited.

                                    Please use an official Ultimate
                                    Guitar Tabs application for iPhone,
                                    iPad or Android to access legitimate
                                    chords, guitar, bass, and drum tabs
                                    from Ultimate-Guitar.com database.

                                    Type "ultimate guitar tabs" in Apple
                                    App Store's or Android Market's
                                    search to find the application.
John Petrucci  I



     E   Q    Q.        E   Q    Q.        E   Q    Q.        E   Q    Q.      
E||------------------|------------------|------------------|------------------|
B||------------------|------------------|------------------|------------------|
G||-----------6------|--7s--6----6------|-----------6------|--7s--6----6------|
D||------------------|------------------|------------------|------------------|
A||--2s--4-----------|------------------|--2s--4-----------|------------------|
E||------------------|------------------|------------------|------------------|


  E   Q    Q.        E   Q    Q.        E   Q    Q.        E   Q    E   Q     
------------------|------------------|------------------|--------------------|
------------------|------------------|------------------|-----------7s--6----|
-----------6------|--7s--6----6------|-----------6------|--7s--6-------------|
------------------|------------------|------------------|--------------------|
--2s--4-----------|------------------|--2s--4-----------|--------------------|
------------------|------------------|------------------|--------------------|


  E   Q    Q.        E   Q    Q.        E   Q    Q.        E   Q    Q.      
------------------|------------------|------------------|------------------|
------------------|------------------|------------------|------------------|
-----------6------|--7s--6----6------|-----------6------|--7s--6----6------|
------------------|------------------|------------------|------------------|
--2s--4-----------|------------------|--2s--4-----------|------------------|
------------------|------------------|------------------|------------------|


  E   Q    Q.        E   Q    Q.        E   Q    Q.        E  Q    Q    E    
------------------|------------------|------------------|-------------------|
------------------|------------------|------------------|-------------------|
-----------6------|--7s--6----6------|-----------6------|-------------------|
------------------|------------------|------------------|--5--4----2----L\--|
--2s--4-----------|------------------|--2s--4-----------|-------------------|
------------------|------------------|------------------|-------------------|


  E   Q    Q.        E   Q    Q.        E   Q    Q.        E   Q    Q.      
------------------|------------------|------------------|------------------|
------------------|------------------|------------------|------------------|
-----------6------|--7s--6----6------|-----------6------|--7s--6----6------|
------------------|------------------|------------------|------------------|
--2s--4-----------|------------------|--2s--4-----------|------------------|
------------------|------------------|------------------|------------------|


  E   Q    Q.        E   Q    Q.        E   Q    Q.        E   Q    E   Q     
------------------|------------------|------------------|--------------------|
------------------|------------------|------------------|-----------7s--6----|
-----------6------|--7s--6----6------|-----------6------|--7s--6-------------|
------------------|------------------|------------------|--------------------|
--2s--4-----------|------------------|--2s--4-----------|--------------------|
------------------|------------------|------------------|--------------------|


  E   Q    Q.        E   Q    Q.        E   Q    Q.        E   Q    Q.      
------------------|------------------|------------------|------------------|
------------------|------------------|------------------|------------------|
-----------6------|--7s--6----6------|-----------6------|--7s--6----6------|
------------------|------------------|------------------|------------------|
--2s--4-----------|------------------|--2s--4-----------|------------------|
------------------|------------------|------------------|------------------|


  E   Q    Q.        E   Q    Q.        E   Q    Q.        E  Q    Q    E    
------------------|------------------|------------------|-------------------|
------------------|------------------|------------------|-------------------|
-----------6------|--7s--6----6------|-----------6------|-------------------|
------------------|------------------|------------------|--5--4----2----L\--|
--2s--4-----------|------------------|--2s--4-----------|-------------------|
------------------|------------------|------------------|-------------------|


  E   Q    Q.        E   Q    Q.        E   Q    Q.        E   Q    Q.      
------------------|------------------|------------------|------------------|
------------------|------------------|------------------|------------------|
-----------6------|--7s--6----6------|-----------6------|--7s--6----6------|
------------------|------------------|------------------|------------------|
--2s--4-----------|------------------|--2s--4-----------|------------------|
------------------|------------------|------------------|------------------|


  E   Q    Q.        E   Q    Q.        E   Q    Q.        E   Q    E   Q     
------------------|------------------|------------------|--------------------|
------------------|------------------|------------------|-----------7s--6----|
-----------6------|--7s--6----6------|-----------6------|--7s--6-------------|
------------------|------------------|------------------|--------------------|
--2s--4-----------|------------------|--2s--4-----------|--------------------|
------------------|------------------|------------------|--------------------|


  E   Q    Q.        E   Q    Q.        E   Q    Q.        E   Q    Q.      
------------------|------------------|------------------|------------------|
------------------|------------------|------------------|------------------|
-----------6------|--7s--6----6------|-----------6------|--7s--6----6------|
------------------|------------------|------------------|------------------|
--2s--4-----------|------------------|--2s--4-----------|------------------|
------------------|------------------|------------------|------------------|


  E   Q    Q.        E   Q    Q.        E   Q    Q.        E  Q    Q    E    
------------------|------------------|------------------|-------------------|
------------------|------------------|------------------|-------------------|
-----------6------|--7s--6----6------|-----------6------|-------------------|
------------------|------------------|------------------|--5--4----2----L\--|
--2s--4-----------|------------------|--2s--4-----------|-------------------|
------------------|------------------|------------------|-------------------|


  E   Q    Q.        E   Q    Q.        E   Q    Q.        E   Q    Q.      
------------------|------------------|------------------|------------------|
------------------|------------------|------------------|------------------|
-----------6------|--7s--6----6------|-----------6------|--7s--6----6------|
------------------|------------------|------------------|------------------|
--2s--4-----------|------------------|--2s--4-----------|------------------|
------------------|------------------|------------------|------------------|


  E   Q    Q.        E   Q    Q.        E   Q    Q.        E   Q    E   Q     
------------------|------------------|------------------|--------------------|
------------------|------------------|------------------|-----------7s--6----|
-----------6------|--7s--6----6------|-----------6------|--7s--6-------------|
------------------|------------------|------------------|--------------------|
--2s--4-----------|------------------|--2s--4-----------|--------------------|
------------------|------------------|------------------|--------------------|


  E   Q    Q.        E   Q    Q.        E   Q    Q.        E   Q    Q.      
------------------|------------------|------------------|------------------|
------------------|------------------|------------------|------------------|
-----------6------|--7s--6----6------|-----------6------|--7s--6----6------|
------------------|------------------|------------------|------------------|
--2s--4-----------|------------------|--2s--4-----------|------------------|
------------------|------------------|------------------|------------------|


  E   Q    Q.        E   Q    Q.        E   Q    Q.        E  Q    Q    E    
------------------|------------------|------------------|-------------------|
------------------|------------------|------------------|-------------------|
-----------6------|--7s--6----6------|-----------6------|-------------------|
------------------|------------------|------------------|--5--4----2----L\--|
--2s--4-----------|------------------|--2s--4-----------|-------------------|
------------------|------------------|------------------|-------------------|


-----|-----|-----|-----|-------|-------|-------|-------|-------|-----|-----|
-----|-----|-----|-----|-------|-------|-------|-------|-------|-----|-----|
-----|-----|-----|-----|-------|-------|-------|-------|-------|-----|-----|
-----|-----|-----|-----|-------|-------|-------|-------|-------|-----|-----|
-----|-----|-----|-----|-------|-------|-------|-------|-------|-----|-----|
-----|-----|-----|-----|-------|-------|-------|-------|-------|-----|-----|


-----|-----|-------|-------|-------|-------|-------|-----|-----|-----|-----|
-----|-----|-------|-------|-------|-------|-------|-----|-----|-----|-----|
-----|-----|-------|-------|-------|-------|-------|-----|-----|-----|-----|
-----|-----|-------|-------|-------|-------|-------|-----|-----|-----|-----|
-----|-----|-------|-------|-------|-------|-------|-----|-----|-----|-----|
-----|-----|-------|-------|-------|-------|-------|-----|-----|-----|-----|


-------|-------|-------|-------|-------|-----|-----|-----|-----|-------|-------|
-------|-------|-------|-------|-------|-----|-----|-----|-----|-------|-------|
-------|-------|-------|-------|-------|-----|-----|-----|-----|-------|-------|
-------|-------|-------|-------|-------|-----|-----|-----|-----|-------|-------|
-------|-------|-------|-------|-------|-----|-----|-----|-----|-------|-------|
-------|-------|-------|-------|-------|-----|-----|-----|-----|-------|-------|


                          Q    Q    Q       H.              Q    Q    Q     
-------|-------|-------|-----------------|---------------|-----------------|
-------|-------|-------|-----------------|---------------|-----------------|
-------|-------|-------|-----------------|--0------------|-----------------|
-------|-------|-------|------------4----|--L------------|------------2----|
-------|-------|-------|-------2----L----|--L------------|-------2----L----|
-------|-------|-------|--0----L----L----|--L------------|--0----L----L----|


                                       ^                             
  E  E  E  E  E  E     H.              H.              H.            
--0-----------------|---------------|--2------------|--L------------|
-----0-----0--------|---------------|--3------------|--L------------|
--------0-----0-----|---------------|--4------------|--L------------|
-----------------2--|--4------------|--4------------|--L------------|
--------------------|---------------|--2------------|--L------------|
--------------------|---------------|---------------|---------------|


                  Q    Q    Q       H.              Q    Q    Q     
---------------|-----------------|---------------|-----------------|
---------------|-----------------|---------------|-----------------|
---------------|-----------------|--0------------|-----------------|
---------------|------------4----|--L------------|------------2----|
---------------|-------2----L----|--L------------|-------2----L----|
---------------|--0----L----L----|--L------------|--0----L----L----|


                                       ^                             
  E  E  E  E  E  E     H.              H.              H.            
--0-----------------|---------------|--2------------|--L------------|
-----0-----0--------|---------------|--3------------|--L------------|
--------0-----0-----|---------------|--4------------|--L------------|
-----------------2--|--4------------|--4------------|--L------------|
--------------------|---------------|--2------------|--L------------|
--------------------|---------------|---------------|---------------|


                  ^      v    ^     ^      v    ^     ^      v    ^   
                  Q.     Q    E     Q.     Q    E     Q.     Q    E   
---------------|--4------4----4--|--4------4----4--|--4------4----4--|
---------------|--6------6----6--|--6------6----6--|--6------6----6--|
---------------|--6------6----6--|--6------6----6--|--6------6----6--|
---------------|--6------6----6--|--6------6----6--|--6------6----6--|
---------------|--4------4----4--|--4------4----4--|--4------4----4--|
---------------|--4------4----4--|--4------4----4--|--4------4----4--|


  ^      ^         ^      v    ^     ^      v    ^     ^      v    ^   
  Q.     Q.        Q.     Q    E     Q.     Q    E     Q.     Q    E   
--4------4------|--3------3----3--|--3------3----3--|--3------3----3--|
--6------6------|--3------3----3--|--3------3----3--|--3------3----3--|
--6------6------|--4------4----4--|--4------4----4--|--4------4----4--|
--6------6------|--5------5----5--|--5------5----5--|--5------5----5--|
--4------4------|--5------5----5--|--5------5----5--|--5------5----5--|
--4------4------|--3------3----3--|--3------3----3--|--3------3----3--|


  ^      ^         ^      v    ^     ^      v    ^     ^      v    ^   
  Q.     Q.        Q.     Q    E     Q.     Q    E     Q.     Q    E   
--3------3------|--4------4----4--|--4------4----4--|--4------4----4--|
--3------3------|--6------6----6--|--6------6----6--|--6------6----6--|
--4------4------|--6------6----6--|--6------6----6--|--6------6----6--|
--5------5------|--6------6----6--|--6------6----6--|--6------6----6--|
--5------5------|--4------4----4--|--4------4----4--|--4------4----4--|
--3------3------|--4------4----4--|--4------4----4--|--4------4----4--|


  ^      ^         ^                                             
  Q.     Q.        H.              H.                            
--4------4------|--3------------|--L------------|---------|-----|
--6------6------|--3------------|--L------------|---------|-----|
--6------6------|--4------------|--L------------|---------|-----|
--6------6------|--5------------|--L------------|---------|-----|
--4------4------|--5------------|--L------------|---------|-----|
--4------4------|--3------------|--L------------|---------|-----|


  ^  ^ v ^ v ^  ^ v ^ v    ^  ^ v ^ v ^  ^ v ^ v    ^  ^ v ^ v ^  ^ v ^ v  
  E  S S S S E  S S S S    E  S S S S E  S S S S    E  S S S S E  S S S S  
------------------------|------------------------|------------------------|
--2--2-2-2-2-2--2-2-2-2-|--2--2-2-2-2-2--2-2-2-2-|--5--5-5-5-5-5--5-5-5-5-|
--2----2-2-2-2----2-2-2-|--2----2-2-2-2----2-2-2-|--6----6-6-6-6----6-6-6-|
--4--4-4---4-4--4-4---4-|--4--4-4---4-4--4-4---4-|--6--6-6---6-6--6-6---6-|
--4--4---4-4-4--4---4-4-|--4--4---4-4-4--4---4-4-|--4--4-4-4-4-4--4-4-4-4-|
--2--2-2-2-2-2--2-2-2-2-|--2--2-2-2-2-2--2-2-2-2-|------------------------|


  ^  ^ v ^ v ^  ^ v ^ v    ^  ^ v ^ v ^  ^ v ^ v    ^  ^ v ^ v ^  ^ v ^ v  
  E  S S S S E  S S S S    E  S S S S E  S S S S    E  S S S S E  S S S S  
------------------------|------------------------|------------------------|
--5--5-5-5-5-5--5-5-5-5-|--5--5-5-5-5-5--5-5-5-5-|--5--5-5-5-5-5--5-5-5-5-|
--6----6-6-6-6----6-6-6-|--5----5-5-5-5----5-5-5-|--5----5-5-5-5----5-5-5-|
--6--6-6---6-6--6-6---6-|--5--5-5---5-5--5-5---5-|--5--5-5---5-5--5-5---5-|
--4--4-4-4-4-4--4-4-4-4-|--3--3-3-3-3-3--3-3-3-3-|--3--3-3-3-3-3--3-3-3-3-|
------------------------|------------------------|------------------------|


-----|-----|-----|-----|-------|-------|-------|-------|-------|-----|-----|
-----|-----|-----|-----|-------|-------|-------|-------|-------|-----|-----|
-----|-----|-----|-----|-------|-------|-------|-------|-------|-----|-----|
-----|-----|-----|-----|-------|-------|-------|-------|-------|-----|-----|
-----|-----|-----|-----|-------|-------|-------|-------|-------|-----|-----|
-----|-----|-----|-----|-------|-------|-------|-------|-------|-----|-----|


-----|-----|-------|-------|-------|-------|-------|-----|-----|-----|-----|
-----|-----|-------|-------|-------|-------|-------|-----|-----|-----|-----|
-----|-----|-------|-------|-------|-------|-------|-----|-----|-----|-----|
-----|-----|-------|-------|-------|-------|-------|-----|-----|-----|-----|
-----|-----|-------|-------|-------|-------|-------|-----|-----|-----|-----|
-----|-----|-------|-------|-------|-------|-------|-----|-----|-----|-----|


-------|-------|-------|-------|-------|-----|-----|-----|-----|-------|-------|
-------|-------|-------|-------|-------|-----|-----|-----|-----|-------|-------|
-------|-------|-------|-------|-------|-----|-----|-----|-----|-------|-------|
-------|-------|-------|-------|-------|-----|-----|-----|-----|-------|-------|
-------|-------|-------|-------|-------|-----|-----|-----|-----|-------|-------|
-------|-------|-------|-------|-------|-----|-----|-----|-----|-------|-------|


                          Q    Q    Q       H.              Q    Q    Q     
-------|-------|-------|-----------------|---------------|-----------------|
-------|-------|-------|-----------------|---------------|-----------------|
-------|-------|-------|-----------------|--0------------|-----------------|
-------|-------|-------|------------4----|--L------------|------------2----|
-------|-------|-------|-------2----L----|--L------------|-------2----L----|
-------|-------|-------|--0----L----L----|--L------------|--0----L----L----|


                                       ^                             
  E  E  E  E  E  E     H.              H.              H.            
--0-----------------|---------------|--2------------|--L------------|
-----0-----0--------|---------------|--3------------|--L------------|
--------0-----0-----|---------------|--4------------|--L------------|
-----------------2--|--4------------|--4------------|--L------------|
--------------------|---------------|--2------------|--L------------|
--------------------|---------------|---------------|---------------|


                  Q    Q    Q       H.              Q    Q    Q     
---------------|-----------------|---------------|-----------------|
---------------|-----------------|---------------|-----------------|
---------------|-----------------|--0------------|-----------------|
---------------|------------4----|--L------------|------------2----|
---------------|-------2----L----|--L------------|-------2----L----|
---------------|--0----L----L----|--L------------|--0----L----L----|


                                       ^                             
  E  E  E  E  E  E     H.              H.              H.            
--0-----------------|---------------|--2------------|--L------------|
-----0-----0--------|---------------|--3------------|--L------------|
--------0-----0-----|---------------|--4------------|--L------------|
-----------------2--|--4------------|--4------------|--L------------|
--------------------|---------------|--2------------|--L------------|
--------------------|---------------|---------------|---------------|


                  ^      v    ^     ^      v    ^     ^      v    ^   
                  Q.     Q    E     Q.     Q    E     Q.     Q    E   
---------------|--4------4----4--|--4------4----4--|--4------4----4--|
---------------|--6------6----6--|--6------6----6--|--6------6----6--|
---------------|--6------6----6--|--6------6----6--|--6------6----6--|
---------------|--6------6----6--|--6------6----6--|--6------6----6--|
---------------|--4------4----4--|--4------4----4--|--4------4----4--|
---------------|--4------4----4--|--4------4----4--|--4------4----4--|


  ^      ^         ^      v    ^     ^      v    ^     ^      v    ^   
  Q.     Q.        Q.     Q    E     Q.     Q    E     Q.     Q    E   
--4------4------|--3------3----3--|--3------3----3--|--3------3----3--|
--6------6------|--3------3----3--|--3------3----3--|--3------3----3--|
--6------6------|--4------4----4--|--4------4----4--|--4------4----4--|
--6------6------|--5------5----5--|--5------5----5--|--5------5----5--|
--4------4------|--5------5----5--|--5------5----5--|--5------5----5--|
--4------4------|--3------3----3--|--3------3----3--|--3------3----3--|


  ^      ^         ^      v    ^     ^      v    ^     ^      v    ^   
  Q.     Q.        Q.     Q    E     Q.     Q    E     Q.     Q    E   
--3------3------|--4------4----4--|--4------4----4--|--4------4----4--|
--3------3------|--6------6----6--|--6------6----6--|--6------6----6--|
--4------4------|--6------6----6--|--6------6----6--|--6------6----6--|
--5------5------|--6------6----6--|--6------6----6--|--6------6----6--|
--5------5------|--4------4----4--|--4------4----4--|--4------4----4--|
--3------3------|--4------4----4--|--4------4----4--|--4------4----4--|


  ^      ^         ^                                             
  Q.     Q.        H.              H.                            
--4------4------|--3------------|--L------------|---------|-----|
--6------6------|--3------------|--L------------|---------|-----|
--6------6------|--4------------|--L------------|---------|-----|
--6------6------|--5------------|--L------------|---------|-----|
--4------4------|--5------------|--L------------|---------|-----|
--4------4------|--3------------|--L------------|---------|-----|


  ^  ^ v ^ v ^  ^ v ^ v    ^  ^ v ^ v ^  ^ v ^ v    ^  ^ v ^ v ^  ^ v ^ v  
  E  S S S S E  S S S S    E  S S S S E  S S S S    E  S S S S E  S S S S  
------------------------|------------------------|------------------------|
--2--2-2-2-2-2--2-2-2-2-|--2--2-2-2-2-2--2-2-2-2-|--5--5-5-5-5-5--5-5-5-5-|
--2----2-2-2-2----2-2-2-|--2----2-2-2-2----2-2-2-|--6----6-6-6-6----6-6-6-|
--4--4-4---4-4--4-4---4-|--4--4-4---4-4--4-4---4-|--6--6-6---6-6--6-6---6-|
--4--4---4-4-4--4---4-4-|--4--4---4-4-4--4---4-4-|--4--4-4-4-4-4--4-4-4-4-|
--2--2-2-2-2-2--2-2-2-2-|--2--2-2-2-2-2--2-2-2-2-|------------------------|


  ^  ^ v ^ v ^  ^ v ^ v    ^  ^ v ^ v ^  ^ v ^ v    ^  ^ v ^ v ^  ^ v ^ v  
  E  S S S S E  S S S S    E  S S S S E  S S S S    E  S S S S E  S S S S  
------------------------|------------------------|------------------------|
--5--5-5-5-5-5--5-5-5-5-|--5--5-5-5-5-5--5-5-5-5-|--5--5-5-5-5-5--5-5-5-5-|
--6----6-6-6-6----6-6-6-|--5----5-5-5-5----5-5-5-|--5----5-5-5-5----5-5-5-|
--6--6-6---6-6--6-6---6-|--5--5-5---5-5--5-5---5-|--5--5-5---5-5--5-5---5-|
--4--4-4-4-4-4--4-4-4-4-|--3--3-3-3-3-3--3-3-3-3-|--3--3-3-3-3-3--3-3-3-3-|
------------------------|------------------------|------------------------|


  ^  ^ v ^ v ^  ^ v ^ v    ^  ^ v ^ v ^  ^ v ^ v    ^  ^ v ^ v ^  ^ v ^ v  
  E  S S S S E  S S S S    E  S S S S E  S S S S    E  S S S S E  S S S S  
------------------------|------------------------|------------------------|
--8--8-8-8-8-8--8-8-8-8-|--8--8-8-8-8-8--8-8-8-8-|--2--2-2-2-2-2--2-2-2-2-|
--9----9-9-9-9----9-9-9-|--9----9-9-9-9----9-9-9-|--2----2-2-2-2----2-2-2-|
--9--9-9---9-9--9-9---9-|--9--9-9---9-9--9-9---9-|--4--4-4---4-4--4-4---4-|
--7--7-7-7-7-7--7-7-7-7-|--7--7-7-7-7-7--7-7-7-7-|--4--4---4-4-4--4---4-4-|
------------------------|--0----------0----------|--2--2-2-2-2-2--2-2-2-2-|


  ^  ^ v ^ v ^  ^ v ^ v    ^  ^ v ^ v ^  ^ v ^ v    ^  ^ v ^ v ^  ^ v ^ v  
  E  S S S S E  S S S S    E  S S S S E  S S S S    E  S S S S E  S S S S  
------------------------|------------------------|------------------------|
--2--2-2-2-2-2--2-2-2-2-|--5--5-5-5-5-5--5-5-5-5-|--5--5-5-5-5-5--5-5-5-5-|
--2----2-2-2-2----2-2-2-|--6----6-6-6-6----6-6-6-|--6----6-6-6-6----6-6-6-|
--4--4-4---4-4--4-4---4-|--6--6-6---6-6--6-6---6-|--6--6-6---6-6--6-6---6-|
--4--4---4-4-4--4---4-4-|--4--4-4-4-4-4--4-4-4-4-|--4--4-4-4-4-4--4-4-4-4-|
--2--2-2-2-2-2--2-2-2-2-|------------------------|------------------------|


  ^  ^ v ^ v ^  ^ v ^ v    ^  ^ v ^ v ^  ^ v ^ v    ^  ^ v ^ v ^  ^ v ^ v  
  E  S S S S E  S S S S    E  S S S S E  S S S S    E  S S S S E  S S S S  
------------------------|------------------------|-------------2--2-2-2-2-|
--5--5-5-5-5-5--5-5-5-5-|--5--5-5-5-5-5--5-5-5-5-|--3--3-3-3-3-3--3-3-3-3-|
--5----5-5-5-5----5-5-5-|--5----5-5-5-5----5-5-5-|--4----4-4-4-4----4-4-4-|
--5--5-5---5-5--5-5---5-|--5--5-5---5-5--5-5---5-|--4--4-4---4-4--4-4---4-|
--3--3-3-3-3-3--3-3-3-3-|--3--3-3-3-3-3--3-3-3-3-|--2--2-2-2-2-2--2-2-2-2-|
------------------------|------------------------|------------------------|


  ^  ^ v ^ v ^  ^ v ^ v    ^  ^ v ^ v ^  ^ v ^ v    ^  ^ v ^ v ^  ^ v ^ v  
  E  S S S S E  S S S S    E  S S S S E  S S S S    E  S S S S E  S S S S  
--2--2-2-2-2-2--2-2-2-2-|------------------------|------------------------|
--3--3-3-3-3-3--3-3-3-3-|--2--2-2-2-2-2--2-2-2-2-|--2--2-2-2-2-2--2-2-2-2-|
--4----4-4-4-4----4-4-4-|--2----2-2-2-2----2-2-2-|--2----2-2-2-2----2-2-2-|
--4--4-4---4-4--4-4---4-|--4--4-4---4-4--4-4---4-|--4--4-4---4-4--4-4---4-|
--2--2-2-2-2-2--2-2-2-2-|--4--4---4-4-4--4---4-4-|--4--4---4-4-4--4---4-4-|
------------------------|--2--2-2-2-2-2--2-2-2-2-|--2--2-2-2-2-2--2-2-2-2-|


  ^  ^ v ^ v ^  ^ v ^ v    ^  ^ v ^ v ^  ^ v ^ v    ^  ^ v ^ v ^  ^ v ^ v  
  E  S S S S E  S S S S    E  S S S S E  S S S S    E  S S S S E  S S S S  
-------------5--5-5-5-5-|--5--5-5-5-5-5--5-5-5-5-|------------------------|
--5--5-5-5-5-5--5-5-5-5-|--5--5-5-5-5-5--5-5-5-5-|--8--8-8-8-8-8--8-8-8-8-|
--5----5-5-5-5----5-5-5-|--5----5-5-5-5----5-5-5-|--9----9-9-9-9----9-9-9-|
--7--7-7---7-7--7-7---7-|--7--7-7---7-7--7-7---7-|--9--9-9---9-9--9-9---9-|
--7--7---7-7-7--7---7-7-|--7--7---7-7-7--7---7-7-|--7--7-7-7-7-7--7-7-7-7-|
--5--5-5-5-5-5--5-5-5-5-|--5--5-5-5-5-5--5-5-5-5-|------------------------|


  ^  ^ v ^ v ^  ^ v ^ v    ^  ^ v ^ v ^  ^ v ^ v    ^             
  E  S S S S E  S S S S    E  S S S S E  S S S S    H.            
------------------------|------------------------|--3------------|
--8--8-8-8-8-8--8-8-8-8-|--5--5-5-5-5-5--5-5-5-5-|--5------------|
--7----7-7-7-7----7-7-7-|--6----6-6-6-6----6-6-6-|--5------------|
--7--7-7---7-7--7-7---7-|--6--6-6---6-6--6-6---6-|--5------------|
--5--5-5-5-5-5--5-5-5-5-|--4--4-4-4-4-4--4-4-4-4-|--3------------|
------------------------|------------------------|---------------|


  H.                                                                            
---------------|---------------|---------------|---------------|---------------|
--L------------|---------------|---------------|---------------|---------------|
--L------------|---------------|---------------|---------------|---------------|
--L------------|---------------|---------------|---------------|---------------|
--L------------|---------------|---------------|---------------|---------------|
---------------|---------------|---------------|---------------|---------------|


---------------|---------------|---------------|---------------|---------------|
---------------|---------------|---------------|---------------|---------------|
---------------|---------------|---------------|---------------|---------------|
---------------|---------------|---------------|---------------|---------------|
---------------|---------------|---------------|---------------|---------------|
---------------|---------------|---------------|---------------|---------------|


---------------|---------------|---------------|---------------||
---------------|---------------|---------------|---------------||
---------------|---------------|---------------|---------------||
---------------|---------------|---------------|---------------||
---------------|---------------|---------------|---------------||
---------------|---------------|---------------|---------------||




Duration Legend
---------------
W - whole
H - half
Q - quarter
E - 8th
S - 16th
T - 32nd
X - 64th
. - note dotted
|-n-|  - n-tuplets


Tablature Legend
----------------
L - tied note
x - dead note
g - grace note
(n) - ghost note
> - accentuded note
NH - natural harmonic
AH - artificial harmonic
TH - tapped harmonic
SH - semi harmonic
PH - pitch harmonic
h - hammer on
p - pull off
b - bend
br - bendRelease
pb - preBend
pbr - preBendRelease
brb - bendReleaseBend
\n/ - tremolo bar dip
\n - tremolo bar dive
-/n - tremolo bar Release up
/n\ - tremolo bar inverted dip
/n - tremolo bar return
-\n - tremolo bar Release down
S - shift slide
s - legato slide
/ -  slide into from below or out of upwards
\ -  slide into from above or out of downwards
~ - vibrato
W - wide vibrato
tr - trill
TP - tremolo picking
T - tapping
S - slap
P - pop
< - fade in
^ - brush up
v - brush down
comments
print report bad tab
4 comments total. Showing first comments.
0 reply
SORocker5678 wrote on December 5 2007, 06:25 pm

JP technically plays this song on a 7-string (I've read in an interview) but it doesn't seem that he actually uses the
seventh string, so....Good tab!

0 reply
MaAal_MaAan wrote on December 30 2007, 05:07 am

excellent job, very well done

i am impressed

5 starzzz

0 reply
Greged wrote on May 25 2009, 11:19 am

Missing a lot of the real guitar part. All those empty measures actually have guitar in them.

I want to post or [tab]
guest
You may want to rate the tab now too:
select rating
Please do not post tabs as comments. Select "correction" instead!