Oops, an error
Loading. Please wait.

Sacrificed Sons Bass Tab

ver1
ver1

Whole song

Interactive

More versions @911Tabs.com
4,037 views 6 this week
1 commentread comment
1 2 3 4 5
excellent!
x 1
Autoscroll
+/-
esc
set tempo
stop
Contributor
Difficulty
intermediate
Hey! There's an official Ultimate Guitar app which is ideal
for learning songs when you're away from computer. Get the app
WARNING: You are trying to view
                                    content from Ultimate-Guitar.com
                                    in an unauthorized application,
                                    which is prohibited.

                                    Please use an official Ultimate
                                    Guitar Tabs application for iPhone,
                                    iPad or Android to access legitimate
                                    chords, guitar, bass, and drum tabs
                                    from Ultimate-Guitar.com database.

                                    Type "ultimate guitar tabs" in Apple
                                    App Store's or Android Market's
                                    search to find the application.
                               Sacrificed Sons
                                Dream Theater
                                 Octavarium

Standard Tuning-6 string bass

    Intro   4x                                             Verse 1
C|-|----------|----------|----------|----------|----------|----------|
G|-|----------|----------|----------|----------|----------|----------|
D|6|o--rest--o|----------|----------|----------|----------|o---------|
A|/|o--------o|----------|----------|----------|2~--------|o---------|
E|8|----------|0~--------|(0)-------|2~--------|----------|-0~-------|
B|-|----------|----------|----------|----------|----------|----------|

C|----------|----------|----------|----------|----------|----------|
G|----------|----------|----------|----------|----------|----------|
D|----------|----------|----------|----------|----------|----------|
A|----------|----------|----------|----------|3~--------|----------|
E|(0)-------|0~--------|0~--------|0~--------|----------|2~--------|
B|----------|----------|----------|----------|----------|----------|
          2x Chorus
C|----------|----------|-------------|----------|----------|----------|
G|----------|----------|-------5---5-|7---------|7---------|----------|
D|---------o|----------|-----5---5---|--------5-|----------|----------|
A|2~-------o|3~--------|3-33---------|------5---|----5\----|3~--------|
E|----------|----------|-------------|----------|----------|----------|
B|----------|----------|-------------|----------|----------|----------|
                                      Bridge 1 H-Harmonic
C|-------------|----------|----------|----------|----------|----------|
G|-------5---5-|----------|----------|----------|----------|----------|
D|-----5---5---|----------|----------|----------|----------|----------|
A|3-33---------|5-------5-|----------|--------H-|H---------|7-------H-|
E|-------------|----------|----------|------H-5-|5~--------|------H-5-|
B|-------------|----------|3~--------|5-----5---|----------|------5---|
                                                         Verse 2
C|----------|----------|----------|----------|----------|----------|
G|----------|----------|----------|----------|----------|----------|
D|----------|----------|----------|----------|----------|----------|
A|H---------|7~--------|----------|----------|2~--------|----------|
E|5~--------|----------|8~--------|2~--------|----------|----------|
B|----------|----------|----------|----------|----------|00-0-0----|

C|----------|----------|----------|----------|----------|----------|
G|----------|----------|----------|----------|----------|----------|
D|----------|----------|----------|----------|----------|----------|
A|-------7\-|----------|-------7\-|----------|33-3-3----|----------|
E|00-0-0----|00-0-0----|00-0-0----|00-0-0----|----------|22-2-2----|
B|----------|----------|----------|----------|----------|----------|
               Chorus
C|------------|----------|-------------|----------|----------|----------|
G|------------|----------|-------5---5-|----------|7---------|----------|
D|------------|----------|-----5---5---|------7---|----5\----|----------|
A|22-2-2-0222-|3~--------|3-33---------|5-------5-|----------|3~--------|
E|------------|----------|-------------|----------|----------|----------|
B|------------|----------|-------------|----------|----------|----------|

C|-------------|----------|----------|----------|-------------|----------|
G|-------5---5-|----------|----------|----------|-------5---5-|----------|
D|-----5---5---|------7---|----------|----------|-----5---5---|------7---|
A|3-33---------|5-------5-|5~--------|3~--------|3-33---------|5-------5-|
E|-------------|----------|----------|----------|-------------|----------|
B|-------------|----------|----------|----------|-------------|----------|
                                                         Bridge 2
C|----------|----------|----------|----------|----------|----------|
G|------7---|----5-----|-----5----|----------|----------|----------|
D|----------|------5---|-------45-|7-777-7-5-|4----4----|----------|
A|5---------|3-3-----3-|3-33------|----------|-------32-|-------7--|
E|----------|----------|----------|----------|----------|0----0----|
B|----------|----------|----------|----------|----------|----------|

C|----------|----------|------------|----------|----------|----------|
G|----------|----------|------------|----------|----------|----------|
D|----------|----------|------------|----------|----------|----------|
A|------777-|-------7\-|--75--------|-------7\-|3------37-|----------|
E|0---0-----|0----0----|0----753----|0----0----|----------|2------22-|
B|----------|----------|---------53-|----------|----------|----------|

C|----------|----------|----------|----------|----------|----------|
G|----------|----------|----------|----------|----------|----------|
D|----------|----------|----------|----------|----------|----------|
A|2-222-----|-------7\-|------777-|-------7\-|------777-|-------7\-|
E|------3-2-|0----0----|0---0-----|0----0----|0---0-----|0----0----|
B|----------|----------|----------|----------|----------|----------|
                                     Main Riff
C|----------|----------|----------|-|--------------|-------------|
G|----------|----------|----------|-|--------------|-------------|
D|----------|----------|----------|6|--------------|-------------|
A|3------37-|----------|2---------|/|--7675-74-3-7-|-------------|
E|----------|2------22-|-----1----|4|0-------------|7-6-53-5-6-7-|
B|----------|----------|----------|-|--------------|-------------|
                                                                          4x
C|--------------|------------------|---------------------|------------------|
G|--------------|------------------|---------------------|------------------|
D|--------------|------------------|o--------------------|-----------------o|
A|--7675-74-3-7-|------------------|o--7675---74---3---7-|-----------------o|
E|0-------------|70-60-530-50-60-7-|-0------0----0---0---|70-60-530-50-60-7-|
B|--------------|------------------|---------------------|------------------|
                                                           Riff 2
C|-|---------|-|------|-|---------|-|-------|-|---------|-|-----------------|
G|-|---------|-|------|-|---------|-|-------|-|--1211---|-|-----------------|
D|6|---------|4|545---|5|--989----|3|--1211-|4|---------|4|o----------------|
A|/|--7675---|/|----6-|/|------10-|/|-------|/|---------|/|o----------------|
E|8|0------0-|8|------|8|0--------|8|0------|8|0------0-|4|-2-0-2-3-2-0-2-0-|
B|-|---------|-|------|-|---------|-|-------|-|---------|-|-----------------|
                                                      2x
C|-|--------------|-|-----------------|-----------------|-----------------|
G|-|--------------|-|-----------------|-----------------|-----------------|
D|7|--------------|4|-----------------|----------------o|o----------------|
A|/|---0-1-2------|/|-----------------|----0-1-2-------o|o----------------|
E|8|2-3-------3-0-|4|-2-0-2-3-2-0-2-0-|2-3-------3-2-0--|-2-0-2-3-2-0-2-0-|
B|-|--------------|-|-----------------|-----------------|-----------------|

C|-|--------------|-|----------------|--|----------------------|-|-----|
G|-|--------------|-|----------------|--|----------------------|-|-----|
D|7|--------------|4|----------------|11|---------------------o|3|54---|
A|/|----0-1-2-----|/|----------------| /|----0-1-2-------54---o|/|-----|
E|8|2-3-------3-0-|4|2-0-2-3-2-0-2-0-| 8|2-3-------3-2-0----0--|8|---0-|
B|-|--------------|-|----------------|--|----------------------|-|-----|
  Keyboard Solo                            4x   Honky-tonk Solo
C|-|---------------------|-------------------|-|-----------------|
G|-|---------------------|-------------------|-|-----------------|
D|6|o--------------------|------------------o|4|o----------------|
A|/|o7675---74---3---7---|------------------o|/|o----------------|
E|4|------0----0---0---7-|06-053-05-06-07-0--|4|-2-0-2-3-2-0-2-0-|
B|-|---------------------|-------------------|-|-----------------|

C|-|--------------|-|----------------|--|----------------------|-|-----|
G|-|--------------|-|----------------|--|----------------------|-|-----|
D|7|--------------|4|----------------|11|---------------------o|3|54---|
A|/|----0-1-2-----|/|----------------| /|----0-1-2-------54---o|/|-----|
E|8|2-3-------3-0-|4|2-0-2-3-2-0-2-0-| 8|2-3-------3-2-0----0--|8|---0-|
B|-|--------------|-|----------------|--|----------------------|-|-----|

C|-|----------------|-|--------------|-|----------------|
G|-|----------------|-|--------------|-|----------------|
D|4|----------------|7|--------------|4|----------------|
A|/|----------------|/|----0-1-2-----|/|----------------|
E|4|2-0-2-3-2-0-2-0-|8|2-3-------3-0-|4|2-0-2-3-2-0-2-0-|
B|-|----------------|-|--------------|-|----------------|

C|--|-------------------------------21---|
G|--|--------------------------43--------|
D|10|---------------------54-------------|
A| /|----0-1-2-------54------------------|
E| 4|2-3-------3-2-0----0----0----0----0-|
B|--|------------------------------------|
    Guitar Solo                            4x
C|-|---------------------|-------------------|-|-----------------|
G|-|---------------------|-------------------|-|-----------------|
D|6|o--------------------|------------------o|4|o----------------|
A|/|o7675---74---3---7---|------------------o|/|o----------------|
E|4|------0----0---0---7-|06-053-05-06-07-0--|4|-2-0-2-3-2-0-2-0-|
B|-|---------------------|-------------------|-|-----------------|
                                                    4x
C|-|--------------|-|--------------|------------------|-|--------|
G|-|--------------|-|--------------|------------------|-|--------|
D|7|--------------|4|--------------|-----------------o|2|0-2-0---|
A|/|----0-1-2-----|/|--------------|-----0-1-2-------o|/|------4-|
E|8|2-3-------3-0-|4|2-0-2-3-2-0-2-|2-3--------3-2-0--|4|--------|
B|-|--------------|-|--------------|------------------|-|--------|

C|-|----------|----------|----------|----------|----------|--------|
G|-|----------|4~--------|----------|---4------|----------|5---5---|
D|3|--------4-|----------|----------|4----4----|-----5--5-|--5---5-|
A|/|2----2----|----------|2---2---2-|-------2--|3---------|--------|
E|4|----------|----------|----------|----------|----------|--------|
B|-|----------|----------|----------|----------|----------|--------|

C|----------|----------|----------|---------|----------|---------|----------|
G|----------|---5----5-|----------|---------|----------|/9-------|----------|
D|----------|5----5----|----------|2~-------|----------|---9-----|----------|
A|3----3--3-|----------|----------|---------|----------|------7/-|5----5--5-|
E|----------|----------|0----0--0-|---------|0----0--0-|---------|----------|
B|----------|----------|----------|---------|----------|---------|----------|

C|----------|----------|----------|----------|----------|----------|
G|7---------|----------|----------|----------|----------|----------|
D|-----7--4-|----------|----------|----------|--------4-|----------|
A|--5-------|5----5--5-|5----5--3-|2----2--2-|2----2----|2----2--2-|
E|----------|----------|----------|----------|----------|----------|
B|----------|----------|----------|----------|----------|----------|

C|---------|----------|----------|----------|---------|----------|
G|---------|----------|----------|----------|---------|----------|
D|4----4---|----------|--------5-|----------|5----5---|----------|
A|--2----2-|3----3--3-|3----3----|3----3--3-|--3----3-|7----7--7-|
E|---------|----------|----------|----------|---------|----------|
B|---------|----------|----------|----------|---------|----------|

C|---------|----------|----------|----------|---------|----------|
G|9--------|----9-----|9---------|----------|---------|----------|
D|---7-9---|7/9-------|---7/9----|----------|---------|----------|
A|-------7-|------7-7-|-------7--|5----5--5-|5--5--5--|5----5--5-|
E|---------|----------|----------|----------|---------|----------|
B|---------|----------|----------|----------|---------|----------|
                                                         Riff
C|------------|----------|---------|----------|---------|------|------|
G|5-7-5-------|----------|---------|----------|---------|------|------|
D|------9-5-6-|----------|---------|----------|---------|------|------|
A|------------|0----0--0-|0--2--3--|----------|---------|------|------|
E|------------|----------|---------|2----2--2-|2--3--2--|0-----|0-----|
B|------------|----------|---------|----------|---------|------|------|

C|------|--------|------|------|----------|---------|------|------|------|
G|------|--------|------|------|----------|------2--|------|------|------|
D|------|--------|------|------|----------|----4----|------|------|------|
A|------|111-000-|------|------|3--1-0--1-|--3------|------|------|------|
E|0-----|--------|0-----|0-----|----------|2--------|0-----|0-----|0-----|
B|------|--------|------|------|----------|---------|------|------|------|

C|--------|------|------|--------|--------|--------|---------|-------|
G|--------|------|------|--------|--------|--------|---------|-------|
D|--------|------|------|--------|--------|--------|---------|-------|
A|111-000-|------|------|1---0---|--------|7/------|---------|-------|
E|--------|0-----|0-----|--------|--------|--------|0------0-|0------|
B|--------|------|------|--------|4---3---|--------|---------|-------|
                                                Pre-Chorus
C|---------|--------|--------|--------|--------|-------|--------|----|-----|
G|---------|--------|--------|--------|--------|-------|--------|----|-----|
D|---------|--------|--------|--------|--------|2~-----|---4--5-|----|-----|
A|1--0--0--|7/------|--------|--------|--------|-------|--------|4---|(4)--|
E|---------|--------|0-------|1---0---|--------|-------|--------|----|-----|
B|---------|--------|--------|--------|4---3---|-------|--------|----|-----|

C|------|--------|------|--------|------|--------|------|-------|------|
G|------|--------|------|--------|------|--------|------|-------|------|
D|------|--------|------|--------|2-----|---4--5-|------|-------|------|
A|------|---3--1-|2-----|2-------|------|--------|3-----|(3)----|0-----|
E|2-----|--------|------|---3--2-|------|--------|------|-------|------|
B|------|--------|------|--------|------|--------|------|-------|------|
                         Verse 3
C|--------|------|------|---------|--------|--------|-----------|--------|
G|--------|------|------|---------|--------|--------|-----------|--------|
D|--------|1-----|------|o--------|--------|--------|2----------|--------|
A|---2--3-|------|2-----|o--------|--------|--------|-------1---|--------|
E|--------|------|------|-0--0--0-|0--0--0-|0--0--0-|--0--0---3-|00-0--0-|
B|--------|------|------|---------|--------|--------|-----------|--------|

C|--------|--------|-----------|--------|--------|--------|-----------|
G|--------|--------|-----------|--------|--------|--------|-----------|
D|--------|--------|4----------|--------|--------|--------|5----------|
A|--------|--------|---------1-|--------|--------|--------|-------2---|
E|0--0--0-|0--0--0-|--0--0-3---|00-0--0-|0--0--0-|0--0--0-|--0--0---3-|
B|--------|--------|-----------|--------|--------|--------|-----------|
                                       Chorus
C|--------|--------|--------|---------|--------|--------|--------|----------|
G|--------|--------|--------|---------|--------|--------|--------|----------|
D|--------|--------|--------|--------o|--------|--------|--------|----------|
A|33-3--3-|3--3--3-|--------|------2-o|--------|3-------|--------|---3----3-|
E|--------|--------|22-2--2-|11-1-----|--------|--------|--------|3----3----|
B|--------|--------|--------|---------|1--1--1-|----1---|1--1--1-|----------|

C|--------|--------|--------|----------|--------|--------|--------|---------|
G|--------|--------|--------|----------|--------|--------|--------|---------|
D|--------|--------|--------|----------|--------|--------|--------|---------|
A|--------|5--5----|--------|---5----5-|--------|--------|--------|--3---3--|
E|--------|-----5--|--------|5----5----|--------|3-------|--------|3---3--3-|
B|3--3--3-|--------|3--3--3-|----------|1--1--1-|----1---|1--1--1-|---------|

C|--------|--------|-----------|----------|--------|--------|--------|
G|--------|--------|-----------|----------|--------|5-------|--------|
D|--------|--------|-----------|----------|--------|----5---|--------|
A|--------|5---5---|5---55---5-|5----55---|3---3---|--------|3--3--3-|
E|--------|--------|--5----5---|--5-----5-|--------|--------|--------|
B|3--3--3-|--------|-----------|----------|--------|--------|--------|

C|----------|--------|--------|-------|--------|--------|--------|-------|
G|----------|--------|--------|-------|7-----7-|--------|5-------|-------|
D|---5----5-|--------|--------|-------|--------|--------|---5----|-------|
A|3----3----|5---5---|5---5---|5---55-|---5----|3---3---|------3-|3---33-|
E|----------|--------|--------|-------|--------|--------|--------|-------|
B|----------|--------|--------|-------|--------|--------|--------|-------|

C|--------|--------|--------|--------|--------|-|--------|--------|-------|
G|--------|--------|--------|--------|--------|-|--------|--------|-------|
D|---4--5-|7---7---|7--7--5-|4--4--4-|4--5--4-|6|--------|----2---|2------|
A|3-------|--------|--------|--------|--------|/|--------|2-------|-------|
E|--------|--------|--------|--------|--------|8|0---0---|--------|-------|
B|--------|--------|--------|--------|--------|-|--------|--------|-------|

C|--------|--------|--------|-------|--------|--------|--------|------|
G|--------|--------|--------|-------|--------|--------|--------|------|
D|--------|--------|2-----2-|2------|--------|--------|2-------|------|
A|--------|--------|---2----|-------|--------|--------|----2---|3-----|
E|---3--2-|0---0---|--------|-------|---3--2-|--------|--------|------|
B|--------|--------|--------|-------|--------|0---0---|--------|------|

C|--------|--------|--------|--------|--------|--------|--------|------|
G|--------|--------|--------|--------|--------|--------|--------|------|
D|--------|--------|--------|--------|--------|--------|----2---|2-----|
A|--------|--------|--------|2----22-|22--2-2-|--------|2-------|------|
E|---3--0-|2----22-|2--2--3-|--------|--------|0---0---|--------|------|
B|--------|--------|--------|--------|--------|--------|--------|------|

C|--------|--------|--------|-------|--------|--------|--------|--------|
G|--------|--------|--------|-------|--------|--------|--------|--------|
D|--------|--------|2-----2-|2------|2-------|--------|2-------|--------|
A|--------|--------|---2----|-------|--------|--------|----2---|--------|
E|---3--2-|0---0---|--------|-------|---3--2-|0---0---|--------|3----33-|
B|--------|--------|--------|-------|--------|--------|--------|--------|
                                                Main Riff
C|--------|--------|--------|--------|-------|-|---------------------|
G|--------|--------|--------|--------|-------|-|---------------------|
D|--------|--------|--------|--------|-------|6|o--------------------|
A|--------|--------|--------|2----22-|-------|/|o--7675---74---3---7-|
E|3--3--0-|2----22-|2--2--2-|--------|1------|4|-0------0----0---0---|
B|--------|--------|--------|--------|-------|-|---------------------|
                   4x Riff 3
C|-------------------|----------|---------|---------|---------|---------|
G|-------------------|----------|---------|---------|---------|---------|
D|------------------o|o---------|---------|---------|---------|---------|
A|------------------o|o0----2-3-|---------|6----7-9-|---------|---------|
E|70-60-530-50-60-7--|----------|2----3-5-|---------|7----3-2-|0----2-3-|
B|-------------------|----------|---------|---------|---------|---------|

C|---------|---------|---------|-|------|------|------|---------|------|
G|---------|---------|---------|-|------|------|------|---------|------|
D|---------|---------|----4---o|3|------|------|------|---2---2-|------|
A|4----5-7-|---------|--------o|/|7\----|7\----|7\----|1----0---|7\----|
E|---------|6----7-9-|2--------|4|------|------|------|---------|------|
B|---------|---------|---------|-|------|------|------|---------|------|

C|------|------|---------|------|------|------|---------|------|------|
G|------|------|---------|------|------|------|---------|------|------|
D|------|------|---2-----|------|------|------|---2---2-|------|------|
A|7\----|7\----|3----1---|7\----|7\----|7\----|1----0---|7\----|7\----|
E|------|------|-------1-|------|------|------|---------|------|------|
B|------|------|---------|------|------|------|---------|------|------|

C|--------|--------|-------|
G|--------|--------|-------|
D|--------|--------|-------|
A|3-------|0-------|-------|
E|----2---|----1---|0------|
B|--------|--------|-------|


THE END

what a great song that is. i tried to tab the measures so it will help with timing, just 
to the song and you'll have it down in no time. enjoy
comments
We did not receive enough feedback on this tab! Please rate:
print report bad tab
1 2 3 4 5
1 comment total.
0 reply
6banger wrote on August 17 2007, 12:59 am

the measure at the start of verse 2 is wrong. should be on the E string not the B

I want to post or [tab]
guest
You may want to rate the tab now too:
select rating
Please do not post tabs as comments. Select "correction" instead!