Oops, an error
Loading. Please wait.

Sacrificed Sons Tab

ver1
ver1

Whole song

Interactive

More versions @911Tabs.com
12,130 views 13 this week
5 commentsread comments
1 2 3 4 5
excellent!
x 5
Autoscroll
+/-
esc
set tempo
stop
Hey! There's an official Ultimate Guitar app which is ideal
for learning songs when you're away from computer. Get the app
WARNING: You are trying to view
                                    content from Ultimate-Guitar.com
                                    in an unauthorized application,
                                    which is prohibited.

                                    Please use an official Ultimate
                                    Guitar Tabs application for iPhone,
                                    iPad or Android to access legitimate
                                    chords, guitar, bass, and drum tabs
                                    from Ultimate-Guitar.com database.

                                    Type "ultimate guitar tabs" in Apple
                                    App Store's or Android Market's
                                    search to find the application.
#----------------------------------PLEASE NOTE---------------------------------#
#This file is the author's own work and represents their interpretation of the #
#song. You may only use this file for private study, scholarship, or research. #
#------------------------------------------------------------------------------##

                                 SACRIFICED SONS
                          As recorded by Dream Theater
                        (From the 2005 Album OCTAVARIUM)

Words by James LaBrie Music by Dream Theater
Transcribed by Dead-Slaughter

Gtr I (E A D G B E) - 'Clean'
Gtr II (E A D G B E) - 'Distortion'
Gtr III (E A D G B E) - 'Distortion 2'
Gtr IV (E A D G B E) - 'Distortion 3 (w/wah)'
Gtr V (E A D G B E) - 'Distortion 4'

 Intro
  Q=74
 6/8
  Gtr I
  Wx8
|--------|
|--------|
|--------|
|--------|
|--------|
|--------|


   Verse
    Em/B         C              Em/B         Ebm/A
    E H    +E     E  H    +E    E H    +E    E E H
||--3----------|-(3)----------|-3----------|-----2----|
||o---5----(5)-|-----5----(5)-|---5----(5)-|---4------|
||----4----(4)-|-----5----(5)-|---4----(4)-|-2--------|
||-------------|--------------|------------|----------|
||o------------|--------------|------------|----------|
||-------------|--------------|------------|----------|


  Em/B         C              Em/Bb      Eb/A  Ebm/A
  E H    +E     E  H    +E    E E H      E E E Q.
|-3----------|-(3)----------|-----3----|-----3-2-----||
|---5----(5)-|-----5----(5)-|---5------|---4--------o||
|---4----(4)-|-----5----(5)-|-3--------|-2-----------||
|------------|--------------|----------|-------------||
|------------|--------------|----------|------------o||
|------------|--------------|----------|-------------||


 Verse 2
  N.C.
 4/4                                                   5/8
  Gtr II
  <        <                         <                   <
               ~~~~~~~~~~~~              ~~~~~~~~~~
  E +Q.    E  +Q.      +W            E  +Q.    +H        E  +H
|-------------------|-------------|-------------------|------------|
|---------12-(12)---|-(12)--------|-10-(10)---(10)----|------------|
|-9-(9)-------------|-------------|-------------------|------------|
|-------------------|-------------|-------------------|-12-(12)----|
|-------------------|-------------|-------------------|------------|
|-------------------|-------------|-------------------|------------|


 4/4
  <        <                         <                           <
               ~~~~~~~~~~~~              ~~~~~~~~~~~~~~~~~~~~
  E +Q.    E  +Q.      +W            E  +Q.    +H        +H      E  +Q.
|-------------------|-------------|-------------------|-------------------|
|---------12-(12)---|-(12)--------|-10-(10)---(10)----|-(10)--------------|
|-9-(9)-------------|-------------|-------------------|-------------------|
|-------------------|-------------|-------------------|---------12-(12)---|
|-------------------|-------------|-------------------|-------------------|
|-------------------|-------------|-------------------|-------------------|


  Em                 C                  Em               C
  <
  E +Q.      H       W                  W                W
|------------------|------------------|----------------|----------------|
|------------------|------------------|----------------|----------------|
|-9-(9)------------|------------------|----------------|----------------|
|------------------|------------------|----------------|----------------|
|------------------|------------------|----------------|----------------|
|------------------|------------------|----------------|----------------|
|
| Gtr I
|            ~~~            ~~~~~~~~~~           ~~~              ~~~
| E  E  E E +H       E E E +H     +E    E E E E +H       E E E E +H
|------------------|------------------|----------------|---0------------|
|------------------|------------------|----------------|----------------|
|---------0-(0)----|-----0-(0)----(0)-|-------0-(0)----|-------0-(0)----|
|-------4----------|---4--------------|-----4----------|-----4----------|
|----2-------------|-3----------------|---2------------|-3--------------|
|-0----------------|------------------|-0--------------|----------------|


  Em               F#/C               F#                 B
  Gtr I
           ~~~            ~~~~~~~~~~         ~~~~~~~~~~           ~~~
  E E E E +H       E E E +H     +E    E E E +H     +E    E E E E +H
|----------------|------------------|------------------|-------2-(2)----|
|----------------|------------------|------------------|----------------|
|-------0-(0)----|-----3-(3)----(3)-|-----3-(3)----(3)-|-----4----------|
|-----4----------|---4--------------|---4--------------|---4------------|
|---2------------|-3----------------|------------------|-2--------------|
|-0--------------|------------------|-2----------------|----------------|


 Verse 3
  N.C.
 3/4                                 4/4
  Gtr II
  TP   TP     TP   TP     TP   TP     TP
  Q.   Q.     Q.   Q.     Q.   Q.     W
|-----------|-----------|-----------|------|
|------8----|-7---------|------8----|-7----|
|-4---------|------5----|-4---------|------|
|------5----|-4---------|------5----|-4----|
|-2---------|------3----|-2---------|------|
|-----------|-----------|-----------|------|


 3/4                                 4/4
  TP   TP     TP   TP     TP   TP     TP
  Q.   Q.     Q.   Q.     Q.   Q.     W
|-----------|-----------|-----------|------|
|------8----|-7---------|------8----|------|
|-4---------|------5----|-3---------|-8----|
|------5----|-4---------|------5----|------|
|-2---------|------3----|-1---------|-6----|
|-----------|-----------|-----------|------|


   Chorus
    $
    Csus2                   D
   3/4
    Q.    Q.     +H.        Q.    Q.     +H.
||--------3----|-(3)------|-------5----|-(5)------|
||o-------3----|-(3)------|-------7----|-(7)------|
||--5-----5----|-(5)------|-7-----7----|-(7)------|
||--5----(5)---|-(5)------|-7----(7)---|-(7)------|
||o-3----(3)---|-(3)------|-5----(5)---|-(5)------|
||-------------|----------|------------|----------|


 1.
  Csus2                   D
                                      7/8
  Q.    Q.     +H.        Q.    Q.     +H     E E E
|-------3----|-(3)------|-------5----|-(5)--------------||
|-------3----|-(3)------|-------7----|-(7)-------------o||
|-5-----5----|-(5)------|-7-----7----|-(7)--------------||
|-5----(5)---|-(5)------|-7----(7)---|-(7)----0-4-5-----||
|-3----(3)---|-(3)------|-5----(5)---|-(5)-------------o||
|------------|----------|------------|------------------||


  2.
                                     To Coda
                                                E5           Bmaj7sus4/E
 5/4               7/8                         3/4
                                                                    PM|
  Q.    H..         E E H    E   E H    E E     Q.    Q.      H     E E
|-------3---------|------------|------------||-------------|-------------|
|-------3---------|------------|------------||o-------5----|--5----------|
|-5-----5---------|------------|------------||--------4----|--3----------|
|-5----(5)--------|------------|------------||--2-----2----|--2----------|
|-3----(3)--------|------------|------------||o-2----(2)---|-(2)---------|
|-----------------|-2-3-5----5-|-3-2----3-2-||--0----(0)---|-(0)----0-0--|


  E5           Bmaj7sus4/EE5           C5/G
                                            PM|
  Q.    Q.      H.        Q.    Q.     H    E E
|------------|----------|------------|----------|
|-------5----|--5-------|-------5----|----------|
|-------4----|--3-------|-------4----|-5--------|
|-2-----2----|--2-------|-2-----2----|-5--------|
|-2----(2)---|-(2)------|-2----(2)---|-3--------|
|-0----(0)---|-(0)------|-0----(0)---|-3----3-0-|


            1.           2.
  F#5        B5           B5   F5   E5
                         4/4
       PM|
  H    E E   H    E E     Q.   Q.   E  E
|----------|-----------||----------------||
|----------|----------o||----------------||
|----------|-4---------||-4--------------||
|-4--------|-4---------||-4----3----2\---||
|-4--------|-2--------o||-2----3----2\---||
|-2----2-3-|------3-2--||------1----0\---||


 Instrumental Section
  Faster H=87
                    N.C.
 4/4
  Wx5          H     E   E   E   E
|------------|----------------------|
|------------|------<5>-<5>-<5>-<5>-|
|------------|----------------------|
|------------|----------------------|
|------------|----------------------|
|------------|----------------------|


    PM------------------------------------------------|
    E E E E E E E E   E E E E E E E E   E E E E E E E E
||------------------|-----------------|------------------||
||o-----------------|-----------------|-----------------o||
||------------------|-----------------|------------------||
||----2-1-2-0---2---|-------2---------|------------------||
||o---------------4-|---3-----2---1---|-------0---1---2-o||
||--0---------0-----|-0---0-----0---0-|-5-3-0---0---0----||


    PM        PM      PM  PM    PM  PM      PM  PM  PM
    E E E E E E E E   E E E E E E E E   E E E E E E E E
||------------------|-----------------|------------------||
||o-----------------|-----------------|-----------------o||
||------------------|-----------------|------------------||
||----2-1-2-0---2---|-------2---------|------------------||
||o---------------4-|---3-----2---1---|-------0---1---2-o||
||--0---------0-----|-0---0-----0---0-|-5-3-0---0---0----||


 5/8                                 3/8
  PM          PM          PM          PM      PM
  E E E E E   E E E E E   E E E E E   E E E   E E E
|-----------|-----------|-----------|-------|---3-2-|
|-----------|-----------|-----------|---3-2-|-------|
|-----------|-----------|---4-3-4-0-|-------|-------|
|---2-1-2-0-|---5-4-5-1-|-----------|-------|-------|
|-----------|-----------|-----------|-------|-------|
|-0---------|-0---------|-0---------|-0-----|-0-----|


   4/4                                                   7/8
    PM----------------------------------------------------------------|
    E E E E E E E E   E E E E E E E E   E E E E E E E E   E E E E E E E
||------------------|-----------------|-----------------|-----------------||
||o-----------------|-----------------|-----------------|----------------o||
||------------------|-----------------|-----------------|-----------------||
||------------------|-----------------|-----------------|-----------------||
||o-----------------|-------0-1-2-----|-----------------|-----0-1-2------o||
||--0-2-0-2-3-2-0-2-|-0-2-3-------3-0-|-2-0-2-3-2-0-2-0-|-2-3-------3-2---||


   4/4
    E E E E E E E E   E E E E E E E E
||------------------|-----------------|
||o-----------------|-----------------|
||------------------|-----------------|
||------------------|-----------------|
||o-----------------|-------0-1-2-----|
||--0-2-0-2-3-2-0-2-|-0-2-3-------3-0-|


                   5/4                     3/8
                                            PM
  E E E E E E E E   E E E E E E E E E E     E E E
|-----------------|----------------------||-------|
|-----------------|---------------------o||-------|
|-----------------|----------------------||-------|
|-----------------|----------------------||---5-4-|
|-----------------|-----0-1-2-------5-4-o||-------|
|-2-0-2-3-2-0-2-0-|-2-3-------3-2-0------||-0-----|


   Keyboard Solo
    N.C.
   4/4
    PM        PM      PM  PM    PM  PM      PM  PM  PM
    E E E E E E E E   E E E E E E E E   E E E E E E E E  4x
||------------------|-----------------|------------------||
||o-----------------|-----------------|-----------------o||
||------------------|-----------------|------------------||
||----2-1-2-0---2---|-------2---------|------------------||
||o---------------4-|---3-----2---1---|-------0---1---2-o||
||--0---------0-----|-0---0-----0---0-|-5-3-0---0---0----||


   4/4                                                   5/4
    E E E E E E E E   E E E E E E E E   E E E E E E E E   E E E E E E E E E E
||------------------|-----------------|-----------------|---------------------|
||o-----------------|-----------------|-----------------|---------------------|
||------------------|-----------------|-----------------|---------------------|
||------------------|-----------------|-----------------|---------------------|
||o-----------------|-------0-1-2-----|-----------------|-----0-1-2-------5-4-|
||--0-2-0-2-3-2-0-2-|-0-2-3-------3-0-|-2-0-2-3-2-0-2-0-|-2-3-------3-2-0-----|


 4/4
  E E E E E E E E   E E E E E E E E
|-----------------|-----------------|
|-----------------|-----------------|
|-----------------|-----------------|
|-----------------|-----------------|
|-----------------|-------0-1-2-----|
|-0-2-0-2-3-2-0-2-|-0-2-3-------3-0-|


                   5/4                   3/8
                                          PM
  E E E E E E E E   E E E E E E E E E E   E E E
|-----------------|---------------------|---------||
|-----------------|---------------------|--------o||
|-----------------|---------------------|---------||
|-----------------|---------------------|---5-4---||
|-----------------|-----0-1-2-------5-4-|--------o||
|-2-0-2-3-2-0-2-0-|-2-3-------3-2-0-----|-0-------||


                    Guitar Solo
                     N.C.
                    4/4
  Gtr III
                          ~~~~~~~~~~~~~~~~~
  Q.       Q.          E  H..
|--------|--------||-----12---------------|
|--------|--------||-/11------------------|
|--------|--------||----------------------|
|--------|--------||----------------------|
|--------|--------||----------------------|
|--------|--------||----------------------|
|
| Gtr II
| PM       PM          PM           PM
| E  E E   E  E E      E  E   E E E E E E
|--------|--------||----------------------|
|--------|----3-2-||----------------------|
|----4-3-|--------||----------------------|
|--------|--------||------2---1-2-0---2---|
|--------|--------||--------------------4-|
|-0------|-0------||---0------------0-----|


 ~~~~~~                                 T
   +Q     E      +H         +E     +E   a  E  +Q     +H
|-(12)--------------------------|---------------------------------|
|--------11b12==(11)-------(11)-|-(11)-17p11-(11)---(11)r\--------|
|-------------------------------|---------------------------------|
|-------------------------------|---------------------------------|
|-------------------------------|---------------------------------|
|-------------------------------|---------------------------------|
|
|   PM    PM           PM    PM                PM     PM     PM
|   E  E  E       E  E E E   E      E      E   E  E   E    E E E
|-------------------------------|---------------------------------|
|-------------------------------|---------------------------------|
|-------------------------------|---------------------------------|
|-----------------2-------------|---------------------------------|
|------3-------------2---1------|-----------------0--------1---2--|
|---0-----0------------0-----0--|---5------3---0------0------0----|


  H.            Q            +W                   +Q     +Q      H
|-------------------------|--------------------|--------------------------|
|-------------------------|--------------------|--------------------------|
|-------------------------|--------------------|--------------------------|
|-------------------------|--------------------|--------------------------|
|--------------10b12.5====|=(10)---------------|-(10)---(10)r---13\-------|
|-------------------------|--------------------|--------------------------|
|
| PM         PM               PM   PM    PM  PM           PM     PM   PM
| E  E E E E E  E       E     E  E E E E E E E     E  E   E   E  E  E E E
|-------------------------|--------------------|--------------------------|
|-------------------------|--------------------|--------------------------|
|-------------------------|--------------------|--------------------------|
|----2-1-2-0----2---------|----------2---------|--------------------------|
|-----------------------4-|------3-----2---1---|--------------0-----1---2-|
|-0----------0------------|---0----0-----0---0-|---5--3---0------0----0---|


                                           ~~~
  W                 W                   E  H.             E
|-----------------|-----------------|-----18------------(24)-|
|-----------------|-----------------|-/17----------------24--|
|-----------------|-----------------|------------------------|
|-----------------|-----------------|------------------------|
|-----------------|-----------------|------------------------|
|-----------------|-----------------|------------------------|
|
| PM        PM      PM  PM    PM  PM          PM  PM  PM
| E E E E E E E E   E E E E E E E E     E  E  E E E E E   E
|-----------------|-----------------|------------------------|
|-----------------|-----------------|------------------------|
|-----------------|-----------------|------------------------|
|---2-1-2-0---2---|-------2---------|------------------------|
|---------------4-|---3-----2---1---|-----------0---1-----2--|
|-0---------0-----|-0---0-----0---0-|---5--3--0---0---0------|


   ~~~~~~~~~~~~~~~~~~~~~~~~~~~~~~~~
   E   E   E   E   E   E   E   E
|-24-(24)-24-(24)-24-(24)-24-(24)-|
|-----24------24------24------24--|
|---------------------------------|
|---------------------------------|
|---------------------------------|
|---------------------------------|
|
|  PM                  PM
|  E   E   E   E   E   E   E   E
|---------------------------------|
|---------------------------------|
|---------------------------------|
|------2---1---2---0-------2------|
|------------------------------4--|
|--0-------------------0----------|


 ~~~~~~~~~~~~        ~~~~~~~~~      ~~~
   E   E   E   Q     Q    +E   a    Q.      +E     Q.      +E
|-24-(24)-24--------24---(24)-23S|=24------(24)\----------------||
|-----24-----(23)----------------|------------------------------||
|------------/21-----------------|------------------------------||
|--------------------------------|------------------------------||
|--------------------------------|---------------/13------(13)\-||
|--------------------------------|------------------------------||
|
|  PM      PM        PM    PM            PM        PM   PM
|  E   E   E   E  E  E E   E        E  E E   E     E  E E   E
|--------------------------------|------------------------------||
|--------------------------------|------------------------------||
|--------------------------------|------------------------------||
|--------------2-----------------|------------------------------||
|------3----------2----1---------|-----------0--------1-----2---||
|--0-------0---------0-----0-----|--5--3-0---------0----0-------||


    Gtr IV
               ~~~~~~~~~~~~~~~
  E  Q.        H          +E  E  H            S  S  E
|-------------14-------|-(14)--------------------------|
|---17b19--------------|--------15b17========15-15-15rS|
|----------------------|-------------------------------|
|----------------------|-------------------------------|
|----------------------|-------------------------------|
|----------------------|-------------------------------|
|
| PM----------------------------------------------------
| E  E    E E  E E E E     E  E  E     E E E  E     E
|----------------------|-------------------------------|
|----------------------|-------------------------------|
|----------------------|-------------------------------|
|----------------------|-------------------------------|
|----------------------|---------------0-1-2-----------|
|-0--2----0-2--3-2-0-2-|---0--2--3------------3-----0--|


                         7/8
                 ~~~~~~~~~~~~~
   Q     Q   S S Q.       +Q    S S S S S S  S S S S
|-----------------------|-----------------------------|
|-11--------------------|-----------------------------|
|------\11---9p7p6------|-(6)---9p7p6-----------------|
|-----------------------|-------------9p7p6-----------|
|-----------------------|-------------------10p9p8p7--|
|-----------------------|-----------------------------|
|
|------------------------------------------------|
|  E E   E E E   E  E E    E  E E   E   E    E   E
|-----------------------|-----------------------------|
|-----------------------|-----------------------------|
|-----------------------|-----------------------------|
|-----------------------|-----------------------------|
|-----------------------|-------0---1---2-------------|
|--2-0---2-3-2---0--2-0-|--2--3--------------3---2----|


 4/4
            ~~~~~~~~~~~~~~~~~~~~~~~~~~~~~~~~~~~~~~
      |--3--|
  E S S S   S +Q      +S  Q.        Q.         S  S S E    Q        +S
|--------------------------------|--------------------------------------|
|--------------------------------|-(8)b9=======8--8-8-8r----------------|
|-9---------9-(9)-----(9)-9------|-(9)--------(9)----------8b9======(8)-|
|---8-7-8------------------------|--------------------------------------|
|--------------------------------|--------------------------------------|
|--------------------------------|--------------------------------------|
|
| PM---------------------------------------------------------------------
| E E     E       E E     E  E E    E     E E  E    E    E      E E
|--------------------------------|--------------------------------------|
|--------------------------------|--------------------------------------|
|--------------------------------|--------------------------------------|
|--------------------------------|--------------------------------------|
|--------------------------------|-------------0----1----2--------------|
|-0-2-----0-------2-3-----2--0-2-|--0-----2-3-------------------3-0-----|


                                   7/8
                                            ~
                        |--3--|
  +Q    +Q    +E.   S S S S   S S   S Q     Q     +E     E.
|---------------------------------|------------------------------|
|---------------------------------|------------------------------|
|-(8)---(8)r==(8)---9p7p6h7h==9p7p|=6----------------------------|
|---------------------------------|---9-----8-----(8)\-----------|
|---------------------------------|------------------------------|
|---------------------------------|------------------------------|
|
|-----------------------------------------------------------|
|  E  E  E  E  E  E   E     E       E   E E   E E      E    E
|---------------------------------|------------------------------|
|---------------------------------|------------------------------|
|---------------------------------|------------------------------|
|---------------------------------|------------------------------|
|---------------------------------|-------0---1-2----------------|
|--2--0--2--3--2--0---2-----0-----|-2---3--------------3----2----|


 4/4
                                                             ~~~~~~~~~~~~~~~~~
  E  S  S   S   S  S   S   S  S  S  E    S  S  S    S  S  E  Q    Q.       E
|---------------------------------------18-18-18-|---------------------------|
|---19-19-(19)-18-17-(17)-19-19-18-17------------|-19p18p17S11---11----------|
|------------------------------------------------|-----------------------\11-|
|------------------------------------------------|---------------------------|
|------------------------------------------------|---------------------------|
|------------------------------------------------|---------------------------|
|
| PM--------------------------------------------------------------------------
| E  E      E      E       E     E    E     E       E     E  E E  E  E E   E
|------------------------------------------------|---------------------------|
|------------------------------------------------|---------------------------|
|------------------------------------------------|---------------------------|
|------------------------------------------------|---------------------------|
|------------------------------------------------|-------------0--1--2-------|
|-0--2------0------2-------3-----2----0-----2----|--0-----2--3---------3---0-|


                                      7/8
 ~~~~~~                            ~~~~~~~~~~~~~~~~~~~~
                    |--3--|  |--3--|
   +H          Q    S  S  S  S  S  S    +Q     Q   +Q.
|------------------------------------|----------------------|
|------------------------------------|----------------------|
|-(11)-------------------------------|----------------------|
|------------\11---14p12p11-14p12p11-|-(11)---\8---(8)------|
|------------------------------------|----------------------|
|------------------------------------|----------------------|
|
|--------------------------------------------------------|
|   E  E E E   E E  E        E           E  E  E E  E  E E
|------------------------------------|----------------------|
|------------------------------------|----------------------|
|------------------------------------|----------------------|
|------------------------------------|----------------------|
|------------------------------------|---------0-1--2-------|
|---2--0-2-3---2-0--2--------0-------|---2--3----------3-2--|


 4/4
                                       \1
   ~~~~                           ~~~~~~~~            ~~~~~
  +E     Q.       Q.       E     +E   +Q      Q.      Q
|-------------------------15--|-(15)-(15)---\10------\9---|
|-----------------------------|---------------------------|
|----------------12------(12)-|---------------------------|
|-(8)\------------------------|---------------------------|
|------/10------(10)----------|---------------------------|
|-----------------------------|---------------------------|
|
|  PM------------------------------------------------------
|  E     E  E E   E  E E   E      E    E  E   E  E E  E E
|-----------------------------|---------------------------|
|-----------------------------|---------------------------|
|-----------------------------|---------------------------|
|-----------------------------|---------------------------|
|-----------------------------|---------------0--1-2------|
|--0-----2--0-2---3--2-0---2--|---0----2--3-----------3-0-|


 ~~~~~~~~~~~~~~~
  +H        +S    Q      S  S  S
|-(9)-------(9)-/14-----14h18p14h=|
|---------------------------------|
|---------------------------------|
|---------------------------------|
|---------------------------------|
|---------------------------------|
|
|--------------------------|
|  E  E E E  E      E E     E
|---------------------------------|
|---------------------------------|
|---------------------------------|
|---------------------------------|
|---------------------------------|
|--2--0-2-3--2------0-2-----0-----|


                                                                    B5
 7/8                                   5/8                         4/4
   S  S  S  S   Q    S  S  S  S  S  S     E  S  S  S  S  S  S  E     W
|-18p14h18p14-/18---21p18h21p18h21p18-|-/21-21h24p21h24p21h24p21-||-22----|
|-------------------------------------|--------------------------||-------|
|-------------------------------------|--------------------------||-------|
|-------------------------------------|--------------------------||-------|
|-------------------------------------|--------------------------||-------|
|-------------------------------------|--------------------------||-------|
|
|  PM---------------------------|
|  E     E      E E  E     E     E        E  E     E     E     E     W
|-------------------------------------|--------------------------||-------|
|-------------------------------------|--------------------------||-------|
|-------------------------------------|--------------------------||--4----|
|-------------------------------------|------------2-------------||--4----|
|---------------0-1--2----------------|---4--5-----------5-----4-||--2----|
|--2-----3-----------------3-----2----|--------------------------||-------|


                                        C5
    Q    H.          +Q    Q   Q   Q     H.       Q     +H      H
|-----------------|-------------------|--------------|---------22----|
|-----------------|---------------19--|-19-------20--|-(20)----------|
|-/19---19--------|-(19)--19--21------|--------------|---------------|
|-----------------|-------------------|--------------|---------------|
|-----------------|-------------------|--------------|---------------|
|-----------------|-------------------|--------------|---------------|
|
| Gtr II
|  +H        H       +W                  W              +H      H
|-----------------|-------------------|--------------|---------------|
|-----------------|-------------------|--------------|---------------|
|--(4)-------4----|--(4)--------------|--5-----------|--(5)-----5----|
|--(4)-------4----|--(4)--------------|--5-----------|--(5)-----5----|
|--(2)-------2----|--(2)--------------|--3-----------|--(3)-----3----|
|-----------------|-------------------|--------------|---------------|
|
| Gtr V
|   Q    H.          +Q    Q   Q   Q     H.       Q     +H      H
|-----------------|-------------------|--------------|---------10----|
|-----------------|----------------7--|--7--------8--|--(8)----------|
|--/7----7--------|--(7)---7---9------|--------------|---------------|
|-----------------|-------------------|--------------|---------------|
|-----------------|-------------------|--------------|---------------|
|-----------------|-------------------|--------------|---------------|


                   E5
   +H       H       Q.    Q.    Q     S  S  Q.    a  H       +H      Q   Q
|-(22)----\20----|-20----19----17--|-------------17h19----|-(19)----17--------|
|----------------|-----------------|-24p22p20-------------|-------------20----|
|----------------|-----------------|----------------------|-------------------|
|----------------|-----------------|----------------------|-------------------|
|----------------|-----------------|----------------------|-------------------|
|----------------|-----------------|----------------------|-------------------|
|
|  +W               W                +H              H       +W
|----------------|-----------------|----------------------|-------------------|
|----------------|-----------------|----------------------|-------------------|
|--(5)-----------|--9--------------|-(9)-------------9----|--(9)--------------|
|--(5)-----------|--9--------------|-(9)-------------9----|--(9)--------------|
|--(3)-----------|--7--------------|-(7)-------------7----|--(7)--------------|
|----------------|-----------------|----------------------|-------------------|
|
|  +H       H       Q.    Q.    Q     S  S  Q.    a  H       +H      Q   Q
|-(10)-----\8----|--8-----7-----5--|--------------5h=7----|--(7)-----5--------|
|----------------|-----------------|-12p10p=8-------------|--------------8----|
|----------------|-----------------|----------------------|-------------------|
|----------------|-----------------|----------------------|-------------------|
|----------------|-----------------|----------------------|-------------------|
|----------------|-----------------|----------------------|-------------------|


  D5                                                              B5
   W           +Q    Q   H       +Q    H.                          W
|-17--------|-(17)------------|---------------------------------|-22----|
|-----------|-------19--------|---------------------------------|-------|
|-----------|-----------19----|-(19)----------------------------|-------|
|-----------|-----------------|---------------------------------|-------|
|-----------|-----------------|---------------------------------|-------|
|-----------|-----------------|---------------------------------|-------|
|
|  W           +H        H       +W                                W
|-----------|-----------------|---------------------------------|-------|
|-----------|-----------------|---------------------------------|-------|
|--7--------|--(7)-------7----|--(7)----------------------------|--4----|
|--7--------|--(7)-------7----|--(7)----------------------------|--4----|
|--5--------|--(5)-------5----|--(5)----------------------------|--2----|
|-----------|-----------------|---------------------------------|-------|
|
|  W           +Q    Q   H       +Q   +S  S S S S S S S S S S S    W
|--5--------|--(5)------------|---------------------------5-7-8-|-10----|
|-----------|--------7--------|-------------------5-6-7-8-------|-------|
|-----------|------------7----|--(7)--(7)-4-5-6-7---------------|-------|
|-----------|-----------------|---------------------------------|-------|
|-----------|-----------------|---------------------------------|-------|
|-----------|-----------------|---------------------------------|-------|


                                    C5
   +W             +H      Q    Q     H.       Q     +H       H
|-(22)---------|-(22)-------------|--------------|---------/22----|
|--------------|-------------/19--|-19-------20--|-(20)-----------|
|--------------|---------21-------|--------------|----------------|
|--------------|------------------|--------------|----------------|
|--------------|------------------|--------------|----------------|
|--------------|------------------|--------------|----------------|
|
|  +H     H       +W                 W              +H       H
|--------------|------------------|--------------|----------------|
|--------------|------------------|--------------|----------------|
|--(4)----4----|--(4)-------------|--5-----------|--(5)------5----|
|--(4)----4----|--(4)-------------|--5-----------|--(5)------5----|
|--(2)----2----|--(2)-------------|--3-----------|--(3)------3----|
|--------------|------------------|--------------|----------------|
|
|  +W             +H      Q    Q     H.       Q     +H       H
|-(10)---------|-(10)-------------|--------------|---------/10----|
|--------------|--------------/7--|--7--------8--|--(8)-----------|
|--------------|----------9-------|--------------|----------------|
|--------------|------------------|--------------|----------------|
|--------------|------------------|--------------|----------------|
|--------------|------------------|--------------|----------------|


                   E5
   +H       H       Q.    Q.    Q     +W             Q    Q   Q   Q
|-(22)----/20----|-19--------------|--------------|------------------|
|----------------|-------20--------|--------------|------19--20--22--|
|----------------|-------------21--|-(21)---------|-21---------------|
|----------------|-----------------|--------------|------------------|
|----------------|-----------------|--------------|------------------|
|----------------|-----------------|--------------|------------------|
|
|  +W               W                 +H     H      +W
|----------------|-----------------|--------------|------------------|
|----------------|-----------------|--------------|------------------|
|--(5)-----------|--9--------------|--(9)----9----|-(9)--------------|
|--(5)-----------|--9--------------|--(9)----9----|-(9)--------------|
|--(3)-----------|--7--------------|--(7)----7----|-(7)--------------|
|----------------|-----------------|--------------|------------------|
|
|  +H       H       Q.    Q.    Q     +W             Q    Q   Q   Q
|-(10)-----/8----|--7--------------|--------------|------------------|
|----------------|--------8--------|--------------|-------7---8--10--|
|----------------|--------------9--|--(9)---------|--9---------------|
|----------------|-----------------|--------------|------------------|
|----------------|-----------------|--------------|------------------|
|----------------|-----------------|--------------|------------------|


  D5                                                        A5
  Gtr IV
                                   ~~~~~~~~~~~~              ~~
   Q.     Q.    Q     +E    Q.     H       +H      Q   Q     W
|--------------10--|-(10)---------------|-----------------|-------|
|-22----\20--------|------\10-----------|-----------------|-10----|
|------------------|-------------\11----|-(11)----11--12--|-------|
|------------------|--------------------|-----------------|-------|
|------------------|--------------------|-----------------|-------|
|------------------|--------------------|-----------------|-------|
|
| Gtr II
|  W                  +H           H       +W                W
|------------------|--------------------|-----------------|-------|
|------------------|--------------------|-----------------|-------|
|--7---------------|--(7)----------7----|--(7)------------|--2----|
|--7---------------|--(7)----------7----|--(7)------------|--2----|
|--5---------------|--(5)----------5----|--(5)------------|--0----|
|------------------|--------------------|-----------------|-------|


          F#5                         N.C.
                                     3/4
            ~~~~~~~~~~~~              ~
   Q   Q    H       +H      Q   Q     H       +Q       W
|----------------|-----------------||----------------|---------------|
|-12--13---------|-----------------||----------------|---------------|
|---------\11----|-(11)----12--11--||-9-------(9)\---|---------------|
|----------------|-----------------||----------------|---------------|
|----------------|-----------------||----------------|---------------|
|----------------|-----------------||----------------|---------------|
|
|                                                                ~~~~
|  Q   Q    H       +H      Q   Q     q   E E  E   E   q   E E   Q
|----------------|-----------------||----------------|---------------|
|----------------|-----------------||----------------|---------------|
|----------------|-----------------||----------------|---------------|
|-----------4----|--(4)------------||----------------|---------------|
|--2---3----4----|--(4)------------||----10-9-10---9-|----10-9-[10]--|
|-----------2----|--(2)-----3---2--||-0--------------|-0-------------|


  Gtr V
                                                     ~~~
  q   E E  E E   Q  E Q  E   q   E E  E E   q   E E  Q
|--------------|-----------|--------------|--------------|
|--------------|-----------|--------------|--------------|
|--------------|-----------|--------------|--------------|
|--------------|-----------|--------------|-----9-8-[9]--|
|----10-9-10-9-|----7----7-|----10-9-10-9-|--------------|
|-0------------|-6----5----|-0------------|-0------------|
|
|                                                    ~~~
| q   E E  E E   Q  E Q  E   q   E E  E E   q   E E  Q
|--------------|-----------|--------------|--------------|
|--------------|-----------|--------------|--------------|
|--------------|-----------|--------------|--------------|
|--------------|-----------|--------------|--------------|
|----10-9-10-9-|----7----7-|----10-9-10-9-|----10-9-10---|
|-0------------|-6----5----|-0------------|-0------------|


         ~~             ~~~
  q  E E Q      E E  E  Q.     q   E E  E E
|------------|---------------|--------------|
|------------|---------10----|--------------|
|----9-8-9\--|------11-------|--------------|
|------------|----9----------|--------------|
|------------|-10------------|----10-9-10-9-|
|-8----------|---------------|-0------------|
|
|        ~~             ~~~
| q  E E Q      E E  E  Q.     q   E E  E E
|------------|---------------|--------------|
|------------|---------------|--------------|
|------------|---------------|--------------|
|----9-8-9\--|----------7----|--------------|
|------------|-10----9-------|----10-9-10-9-|
|-8----------|----7----------|-0------------|


           ~~
  q   E E  Q    q   E E  E E   Q  E Q  E
|-------------|--------------|-----------|
|-------------|--------------|-----------|
|-------------|--------------|-----------|
|-------------|--------------|-----------|
|----10-9-10--|----10-9-10-9-|----7----7-|
|-0-----------|-0------------|-6----5----|
|
|          ~~
| q   E E  Q    q   E E  E E   Q  E Q  E
|-------------|--------------|-----------|
|-------------|--------------|-----------|
|-------------|--------------|-----------|
|-------------|--------------|-----------|
|----10-9-10--|----10-9-10-9-|----7----7-|
|-0-----------|-0------------|-6----5----|


                                 Bb5  A5     D#5/BD5/A   N.C.
                           ~~~~
  q   E E  E E   q   E E   Q     Q.   Q.     Q.   Q.     q   E E  E E
|--------------|---------------|-----------|-----------|---------------|
|--------------|---------------|-----------|-----------|---------------|
|--------------|---------------|-----------|-----------|---------------|
|--------------|-----9-8--[9]--|-8----7----|-8----7----|---------------|
|----10-9-10-9-|---------------|-8----7----|-6----5----|----10-9-10-9--|
|-0------------|-0-------------|-6----5----|-6----5----|-0-------------|
|
|                          ~~~~
| q   E E  E E   q   E E   Q     Q.   Q.     Q.   Q.     q   E E  E E
|--------------|---------------|-----------|-----------|---------------|
|--------------|---------------|-----------|-----------|---------------|
|--------------|---------------|-----------|-----------|---------------|
|--------------|---------------|-8----7----|-8----7----|---------------|
|----10-9-10-9-|----10-9-[10]--|-8----7----|-6----5----|----10-9-10-9--|
|-0------------|-0-------------|-6----5----|-6----5----|-0-------------|


            ~~~~                                                      ~~~~
  q   E E   Q     q   E E  E E   Q  E Q  E   q   E E  E E   q   E E   Q
|---------------|--------------|-----------|--------------|----------------|
|---------------|--------------|-----------|--------------|----------------|
|---------------|--------------|-----------|--------------|----------------|
|---------------|--------------|-----------|--------------|-----9-8--[9]---|
|----10-9-[10]--|----10-9-10-9-|----7----7-|----10-9-10-9-|----------------|
|-0-------------|-0------------|-6----5----|-0------------|-0--------------|
|
|           ~~~~                                                      ~~~~
| q   E E   Q     q   E E  E E   Q  E Q  E   q   E E  E E   q   E E   Q
|---------------|--------------|-----------|--------------|----------------|
|---------------|--------------|-----------|--------------|----------------|
|---------------|--------------|-----------|--------------|----------------|
|---------------|--------------|-----------|--------------|----------------|
|----10-9-[10]--|----10-9-10-9-|----7----7-|----10-9-10-9-|----10-9-[10]---|
|-0-------------|-0------------|-6----5----|-0------------|-0--------------|


         ~~             ~~~
  q  E E Q      E E  E  Q.     q   E E  E E
|------------|---------------|--------------|
|------------|---------10----|--------------|
|----9-8-9\--|------11-------|--------------|
|------------|----9----------|--------------|
|------------|-10------------|----10-9-10-9-|
|-8----------|---------------|-0------------|
|
|        ~~             ~~~
| q  E E Q      E E  E  Q.     q   E E  E E
|------------|---------------|--------------|
|------------|---------------|--------------|
|------------|---------------|--------------|
|----9-8-9\--|----------7----|--------------|
|------------|-10----9-------|----10-9-10-9-|
|-8----------|----7----------|-0------------|


            ~~~~
  q   E E   Q     q   E E  E E   Q  E Q  E
|---------------|--------------|-----------|
|---------------|--------------|-----------|
|---------------|--------------|-----------|
|---------------|--------------|-----------|
|----10-9-[10]--|----10-9-10-9-|----7----7-|
|-0-------------|-0------------|-6----5----|
|
|           ~~~~
| q   E E   Q     q   E E  E E   Q  E Q  E
|---------------|--------------|-----------|
|---------------|--------------|-----------|
|---------------|--------------|-----------|
|---------------|--------------|-----------|
|----10-9-[10]--|----10-9-10-9-|----7----7-|
|-0-------------|-0------------|-6----5----|


                                 Bb5  A5     D#5/BD5/A
                           ~~~~
  q   E E  E E   q   E E   Q     Q.   Q.     Q.   Q.
|--------------|---------------|-----------|-----------|
|--------------|---------------|-----------|-----------|
|--------------|---------------|-----------|-----------|
|--------------|-----9-8--[9]--|-8----7----|-8----7----|
|----10-9-10-9-|---------------|-8----7----|-6----5----|
|-0------------|-0-------------|-6----5----|-6----5----|
|
|                          ~~~~
| q   E E  E E   q   E E   Q     Q.   Q.     Q.   Q.
|--------------|---------------|-----------|-----------|
|--------------|---------------|-----------|-----------|
|--------------|---------------|-----------|-----------|
|--------------|---------------|-8----7----|-8----7----|
|----10-9-10-9-|----10-9-[10]--|-8----7----|-6----5----|
|-0------------|-0-------------|-6----5----|-6----5----|


  N.C.
 4/4
  Gtr II
                   ~~~~~~~~~~~
  W          Q  Q  H      +W
|----------|------------|------------|
|----------|------------|------------|
|----------|------------|------------|
|-2--------|-4--5-------|------------|
|----------|-------4----|-(4)--------|
|----------|------------|------------|


  W          Q  Q  H      +H     Q  Q    W
|----------|------------|--------------|------|
|----------|------------|--------------|------|
|----------|------------|--------------|------|
|----------|------------|--------------|------|
|----------|-3--1--2----|-(2)----------|------|
|-2--------|------------|--------3--2--|-0----|


        ~~~~~~~~~~~                                       ~~~
  Q  Q  H      +W           W          Q  Q  H      +Q    H.
|------------|------------|----------|------------|-------------|
|------------|------------|----------|------------|-------------|
|------------|------------|----------|------------|-------------|
|-4--5-------|------------|----------|-------1----|-(1)---------|
|-------3----|-(3)--------|-0--------|-2--3-------|------[2]----|
|------------|------------|----------|------------|-------------|


   Verse 4
    E5
   4/4
                                          PM      PM
    E E E E E E E E   E E E E E E E E   E E E E E E E E
||------------------|-----------------|-----------------|
||o-----------------|-----------------|-----------------|
||------------------|-----------------|-----------------|
||------------------|-----------------|-----2-----------|
||o-2-2---2---2---2-|---2---2---2---2-|-------------2-0-|
||--0-0---0---0---0-|---0---0---0---0-|---0---0---0-----|


  E5
                                        PM      PM
  E E E E E E E E   E E E E E E E E   E E E E E E E E
|-----------------|-----------------|-----------------|
|-----------------|-----------------|-----------------|
|-----------------|-----------------|-----------------|
|-----------------|-----------------|-----4-----------|
|-2-2---2---2---2-|---2---2---2---2-|-------------0-2-|
|-0-0---0---0---0-|---0---0---0---0-|---0---0---0-----|


  E5
                                        PM      PM
  E E E E E E E E   E E E E E E E E   E E E E E E E E
|-----------------|-----------------|-----------------|
|-----------------|-----------------|-----------------|
|-----------------|-----------------|-----------------|
|-----------------|-----------------|-----5-----------|
|-2-2---2---2---2-|---2---2---2---2-|-------------3-1-|
|-0-0---0---0---0-|---0---0---0---0-|---0---0---0-----|


                                     1.
  C5                        G5            F5
                                                PM ~~~
  E E E E E E E E   E E E E E E E E   E E E E E E  Q
|-----------------|-----------------|-------------------||
|-----------------|-----------------|------------------o||
|-----------------|-----------------|-------------------||
|-5-5---5---5---5-|---5---5---------|-------------------||
|-3-3---3---3---3-|---3---3-5-5---5-|---5-3-3-----[2]--o||
|-----------------|---------3-3---3-|---3-1-1---1-------||


  2.              Half Time H=74
    D.S. al Coda     &
    G5B5             E5                   Bmaj7sus4/E
                    3/4
  E E E E E E E E    H.         H.         H.        +Q   Q  Q
|-----------------||---------|----------|----------|-------------|
|-----------------||---------|--5-------|--5-------|-(5)---------|
|-----------------||---------|--4-------|--3-------|-(3)---------|
|-----4-4---4---4-||-2-------|--2-------|--2-------|-(2)---------|
|---5-2-2---2---2-||-2-------|-(2)------|-(2)------|-(2)---------|
|---3-------------||-0-------|-(0)------|-(0)------|-(0)--3--2---|


  E5                   Bmaj7sus4/E
  H.         H.         H.        +Q   Q  Q
|---------|----------|----------|------------|
|---------|--5-------|--5-------|-(5)--------|
|---------|--4-------|--3-------|-(3)--------|
|-2-------|--2-------|--2-------|-(2)--------|
|-2-------|-(2)------|-(2)------|-(2)--------|
|-0-------|-(0)------|-(0)------|-(0)--3--2--|


  E5                   C5/G
                                      PM-|
  H.         H.        H.        +Q   Q  Q
|---------|----------|---------|------------|
|---------|--5-------|---------|------------|
|---------|--4-------|-5-------|-(5)--------|
|-2-------|--2-------|-5-------|-(5)--------|
|-2-------|-(2)------|-3-------|-(3)--------|
|-0-------|-(0)------|-3-------|-(3)--3--0--|


  F#5                    B5                    E5
                 PM-|
  H.        +Q   Q  Q    H.        +H       Q
|---------|------------|---------|--------------|
|---------|------------|---------|--------------|
|---------|------------|-4-------|-(4)----------|
|-4-------|-(4)--------|-4-------|-(4)----------|
|-4-------|-(4)--------|-2-------|-(2)----------|
|-2-------|-(2)--2--3--|---------|--------/12\--|


    E5                   Bmaj7sus4/E
    H.         H.         H.        +Q   Q  Q
||----------|----------|----------|--------------||
||o---------|--5-------|--5-------|-(5)---------o||
||----------|--4-------|--3-------|-(3)----------||
||--2-------|--2-------|--2-------|-(2)----------||
||o-2-------|-(2)------|-(2)------|-(2)---------o||
||--0-------|-(0)------|-(0)------|-(0)--3--2----||


  E5
                       ~~
  H.         H.        H.
|---------|----------|-------|
|---------|--5-------|-------|
|---------|--4-------|-------|
|-2-------|--2-------|-------|
|-2-------|-(2)------|-------|
|-0-------|-(0)------|-3-----|


               F#5                    B5        F5
   ~~~ PM-|                   PM-|
  +Q   Q  Q    H.        +Q   Q  Q    H.        H.
|------------|---------|------------|---------|-------|
|------------|---------|------------|---------|-------|
|------------|---------|------------|-4-------|-------|
|------------|-4-------|-(4)--------|-4-------|-3-----|
|------------|-4-------|-(4)--------|-2-------|-3-----|
|-(3)--3--3--|-2-------|-(2)--2--2--|---------|-1-----|


   Outro
    H=87
    N.C.
   4/4
    PM        PM      PM  PM    PM  PM      PM  PM  PM
    E E E E E E E E   E E E E E E E E   E E E E E E E E  4x
||------------------|-----------------|------------------||
||o-----------------|-----------------|-----------------o||
||------------------|-----------------|------------------||
||----2-1-2-0---2---|-------2---------|------------------||
||o---------------4-|---3-----2---1---|-------0---1---2-o||
||--0---------0-----|-0---0-----0---0-|-5-3-0---0---0----||


  W          Q  Q   H      +H     Q  Q     W
|----------|-------------|--------------|-------|
|----------|-------------|--------------|-------|
|----------|-------------|--------------|-------|
|----------|-------------|--------------|-------|
|-0--------|-2--3--------|-----------0--|-/6----|
|----------|-------\2----|-(2)----3-----|-------|


  Q  Q   H      +H     Q  Q    W          Q  Q   H
|-------------|--------------|----------|-------------|
|-------------|--------------|----------|-------------|
|-------------|--------------|----------|-------------|
|-------------|--------------|----------|-4--5--------|
|-7--9--------|--------------|----------|-------\4----|
|-------\7----|-(7)----3--2--|-0--------|-------------|


  +H     Q  Q     W          Q  Q   H      +Q   H.
|--------------|-----------|-------------|------------|
|--------------|-----------|-------------|------------|
|--------------|-----------|-------------|------------|
|--------------|-----------|-------------|------4-----|
|-(4)----5--7--|-----------|-------------|------------|
|--------------|-\6--------|-7--9--\2----|-(2)--------|


  W              Q   Q   H      +H       Q   Q     W
|------------|----------------|-----------------|-------------|
|------------|----------------|-----------------|-------------|
|------------|----------------|-----------------|-------------|
|------------|----------------|-----------------|-------------|
|-0----------|---2---3--------|--------------0--|-/6----------|
|------------|----------\2----|-(2)------3------|-------------|
|
| Gtr IV
|       <                        <                       <
| H     H       +H       H       H      +H         H     H
|------------|----------------|-----------------|-------------|
|------10----|-(10)-----------|-10-----(10)-----|-------10----|
|------------|----------------|-----------------|-------------|
|------------|----------------|-----------------|-------------|
|------------|----------------|-----------------|-------------|
|------------|----------------|-----------------|-------------|


    Q   Q   H      +H       Q   Q    W              Q   Q   H
|----------------|-----------------|------------|----------------|
|----------------|-----------------|------------|----------------|
|----------------|-----------------|------------|----------------|
|----------------|-----------------|------------|---4---5--------|
|---7---9--------|-----------------|------------|----------\4----|
|----------\7----|-(7)------3---2--|-0----------|----------------|
|
|                   <                      <
|                                          TP       TP
|  +H       H       H      +H        H     H       +H       H
|----------------|-----------------|------------|----------------|
|-(10)-----------|-12-----(12)-----|------12----|-(12)-----------|
|----------------|-----------------|------------|----------------|
|----------------|-----------------|------------|----------------|
|----------------|-----------------|------------|----------------|
|----------------|-----------------|------------|----------------|


  +H       Q   Q     W              Q   Q   H      +Q   H.
|-----------------|-------------|----------------|----------------||
|-----------------|-------------|----------------|----------------||
|-----------------|-------------|----------------|----------------||
|-----------------|-------------|----------------|------4---------||
|-(4)------5---7--|-------------|----------------|----------------||
|-----------------|-\6----------|---7---9--\2----|-(2)------------||
|
|  <                       <                        <
|  TP      TP              TP       TP              TP       TP
|  H      +H         H     H       +H       H       H        H
|-----------------|-------------|----------------|----------------||
|-14-----(14)-----|-------12----|-(12)-----------|-14-------14----||
|-----------------|-------------|----------------|----------------||
|-----------------|-------------|----------------|----------------||
|-----------------|-------------|----------------|----------------||
|-----------------|-------------|----------------|----------------||


 3/4
                           ~~~~
  q   E E  E E   q   E E   Q     q   E E  E E   Q  E Q  E   q   E E  E E
|--------------|---------------|--------------|-----------|--------------|
|--------------|---------------|--------------|-----------|--------------|
|--------------|---------------|--------------|-----------|--------------|
|--------------|---------------|--------------|-----------|--------------|
|----10-9-10-9-|----10-9-[10]--|----10-9-10-9-|----7----7-|----10-9-10-9-|
|-0------------|-0-------------|-0------------|-6----5----|-0------------|
|
| Gtr V
|                          ~~~~
| q   E E  E E   q   E E   Q     q   E E  E E   Q  E Q  E   q   E E  E E
|--------------|---------------|--------------|-----------|--------------|
|--------------|---------------|--------------|-----------|--------------|
|--------------|---------------|--------------|-----------|--------------|
|--------------|---------------|--------------|-----------|--------------|
|----10-9-10-9-|----10-9--10---|----10-9-10-9-|----7----7-|----10-9-10-9-|
|-0------------|-0-------------|-0------------|-6----5----|-0------------|


            ~~~~                                                      ~~~~
  q   E E   Q     q   E E  E E   Q  E Q  E   q   E E  E E   q   E E   Q
|---------------|--------------|-----------|--------------|----------------|
|---------------|--------------|-----------|--------------|----------------|
|---------------|--------------|-----------|--------------|----------------|
|-----9-8-[10]--|--------------|-----------|--------------|----------------|
|---------------|----10-9-10-9-|----9----9-|----10-9-10-9-|----10-9-[10]---|
|-0-------------|-0------------|-8----7----|-0------------|-0--------------|
|
|           ~~~~                                                      ~~~~
| q   E E   Q     q   E E  E E   Q  E Q  E   q   E E  E E   q   E E   Q
|---------------|--------------|-----------|--------------|----------------|
|---------------|--------------|-----------|--------------|----------------|
|---------------|--------------|-----------|--------------|----------------|
|---------------|--------------|-----------|--------------|----------------|
|----10-9--10---|----10-9-10-9-|----9----9-|----10-9-10-9-|----10-9-[10]---|
|-0-------------|-0------------|-8----7----|-0------------|-0--------------|


                                                      ~~~~
  q   E E  E E   Q  E Q  E   q   E E  E E   q   E E   Q
|--------------|-----------|--------------|---------------|
|--------------|-----------|--------------|---------------|
|--------------|-----------|--------------|---------------|
|--------------|-----------|--------------|----10-9-[10]--|
|----10-9-10-9-|----7----7-|----10-9-10-9-|---------------|
|-0------------|-6----5----|-0------------|-0-------------|
|
|                                                     ~~~~
| q   E E  E E   Q  E Q  E   q   E E  E E   q   E E   Q
|--------------|-----------|--------------|---------------|
|--------------|-----------|--------------|---------------|
|--------------|-----------|--------------|---------------|
|--------------|-----------|--------------|---------------|
|----10-9-10-9-|----7----7-|----10-9-10-9-|----10-9-[10]--|
|-0------------|-6----5----|-0------------|-0-------------|


  C5   F#5    Bb5  F5     E5
 3/4
  Q.   Q.     Q.   Q.     Q.   Q.
|-----------|-----------|-----------*|
|-----------|-----------|-----------*|
|-5---------|-3---------|-----------*|
|-5----4----|-3----3----|-2\--------*|
|-3----4----|-1----3----|-2\--------*|
|------2----|------1----|-0\--------*|


Duration Legend
---------------
W - whole; H - half; Q - quarter; E - 8th; S - 16th; T - 32nd; X - 64th; a - acciaccatura
+ - note tied to previous; . - note dotted; .. - note double dotted
Uncapitalized letters represent notes that are staccato (1/2 duration)
Irregular groupings are notated above the duration line
Duration letters will always appear directly above the note/fret number it represents the
duration for.  Duration letters with no fret number below them represent rests.  Multi-
bar rests are notated in the form Wxn, where n is the number of bars to rest for.  Low
melody durations appear below the staff

Tablature Legend
----------------
 h   - hammer-on
 p   - pull-off
 b   - bend
 pb  - pre-bend
 r   - bend release (if no number after the r, then release immediately)
 /\  - slide into or out of (from/to "nowhere")
 s   - legato slide
 S   - shift slide
<n>  - natural harmonic
[n]  - artificial harmonic
n(n) - tapped harmonic
 ~   - vibrato
 tr  - trill
 T   - tap
 TP  - trem. picking
 PM  - palm muting
\n/  - tremolo bar dip; n = amount to dip
 \n  - tremolo bar down
 n/  - tremolo bar up
/n\  - tremolo bar inverted dip
 =   - hold bend; also acts as connecting device for hammers/pulls
 <>  - volume swell (louder/softer)
 x   - on rhythm slash represents muted slash
 o   - on rhythm slash represents single note slash

Misc Legend
-----------
 |  - bar
||  - double bar
||o - repeat start
o|| - repeat end
*|  - double bar (ending)
 :  - bar (freetime)
 $  - Segno
 &  - Coda
Tempo markers - <E/E./Q/Q./H/H.> = BPM(8/16=s8/s16), where s8 = swing 8ths, s16 = swing 16ths


***************************************************************************************
* Generated using Power Tab Editor by Brad Larsen - http://powertab.guitarnetwork.org *
***************************************************************************************
comments
print report bad tab
5 comments total. Showing first comments.
0 reply
petrucci07 wrote on March 10 2007, 01:44 pm

looks professional, and some notes are right, but apart from that, absolute utter rubbish.

0 reply
Kid Fisto wrote on July 14 2007, 03:57 pm

uh, wrong song???? yeah.

0 reply
SORocker5678 wrote on July 17 2007, 06:06 pm

If it's the wrong song, why did you two give it fives?

I want to post or [tab]
guest
You may want to rate the tab now too:
select rating
Please do not post tabs as comments. Select "correction" instead!