Oops, an error
Loading. Please wait.

Scarred Tab

ver2
ver2

Solo

Whole song

Interactive

More versions @911Tabs.com
4,987 views 12 this week
no commentswrite comment
1 2 3 4 5
excellent!
x 3
add to favorites launch autoscroll
font size
0
reset
Autoscroll
+/-
esc
set tempo
stop
Difficulty
intermediate
WARNING: You are trying to view
                                    content from Ultimate-Guitar.com
                                    in an unauthorized application,
                                    which is prohibited.

                                    Please use an official Ultimate
                                    Guitar Tabs application for iPhone,
                                    iPad or Android to access legitimate
                                    chords, guitar, bass, and drum tabs
                                    from Ultimate-Guitar.com database.

                                    Type "ultimate guitar tabs" in Apple
                                    App Store's or Android Market's
                                    search to find the application.
                                     SCARRED
                          As recorded by Dream Theater
                           (From the 1994 Album AWAKE)

Words by J. Petrucci

Music by M. Portnoy, K. Moore, J. Myung, J. Petrucci
Transcribed by Mark. J. J. B. Sibbald

          B5                  D5/A                  G5                   E5
      x 2 4 4 x x          x 0 0 2 3 x          3 x 0 0 3 3          0 2 2 4 x x

         B5/F#                 F#5                 G5III                 A5
      2 2 4 4 x x          2 4 4 x x x          3 5 5 x x x          x 0 2 2 x x

         C5/G                 D5/AV                E5/B
      3 3 5 5 x x          5 5 7 7 x x          7 7 9 9 x x

Gtr I (E A D G B E) - 'Untitled'
Gtr II (E A D G B E) - 'Untitled'
Gtr III (E A D G B E) - 'Untitled'
Gtr IV (E A D G B E) - 'Untitled'

 Intro
  Moderately Slow Rock Q=92
             N.C.(Bm7)         (Bm6)
 4/4
  Gtr I
               <     >   <       >   <     >  <   >
               ~~        ~~          ~~       ~
|---------||-----------------|-----------------------|
|---------||--17---(17)-12---|-(12)-14---(14)-7--(7)-|
|---------||-----------------|-----------------------|
|---------||-----------------|-----------------------|
|---------||-----------------|-----------------------|
|---------||-----------------|-----------------------|


  (B5)                   (E5/B)
  <       >  <
  ~~~~~~~                         ~~~~~
|----------------------|-------------------|
|-9--(9)-(9)-----------|-------------------|
|------------7b9--(7)--|-([7])--([7])------|
|----------------------|-------------------|
|----------------------|-------------------|
|----------------------|-------------------|


  (Bm7)                                  (Bm6)
    >     <                      >   <          >    <        >   <
                                     ~~              ~~~~~~~~~~~~
|--------------------------------------|----------------------------|
|--------17b20--(17)-(17)-(17)-(17)-12-|-(12)-(12)--14-(14)-(14)--7-|
|-([7])--------------------------------|----------------------------|
|--------------------------------------|----------------------------|
|--------------------------------------|----------------------------|
|--------------------------------------|----------------------------|


  (B5)                     (E5/B)
                            ~~~                  ~~~
|------------------------|-------------------------|
|-(7)b9===(7)--(7)r==(7)-|-(7)---------7-----------|
|------------------------|---------7-9---7b8-(7)---|
|------------------------|-----------------------9-|
|------------------------|-------------------------|
|------------------------|-------------------------|


  (Bm7)                             (Bm6)
 ~~~~~
|---------------------------------|------------------------------------------------|
|---------------------------------|------------------------------------------------|
|-------7-7b9-(7)-x-----9b11==(9)r|=(9)b10==(9)r(9)--(9)----7-(7)b7.5-9-9b11-(9)---|
|-(9)---------------(9)-----------|-----------------------9------------------------|
|---------------------------------|------------------------------------------------|
|---------------------------------|------------------------------------------------|


  (B5)
    ~~~~~~      ~~~~~~
|----------------------7-------------------|
|----------------------7-9b10==(9)r(9)-----|
|-7h9-(9)-(9)p7----------9b10==(9)r(9)p7---|
|---------------9-(9)--------------------9p|
|------------------------------------------|
|------------------------------------------|


  (E5/B)                                         (Bm7)
                                                  ~~           ~~
|----------------------------------------------|-----------------10-(10)b11-(10)---|
|-------------------------------x-----10-10----|-10--12-12----12-------------------|
|---------------------------------/11-------11-|-----------11----------------------|
|-7--------------------------------------------|-----------------------------------|
|---8s7p5---5h7p5h7p5h7p5h7-(7)----------------|-----------------------------------|
|---------7------------------------------------|-----------------------------------|


  (Bm6)
|------------------------------------------------------|
|------12-14--14b15==(14)r(14)-12----/17b19-(17)-15b16-|
|--/11----------------------------11-------------------|
|------------------------------------------------------|
|------------------------------------------------------|
|------------------------------------------------------|


  (B5)                                                        (E5/B)
                                                               ~~                    ~~
|-----------------------------------------------------------|----------------------------------||
|-(15)-------15b16-(15)----------------12-------------------|----------------------------------||
|------16---------------16--14b16-(14)----14p11----11-------|-13-------------------------------||
|---------16------------------------------------14----12----|-----14p12----------14------------||
|--------------------------------------------------------14-|-----------14-12s11---------------||
|-----------------------------------------------------------|-----------------------12--(12)\--||


   Verse 1
    N.C.(B7)       (B6)             (B5)             (Bsus4)
    Gtrs II, III
         ~~~              ~~~              ~~~              ~~~
||--5------------|--4-------------|--2-------------|--0------------||
||o---0-(0)------|-(0)-0-(0)------|-(0)-0-(0)------|-(0)-0-(0)----o||
||---------------|----------------|----------------|---------------||
||---------------|----------------|----------------|---------------||
||o--------------|----------------|----------------|--------------o||
||---------------|----------------|----------------|---------------||


    Bm                      E7/B
||------------------------|---------------------|
||o-10---------------10---|-9---------------9---|
||------------------------|---------------------|
||-----9-(9)-------9------|---9-(9)-------9-----|
||o-----------------------|---------------------|
||-----------7-(7)------7-|---------7-(7)-----7-|


                       E/B
|---------0-(0)------|-----------------||
|-7-------------7----|-5--------------o||
|--------------------|-----------------||
|---9-(9)----------9-|---7-(7)-6-------||
|--------------------|-----------7----o||
|--------------------|-----------------||


    F#7                     E5
||----------------0-(0)---|---------------0-(0)---|
||o-2-------2-(2)-------2-|-0-------0-(0)-------0-|
||------------------------|-----------------------|
||----4-(4)---------------|---2-(2)---------------|
||o-----------------------|-----------------------|
||------------------------|-----------------------|


 1.
  Dsus2                        Bbsus2
|----------------------------|-------------------------||
|---------5-(5)--------------|---------1-(1)----------o||
|---------------7-(7)--------|---------------3-(3)-----||
|---7-(7)-------------7-(7)\-|---3-(3)-------3-(3)-3---||
|-5--------------------------|-1-------------------1--o||
|----------------------------|-------------------------||


  2.                                      Faster Q=162
  D11                Bb6add9              N.C.
                                         6/4
                                          Gtr III
             ~~~                ~~~
|------------------|------------------||------------------------|
|------------------|------------------||o-----------------------|
|---------0-(0)----|---------0-(0)----||------------------------|
|---4-(4)----------|---3-(3)----------||------------------------|
|-5----------------|-1----------------||o-----4----------3------|
|------------------|------------------||--0h2---2--2-0h2---2--2-|


                     ~                                               ~
|-----------------------|-----------------------|------------------------||
|-----------------------|-----------------------|-----------------------o||
|-----------------------|-----------------------|------------------------||
|-----------------------|-----------------------|------------------------||
|-----2----------1------|-----4----------3------|-----2----------1------o||
|-0h2---2--2-0h2---2-3--|-0h2---2--2-0h2---2--2-|-0h2---2--2-0h2---2-3---||


                         1.                        2.
    F#5       A5F#5       A5F#5     A5F#G5  F5     A5F#5     A5F#G5  Bb5/F
||----------------------|-----------------------||------------------------||
||o---------------------|----------------------o||------------------------||
||----------------------|-----------------------||-------------------3----||
||----------------------|-------------------3---||-------------------3----||
||o-4-4--4--4-0-4--4--4-|-0-4--4--4-0-4-5---3--o||-0-4--4--4-0-4-5---1----||
||--2-2--2--2-0-2--2--2-|-0-2--2--2-0-2-3-0-1---||-0-2--2--2-0-2-3-0-1----||


    F#5    A5F#5     A5F#5 E5  F#A5F#G5
                          4/4
    PM-----------------------------|
||-----------------------|--------------|
||o----------------------|--------------|
||-----------------------|--------------|
||-----------------------|--------------|
||o-4-4--4-0-4-4---4-0-4-|-2---4-0-4-5--|
||--2-2--2-0-2-2---2-0-2-|-0---2-0-2-3--|


  F#5    A5F#5     A5F#5 E5  F#A5F#F5 D5/A F#5    A5F#5     A5F#5
 6/4                    5/4               6/4
  PM-----------------------------|         PM-----------------|
|----------------------|-----------------|-----------------------|
|----------------------|-----------------|-----------------------|
|----------------------|--------------2--|-----------------------|
|----------------------|-----------3--0--|-----------------------|
|-4-4--4-0-4-4---4-0-4-|-2---4-0-4-3--0--|-4-4--4-0-4-4---4-0-4--|
|-2-2--2-0-2-2---2-0-2-|-0---2-0-2-1-----|-2-2--2-0-2-2---2-0-2--|


                                       1.
  A5  F#A5F#G5   F#5    A5F#5     A5F#5 A5  F#A5F#F5 D5/A
 4/4            6/4                    5/4
  PM------|      PM-----------------------------|
|--------------|----------------------|------------------|
|--------------|----------------------|--------------3---|
|--------------|----------------------|--------------2---|
|--------------|----------------------|-----------3--0---|
|-2---4-0-4-5--|-4-4--4-0-4-4---4-0-4-|-2---4-0-4-3--0---|
|-0---2-0-2-3--|-2-2--2-0-2-2---2-0-2-|-0---2-0-2-1------|


  F#5       A5F#5       A5F#5     A5F#G5  F5
 6/4
|---------------------|----------------------|
|---------------------|----------------------|
|---------------------|----------------------|
|---------------------|-------------------3--|
|-4-4--4--4-0-4--4--4-|-0-4--4--4-0-4-5---3--|
|-2-2--2--2-0-2--2--2-|-0-2--2--2-0-2-3-0-1--|


                                                 2.
  F#5       A5F5        A5F#5     A5F#G5  Bb5/F  A5  F5A5F#F5 D5/A
                                                5/4
                                                 PM------|
|---------------------|-----------------------||------------------||
|---------------------|----------------------o||--------------3---||
|---------------------|-------------------3---||--------------2---||
|---------------------|-------------------3---||-----------3--0---||
|-4-4--4--4-0-4--4--4-|-0-4--4--4-0-4-5---1--o||-0---4-0-4-3--0---||
|-2-2--2--2-0-2--2--2-|-0-2--2--2-0-2-3-0-1---||-0---2-0-2-1------||


  Half Time Q=81
  B5          (B5/A)F#11
 6/8
  Gtr III
|-----------------|---------------|
|-----------------|---------0-----|
|-4-------(4)-----|-------3---3---|
|-4-------(4)-----|-------------4-|
|-2-------(2)-0---|---4-----------|
|-----------------|-2-------------|
|
| Gtr II
|-----------------|---------------|
|----------0----0-|---------0-----|
|-------4---------|-------3---3---|
|-----4-----------|-----4-------4-|
|---2---------0---|---4-----------|
|-----------------|-2-------------|


  G5        F6add9  N.C.(E)
|-----------------|------------------------------|
|-----------------|------------------------------|
|-0-0-2p=0------0-|---4s11-11-11s13-13-13-13s9-9-|
|-0-0-0-(0)---0---|---x-----x--x-----x--x--x---x-|
|-x---------------|---2s=9--9--9s11-11-11-11s7-7-|
|-3---------1-----|-0----------------------------|
|
|-----------------|------------------------------|
|-----------------|------------------------------|
|---------------0-|------------------------------|
|-----2-------0---|------------------------------|
|---0-------------|------------------------------|
|-3---------1-----|-0----------------------------|


  B5          (B5/A)F#11            G     A11     G/B   Csus2
|-----------------|---------------|-------------|--------------------||
|-----------------|---------0-----|-------------|--------------------||
|-4-------(4)-----|-------3---3---|-------------|-----0-----0-----0--||
|-x-------(x)-----|-------------4-|-----0-----0-|---0-----0-----0----||
|-2-------(2)-0---|---4-----------|---2-----4---|-2-----3-----5------||
|-----------------|-2-------------|-3-----5-----|--------------------||
|
|-----------------|---------------|-------------|--------------------||
|----------0----0-|---------0-----|-------------|--------------------||
|-------4---------|-------3---3---|-------------|-----0-----0-----0--||
|-----4-----------|-----4-------4-|-----0-----0-|---0-----0-----0----||
|---2---------0---|---4-----------|---2-----4---|-2-----3-----5------||
|-----------------|-2-------------|-3-----5-----|--------------------||


    Double Time Q=162
    N.C.
   6/4
    Gtr III
                                               ~
||------------------------|------------------------||
||o-----------------------|-----------------------o||
||------------------------|------------------------||
||------------------------|------------------------||
||o-----4----------3------|-----2----------1------o||
||--0h2---2--2-0h2---2--2-|-0h2---2--2-0h2---2-3---||


    Q=156
    N.C.(F#)
   4/4
-----M------------------------------------------------------|
||--------------------|-------------------|--------------------|
||o-------------------|-------------------|--------------------|
||--------------------|-------------------|--------------------|
||--------------------|-------------------|--------------------|
||o------4------------|------4------------|------4-------------|
||---2-2-2--2-2-2-2---|--2-2-2--2-2-2-2---|--2-2-2--2-2-2-2----|


  1.                      2.
                  F5D5/A  N.C.(F#)      F5    D5/A
---M------------|          PM---------|
|----------------------||-----------------------||
|---------------------o||-----------------------||
|----------------------||-----------------------||
|-----------------3-0--||---------------3-(3)-0-||
|------4----------3-0-o||------4--------3-(3)-0-||
|--2-2-2--2-2-2-2------||--2-2-2--2-2-2---------||


                         1.                        2.
    F#5       A5F#5       A5F#5     A5F#G5  F5     A5F#5     A5F#G5  Bb5/F
   6/4
||----------------------|-----------------------||----------------------|
||o---------------------|----------------------o||----------------------|
||----------------------|-----------------------||-------------------3--|
||----------------------|-------------------3---||-------------------3--|
||o-4-4--4--4-0-4--4--4-|-0-4--4--4-0-4-5---3--o||-0-4--4--4-0-4-5---1--|
||--2-2--2--2-0-2--2--2-|-0-2--2--2-0-2-3-0-1---||-0-2--2--2-0-2-3-0-1--|


    N.C.(F#)
   4/4
    PM---------------------------------------------------------|
||---------------------|--------------------|--------------------|
||o--------------------|--------------------|--------------------|
||---------------------|--------------------|--------------------|
||---------------------|--------------------|--------------------|
||o-----4--------------|-----4--------------|-----4--------------|
||--2-2-2---2-2-2-2----|-2-2-2---2-2-2-2----|-2-2-2---2-2-2-2----|


  1.                        2.
                    F5D5/A  N.C.(F#)          F5    D5/A
  PM--------------|         PM--------------|
|------------------------||---------------------------||
|-----------------------o||---------------------------||
|------------------------||---------------------------||
|-------------------3-0--||-------------------3-(3)-0-||
|-----4-------------3-0-o||-----4-------------3-(3)-0-||
|-2-2-2---2-2-2-2-2------||-2-2-2---2-2-2-2-2---------||


  Half Time Q=81
  B5        B5/A  F#11            Gsus2   Fsus2   N.C.(E)
 6/8
  Gtr III
|---------------|---------------|---------------|------------------------------|
|---------0-----|---------0-----|---------------|------------------------------|
|-------4-------|-------3---3---|-----2p0---0-0-|---4s11-11-11s13-13-13s14-14--|
|-----4---------|-------------4-|---0-----3---3-|---x-----x--x-----x--x-----x--|
|-2---------0---|---4-----------|---------3---3-|---2s=9--9--9s11-11-11s12-12--|
|---------------|-2-------------|-3-------1---1-|-0----------------------------|
|
| Gtr II
|---------------|---------------|---------------|------------------------------|
|---------0---0-|---------0-----|---------------|------------------------------|
|-------4-------|-------3---3---|-------------0-|------------------------------|
|-----4---------|-----4-------4-|-----2-----0---|------------------------------|
|---2-------0---|---4-----------|---0-----------|------------------------------|
|---------------|-2-------------|-3-------1-----|-0----------------------------|


  B5        B5/A  F#11            G     A11     G/B   N.C.
|---------------|---------------|-------------|--------------------------|
|---------0-----|---------0-----|-------------|--------------------------|
|-------4-------|-------3---3---|-------------|-----0-4p2----------------|
|-----4---------|-------------4-|-----0-----0-|---0-------4p2------------|
|-2---------0---|---4-----------|---2-----4---|-2-------------4p2h4------|
|---------------|-2-------------|-3-----5-----|---------------------2-2--|
|
|---------------|---------------|-------------|--------------------------|
|---------0---0-|---------0-----|-------------|--------------------------|
|-------4-------|-------3---3---|-------------|-----0-4p2----------------|
|-----4---------|-----4-------4-|-----0-----0-|---0-------4p2------------|
|---2-------0---|---4-----------|---2-----4---|-2-------------4p2h4------|
|---------------|-2-------------|-3-----5-----|---------------------2-2--|


    Q=106
    $
    $$
   4/4
    Gtr III
                  ~~~~~~    PM|
||------------------------------|
||o-----------------------------|
||------------------------------|
||------------------------7-7---|
||o-----------------------------|
||--5b6-(5)-7-(7)-5-(5)-7-----7-|


                                        B5
  ~       ~~~~~~PM|       PM|   ~             PM|
|-----------------------------|-------------------------|
|-----------------------------|-------------------------|
|-----------------------------|-------------------------|
|-6-------6-(6)-----6h7p6-----|---------9-(9)-----9---9-|
|-----------------7-------9-7-|-9-------9-(9)-----9-9-9-|
|---7-(7)-------7-------------|---7-(7)-7-(7)-7-7-7-7---|


  1.                  2.
  E       EsusE5      E       EsusE5
            PM                  PM
|------------------||-----------------||
|-----------------o||-----------------||
|------------------||-----------------||
|---6-(6)-7---9----||-6-6-(6)-7---9---||
|-2-7-(7)-7---7---o||-7-7-(7)-7---7---||
|-0---------0------||-0---------0-----||


  F#7                     E5
|---------------0-(0)---|---------------0-(0)---|
|-2-------2-(2)-------2-|-0-------0-(0)-------0-|
|-----------------------|-----------------------|
|---4-(4)---------------|---2-(2)---------------|
|-----------------------|-----------------------|
|-----------------------|-----------------------|


  Dsus2                        Bbsus2
|----------------------------|-------------------------|
|---------5-(5)--------------|---------1-(1)-----------|
|---------------7-(7)--------|---------------3-(3)-----|
|---7-(7)-------------7-(7)\-|---3-(3)-------3-(3)-3---|
|-5--------------------------|-1-------------------1---|
|----------------------------|-------------------------|


  F#7                     E5
|---------------0-(0)---|---------------0-(0)---|
|-2-------2-(2)-------2-|-0-------0-(0)-------0-|
|-----------------------|-----------------------|
|---4-(4)---------------|---2-(2)---------------|
|-----------------------|-----------------------|
|-----------------------|-----------------------|


                                         To Coda
                                         To Coda
  D11                     Bb6add9
                                  ~~~~~~
|-----------------------|------------------------||
|-----------------------|------------------------||
|---------0-(0)---------|---------0-(0)----------||
|---4-(4)-------4-(4)---|---3-(3)-------3-(3)----||
|-5-------------------5-|-1-------------------1--||
|-----------------------|------------------------||


  Bm11        Dsus2        G6add9       Bm/E
  Gtr III
               >
|-^0--------|-(0)--------|------------|-------|
|-^0--------|-(0)--------|------------|-------|
|-^7--------|-(7)--------|------------|-------|
|-^9--------|-(9)--------|------------|-------|
|-----------|------------|------------|-------|
|-----------|------------|------------|-------|
|
| Gtr II
|-^0--------|-^5---------|-^-0--------|-^7----|
|-^0--------|-^5---------|-^-0--------|-^7----|
|-^7--------|-^7---------|-^11--------|-^9----|
|-^9--------|-^7---------|-^-9--------|-^9----|
|-----------|------------|------------|-------|
|-----------|------------|------------|-------|


  Bm11        Dsus2       G6add9       Bm/E
  Gtr II
|-^0--------|-^5--------|-^-0--------|-^7----|
|-^0--------|-^5--------|-^-0--------|-^7----|
|-^7--------|-^7--------|-^11--------|-^9----|
|-^9--------|-^7--------|-^-9--------|-^9----|
|-----------|-----------|------------|-------|
|-----------|-----------|------------|-------|


    N.C.(Bm)                  (Dsus2)
||--------------------------|-------------------------|
||o-------------------------|-------------------------|
||--11-9-(9)-11-(11)-9-11-9-|-11-9-(9)-11-(11)-9-11-9-|
||---9-9-(9)--9--(9)-9--9-9-|--9-9-(9)--9--(9)-9--9-9-|
||o-------------------------|-------------------------|
||--------------------------|-------------------------|


  (G6add9)                  (Bm/E)
|-------------------------|---------------------------||
|-------------------------|--------------------------o||
|-11-9-(9)-11-(11)-9-11-9-|-11-9-(9)-14-(14)-12-11-9--||
|--9-9-(9)--9--(9)-9--9-9-|--9-9-(9)--9--(9)--9--9-9--||
|-------------------------|--------------------------o||
|-------------------------|---------------------------||


    Gtr III
||--------------------------|-------------------------|
||o-------------------------|-------------------------|
||--11-9-(9)-11-(11)-9-11-9-|-11-9-(9)-11-(11)-9-11-9-|
||---9-9-(9)--9--(9)-9--9-9-|--9-9-(9)--9--(9)-9--9-9-|
||o-------------------------|-------------------------|
||--------------------------|-------------------------|


|-------------------------|---------------------------||
|-------------------------|--------------------------o||
|-11-9-(9)-11-(11)-9-11-9-|-11-9-(9)-14-(14)-12-11-9--||
|--9-9-(9)--9--(9)-9--9-9-|--9-9-(9)--9--(9)--9--9-9--||
|-------------------------|--------------------------o||
|-------------------------|---------------------------||


                                             3x
||-------------------------------------------||
||o-----------------------------------------o||
||--11-11-11-9-9-9-11-11-11-9-9-9-11-11-9-9--||
||---9--9--9-9-9-9--9--9--9-9-9-9--9--9-9-9--||
||o-----------------------------------------o||
||-------------------------------------------||


|--------------------------------------------|
|--------------------------------------------|
|-11-11-11-9-9-9-14-14-14-12-12-12-11-11-9-9-|
|--9--9--9-9-9-9--9--9--9--9--9--9--9--9-9-9-|
|--------------------------------------------|
|--------------------------------------------|


   TP TP TP TP TP TP TP TP   TP TP TP TP TP TP TP TP
|-------------------------|-------------------------|
|-------------------------|-------------------------|
|-11--9--9-11-11--9-11-12-|-11-12-12-14-14-11-12-14-|
|-10-10-10-10-10-10-10-10-|-12-12-12-12-12-12-12-12-|
|-------------------------|-------------------------|
|-------------------------|-------------------------|


                                        D.S. al Coda
   TP TP TP TP TP TP TP TP   TP TP TP TP TP TP TP TP
|-------------------------|--------------------------||
|-------------------------|--------------------------||
|-16-14-14-16-16-14-16-17-|-16-14-14-16-16-14-16-17--||
|-14-14-14-14-14-14-14-14-|-14-14-14-14-14-14-14-14--||
|-------------------------|--------------------------||
|-------------------------|--------------------------||


  Q=104
  &
  N.C.
  Gtr III
  PM----------------------------------------------------|
|----------------------------|-----------------------------|
|----------------------------|-----------------------------|
|----------------------------|-----------------------------|
|----------------------------|-----------------------------|
|-2-2--2-2--2-2--2-2--2-2--2-|-2--2-2--2-2--2-2--2-2--2-2--|
|-0-0--0-0--0-0--0-0--0-0--0-|-0--0-0--0-0--0-0--0-0--0-0--|


---M---------------------------------------------------|
|---------------------------|-----------------------------|
|---------------------------|-----------------------------|
|---------------------------|-----------------------------|
|---------------------------|-----------------------------|
|--2-2--2-2--2-2--2-2--2-2--|-2-2--2-2--2-2--2-2--2-2--2--|
|--0-0--0-0--0-0--0-0--0-0--|-0-0--0-0--0-0--0-0--0-0--0--|


  Gtr I
|----------------------------------------------------------------|
|-9-7----------7-9---12-9------------9-11---14-11-------------11-|
|------9-7-9---------------11-9-11-----------------13-11-13------|
|----------------------------------------------------------------|
|----------------------------------------------------------------|
|----------------------------------------------------------------|
|
| Gtr IV
|----------------------------------------------------------------|
|----------------------------------------------------------------|
|--------------------------------------------6--2--------------2-|
|-6-4----------4-6----9-6------------6--8-----------6--4--6------|
|------7-5-7----------------9-7--9-------------------------------|
|----------------------------------------------------------------|
|
| Gtr III
| PM--------------------------------------------------------|
|----------------------------------------------------------------|
|----------------------------------------------------------------|
|----------------------------------------------------------------|
|----------------------------------------------------------------|
|-2------2---2-----2--2-------2----2------2--2---------2----2----|
|-0------0---0-----0--0-------0----0------0--0---------0----0----|


|------------------------------------------------------14--------------------14-16--18-|
|-12-11---12-11-------------------14-15---17-14-15--17----17---15-14-15---17-----------|
|---------------13--11-13-15---16------------------------------------------------------|
|--------------------------------------------------------------------------------------|
|--------------------------------------------------------------------------------------|
|--------------------------------------------------------------------------------------|
|
|------------------------------------------------------------------------------------6-|
|------------------------------------------5---------5--7--5---------------5--7--9-----|
|--4--3----4--3------------3----4--6--7-------6--7--------------7--6--7----------------|
|----------------6---4--6--------------------------------------------------------------|
|--------------------------------------------------------------------------------------|
|--------------------------------------------------------------------------------------|
|
|  PM------------------------------------------------------------------------------|
|--------------------------------------------------------------------------------------|
|--------------------------------------------------------------------------------------|
|--------------------------------------------------------------------------------------|
|--------------------------------------------------------------------------------------|
|-------2-----2---------2----2----------2-----2---------2----2----------2-----2--------|
|-------0-----0---------0----0----------0-----0---------0----0----------0-----0--------|


|-16-14--------------14-16--19-16--------------16-18--21-18--------------18-|
|---------17-15-17------------------19-17-19------------------21-19-21------|
|---------------------------------------------------------------------------|
|---------------------------------------------------------------------------|
|---------------------------------------------------------------------------|
|---------------------------------------------------------------------------|
|
|---------------------------------------------------------------------------|
|--9--7---------------7--9--12--9---------------9-11--14-11--------------11-|
|----------9--7--9------------------11--9-11------------------13-11-13------|
|---------------------------------------------------------------------------|
|---------------------------------------------------------------------------|
|---------------------------------------------------------------------------|
|
|  PM------------------------------------------------------------------|
|---------------------------------------------------------------------------|
|---------------------------------------------------------------------------|
|---------------------------------------------------------------------------|
|---------------------------------------------------------------------------|
|--2----2----------2-----2---2----2----------2-----2---2----2----------2----|
|--0----0----------0-----0---0----0----------0-----0---0----0----------0----|


|-19-18--19-18---------18-16---18-16--------16-14---16-14---------14-12--14-12---------|
|--------------21---19---------------19--17---------------17---15--------------15---13-|
|--------------------------------------------------------------------------------------|
|--------------------------------------------------------------------------------------|
|--------------------------------------------------------------------------------------|
|--------------------------------------------------------------------------------------|
|
|--------------------------------------------------------------------------------------|
|-12-11--12-11---------11--9---11--9---------9--7----9--7----------7--5---7--5---------|
|--------------13---11---------------11---9----------------9----7---------------7----5-|
|--------------------------------------------------------------------------------------|
|--------------------------------------------------------------------------------------|
|--------------------------------------------------------------------------------------|
|
|  PM-----------------------------------------------------------------------------|
|--------------------------------------------------------------------------------------|
|--------------------------------------------------------------------------------------|
|--------------------------------------------------------------------------------------|
|--------------------------------------------------------------------------------------|
|--2---------2----2----------2-----2---------2----2----------2-----2---------2----2----|
|--0---------0----0----------0-----0---------0----0----------0-----0---------0----0----|


  Gtr I
|-----------------------------------------------------|
|-9-7-------7-9--12-9---------9-11--14-11----------11-|
|-----9-7-9-----------11-9-11-------------13-11-13----|
|-----------------------------------------------------|
|-----------------------------------------------------|
|-----------------------------------------------------|
|
| Gtr IV
|-----------------------------------------------------|
|-5-3-------3-5---9-5---------5--7--11--7-----------7-|
|-----5-3-5------------7-5--7--------------9--7--9----|
|-----------------------------------------------------|
|-----------------------------------------------------|
|-----------------------------------------------------|


|----------------------------------12-------12-14-12-------------14-16-18-|
|-12-11-12-11----------11-12-14-15----14-15----------15-14-15-17----------|
|-------------13-11-13----------------------------------------------------|
|-------------------------------------------------------------------------|
|-------------------------------------------------------------------------|
|-------------------------------------------------------------------------|
|
|-----------------------------------9--------9-11--9-----------9-11-12-14-|
|--9--7--9--7--------------9-10-12----10-12----------12-10-12-------------|
|--------------9--7--9-11-------------------------------------------------|
|-------------------------------------------------------------------------|
|-------------------------------------------------------------------------|
|-------------------------------------------------------------------------|


|-16-14----------14-16--19-16----------16-18--21-18----------18-|
|-------17-15-17--------------19-17-19--------------21-19-21----|
|---------------------------------------------------------------|
|---------------------------------------------------------------|
|---------------------------------------------------------------|
|---------------------------------------------------------------|
|
|-12-10----------10-12--16-12----------12-14--18-14----------14-|
|-------13-11-13--------------15-13-15--------------17-15-17----|
|---------------------------------------------------------------|
|---------------------------------------------------------------|
|---------------------------------------------------------------|
|---------------------------------------------------------------|


|-19-18-19-18-------18-16-18-16-------16-14-16-14-------14-12-14-12-------||
|-------------21-19-------------19-17-------------17-15-------------15-13-||
|-------------------------------------------------------------------------||
|-------------------------------------------------------------------------||
|-------------------------------------------------------------------------||
|-------------------------------------------------------------------------||
|
|-16-14-16-14-------------------------------------------------------------||
|-------------17-15-19-17-19-17-------17-15-17-15-------15-13-15-13-------||
|-------------------------------19-17-------------17-15-------------15-13-||
|-------------------------------------------------------------------------||
|-------------------------------------------------------------------------||
|-------------------------------------------------------------------------||


  Q.=104
 15/8
  Gtrs I, IV
|-----------------------------------||
|-12p11------12---------------------||
|-------11s9----9s8-----------------||
|-------------------9p8-----9-------||
|-----------------------9s7---7s6---||
|---------------------------------7-||


  Q=104
  E5
 4/4
|----------------------------|---------------------------||
|----------------------------|---------------------------||
|----------------------------|---------------------------||
|----------------------------|---------------------------||
|-2-2--2-2--2-2--2-2--2-2--2-|-2--2-2--2-2--2-2--2-2-----||
|-0-0--0-0--0-0--0-0--0-0--0-|-0--0-0--0-0--0-0--0-0-5s7-||


 Keyboard Solo
  Bm7                   Bm6                B5    Bsus2 B5
  Gtr I
             ~~~
|---------------------|------------------|---------------------|
|---------------------|------------------|---------------------|
|-7-------7-(7)-------|-7-------7-(7)----|-4---4h6-(6)-4-(4)---|
|-7-------7-(7)-------|-6-------6-(6)----|-4-----4-(4)-4-(4)---|
|---------------------|------------------|---------------------|
|---7-(7)---------7-7-|---7-(7)----------|-------------------0-|


  E5E6    E5            Bm7                       Bm6
|---------------------|-------------------------|------------------|
|---------------------|-(7)-------(7)-(7)-------|------------------|
|-1-2-(2)-4-(4)-------|--7---------7--(7)-------|-7-------7-(7)----|
|-2-2-(2)-2-(2)-------|--7---------7--(7)-------|-6-------6-(6)----|
|---------------------|-------------------------|------------------|
|-----------------4s7-|-----7-(7)-----------7-7-|---7-(7)----------|


  B5    Bsus2 B5        E5E6    E5            Bm7
                                                  PM  PM|    ~~~  PM|
|---------------------|---------------------|--------------------------|
|---------------------|---------------------|--------------------------|
|-4---4h6-(6)-4-(4)---|-1-2-(2)-4-(4)-------|-7-7---7-----7-(7)--------|
|-4-----4-(4)-4-(4)---|-2-2-(2)-2-(2)-------|-7-7---7-----7-(7)--------|
|---------------------|---------------------|--------------------------|
|-------------------0-|-----------------4s7-|-----7---7-7---------7-7--|


  E/B                       B5
      PM  PM|         PM|         PM|           PM|
|-------------------------|-------------------------|
|-9-9---9-----9-(9)-------|-------------------------|
|-9-9---9-----9-(9)-------|-11-11-----11-(11)-------|
|-9-9---9-----9-(9)-------|--9--9------9--(9)-------|
|-------------------------|-------------------------|
|-----7---7-7---------7-7-|-------7-7-----------7-7-|


  E5
             PM        PM|
|---------------------------|
|---------------------------|
|-9-9-9-9-9----9-(9)--------|
|-9-9-9-9-9----9-(9)--------|
|-7-7-7-7-7----7-(7)--------|
|------------0---------7-7--|


  Bm7                     E5/B
  Gtr I
        PM|    ~~~  PM|       PM  PM|    ~~~  PM|
|-----------------------|-------------------------|
|-----------------------|-------------------------|
|-7-7-7-----7-(7)-------|-9-9---9-----9-(9)-------|
|-7-7-7-----7-(7)-------|-9-9---9-----9-(9)-------|
|-----------------------|-------------------------|
|-------7-7---------7-7-|-----7---7-7---------7-7-|
|
| Gtr IV
|-----------------------|-------------------------|
|-----------------------|-------------------------|
|-----------------------|-------------------------|
|-----------------------|-------------------------|
|-----------------------|-------------------------|
|-----------------------|-------------------------|


         PM    PM|           PM|                    PM
|--------------------------------|--------------------------------||
|--------------------------------|-(9)-(9)-(9)-(9)----9-(9)-------||
|-11-11-----11-----11-(11)-------|--9---9---9---9-----9-(9)---4-4-||
|--9--9------9------9--(9)-------|--9---9---9---9-----9-(9)---4-4-||
|--------------------------------|--7---7---7---7-----7-(7)---2---||
|-------(7)----7-7-----------0-0-|------------------0-------------||
|
|--------------------------------|--------------------------------||
|--------------------------------|--------------------------------||
|--------------------------------|--------------------------------||
|--------------------------------|------------------------------9-||
|--------------------------------|--------------------------------||
|--------------------------------|--------------------------------||


 Guitar Solo
  B5
  Gtr I
  |
  /

  Gtr IV
  ~                   PM
|-------------------------------------------|
|-------------------------------------------|
|-7---9b11==(9)r(9)p7---7-9b11==(9)r(9)p7h9p|
|-------------------------------------------|
|---------------------9---------------------|
|-------------------------------------------|


  D5/A                               G5
  |                                   |
  /                                   /

  ~                 PM| ~ PM|         ~~~
|-----------------------------|------------------------------------|
|-----------------------------|-8b10-(8)--(8)\-----8-----7-----5s7-|
|-7---9b10==(9)r(9)-----7-----|------------------------------------|
|-------------------0-0---0-0-|----------------5s9---9s7---7s5-----|
|-----------------------------|------------------------------------|
|-----------------------------|------------------------------------|


  E5
  |
  /

  ~ PM                   ~~
|-------------------------------------------|
|-5---------------14-15-14-15-(15)----17----|
|-----------14-16------------------14-------|
|---0-14-16------------------------------14-|
|---0---------------------------------------|
|-------------------------------------------|


  B5/F#
   |
   /

          ~~~~
|-------------------------------------7--------|
|------------14-15-----------9b10-(9)---10-9-8-|
|-16b18-(16)-------16-(16)s7-------------------|
|----------------------------------------------|
|----------------------------------------------|
|----------------------------------------------|


  D5/A
  |
  /

                     ~~~PM
|-------------------------------------------|
|-7-----------------------------------------|
|---10-9-8-7---9b11-(9)---7h9p7s6-----------|
|------------7--------------------7-----7p5-|
|-----------------------0-----------7-5-----|
|-------------------------------------------|


  G5
  |
  /

|--------------------------------------------------------------------------|
|--------------------------------------------------------------------------|
|-----4-7s9-6-----------7-11s12-9---------------11-14s16-12----------------|
|-4-5---------7-5s6s7h9-----------11-10-9-11s12-------------14-12-14h16----|
|--------------------------------------------------------------------------|
|--------------------------------------------------------------------------|


  E5
   |
   /

|----------14-17p16-17p16-14-------------------------------------|
|-------14-------------------17-15-14----------------------------|
|-14-16-------------------------------16-14-13-------------------|
|----------------------------------------------14----------------|
|-------------------------------------------------16-14----------|
|-------------------------------------------------------0h4s(12)-|


  F#5
   |
   /

|-------------------------------------------------------------------------|
|-15-14-15-14-------15-14-15-14-------15-14-15-14-------15-14-15-14-------|
|-------------16-14-------------16-14-------------16-14-------------16-14-|
|-------------------------------------------------------------------------|
|-------------------------------------------------------------------------|
|-------------------------------------------------------------------------|


  G5III
   |
   /

|-------------------------------------------------------------------------|
|-17-14-17-14-------17-14-17-14-------19-14-19-14-------19-14-19-14-------|
|-------------16-14-------------16-14-------------16-14-------------16-14-|
|-------------------------------------------------------------------------|
|-------------------------------------------------------------------------|
|-------------------------------------------------------------------------|


  A5
   |
   /

|-17-15-14-12-14-15-14-12----------------------------------------------------------------|
|-------------------------15-14-12-10-12-14-12-10----------------------------------------|
|-------------------------------------------------12-11-9-7-9-11-9-7---------------------|
|--------------------------------------------------------------------11-9-7-9-11-9-7-----|
|------------------------------------------------------------------------------------10--|
|----------------------------------------------------------------------------------------|


  B5
  |
  /

|-----------------------------------------------------10-14-------10-14-|
|-----------------------------------------10-14-------------10h12-------|
|-----------------11-14-------11-14-11-12-------11-12-------------------|
|------9-12-11-12-------11-12-------------------------------------------|
|-9-10------------------------------------------------------------------|
|-----------------------------------------------------------------------|


  C5/G
   |
   /

                          ~~
|-15-14b15==(14)r(14)------------14-15-|
|---------------------15-13---17-------|
|--------------------------------------|
|--------------------------------------|
|--------------------------------------|
|--------------------------------------|


  D5/AV                                     E5/B
   |                                      |  |
   /                                      /  /

                                          ~~
|-17p15s14----------------------------------12-|
|----------15-------15-------------------------|
|-------------14s12----12s11----------11-14----|
|----------------------------12----12----------|
|-------------------------------14-------------|
|----------------------------------------------|


   |
   /

|------------12-------15b16-(15)-12----12h16p12-------------------------------|
|-15b17-(15)----15p12---------------15----------15-12-------15-12-------------|
|-----------------------------------------------------14-13-------14-13-------|
|-----------------------------------------------------------------------14-12-|
|-----------------------------------------------------------------------------|
|-----------------------------------------------------------------------------|


                                                                                 D.S.S. al Dbl. Coda
  E5
   |
   /

|-------------------------------------------------12h16p12----------------------16h19p16---------------||
|----------------------------------------------12----------12----------------17----------17------------||
|-14-13-------------------------------------13----------------13----------16----------------16---------||
|-------14-12-------14-12----------------14----------------------14----18----------------------18------||
|-------------14-12-------14-12-11----14----------------------------19----------------------------x----||
|----------------------------------12---------------------------------------------------------------16-||


                 Outro
  Q.=106          Q=135
  &&
  N.C.            B5        B5/A    F#11              G5          Fsus2
 6/8             4/4
  Gtr I           Gtr II
|-------------||------------------|-----------------|--------------------|
|-------------||o-------0---------|-0-------0-------|--------------------|
|-------------||------4---4-----4-|-----------3-----|-----2p0-(0)-----0--|
|-4---0-2-----||----4---------4---|-------4-----4---|---0-----------0----|
|---4-----4---||o-2---------0-----|-----4-----------|--------------------|
|-----------2-||------------------|---2-----------2-|-3-----------1------|


      E5             D11   Bb6   Asus2     B5        B5/A    F#11
                    5/4                   4/4
|-----------0------|-----------------0---|-----------------|------------------|
|-------------0----|-------------------0-|-------0---------|-0-------0--------|
|-(0)--------------|-----0-----0---------|-----4---4-----4-|-----------3------|
|---------2--------|---4-----0-----2-----|---4---------4---|-------4-----4----|
|-------2----------|-5-----1-----0-------|-2---------0-----|-----4------------|
|-----0----------0-|---------------------|-----------------|---2-----------2--|


  G5          Fsus2       E5             G     A11   Csus2
                                        5/4
|-------------------|-----------0------|----------------------||
|-------------------|-------------0----|---------------------o||
|-----2p0-(0)-----0-|-(0)--------------|-----------------0----||
|---0-----------0---|---------2--------|-----0-----0---0------||
|-------------------|-------2----------|---2-----4---3-------o||
|-3-----------1-----|-----0----------0-|-3-----5--------------||


    B5          B5/A    F#11                G5         Fsus2
   4/4
    Gtr I
||--------------------|-------------------|------------------|
||o--------0----------|-0--------0--------|------------------|
||-------4----4-----4-|-------------3-----|-----2p0-(0)----0-|
||-----4----------4---|-------4-------4---|---0----------0---|
||o--2----------0-----|-----4-------------|------------------|
||--------------------|---2-------------2-|-3----------1-----|
|
|   Gtr III
|          PM       PM                            PM       PM
||--------------------|-------------------|------------------|
||o-------------------|-------------------|------------------|
||--11-------11s9-----|-9s6-----(6)-------|-7--------7s5-----|
||---9--------9s7-----|-7s4-----(4)-------|-5--------5s3-----|
||o--9-----9--9s7---7-|-7s4-----(4)-------|-5-----5--5s3---3-|
||--------------------|-------------------|------------------|


     E5                D11    Bb6       Asus2
                      5/4
|----------0---------|----------------------0---|
|------------0-------|------------------------0-|
|-(0)----------------|------0---------0---------|
|--------2-----------|----4--------0------2-----|
|------2-------------|--5------1--------0-------|
|----0-----------0---|--------------------------|
|
|        PM
|--------------------|--------------------------|
|--------------------|--------------------------|
|--5s4-----4----(4)/-|-14-----10-(10)---9---9---|
|--3s2-----2----(2)/-|-12------8--(8)---7---7---|
|--3s2---2-----------|-12------8--(8)---7---7-7-|
|--------------------|--------------------------|


  B5          B5/A    F#11
 4/4
|-------------------|--------------------|
|--------0----------|-0--------0---------|
|------4----4-----4-|-------------3------|
|----4----------4---|-------4-------4----|
|--2----------0-----|-----4--------------|
|-------------------|---2-------------2--|
|
|        PM       PM
|-------------------|--------------------|
|-------------------|--------------------|
|-11-------11s9-----|-9s6-----(6)--------|
|--9--------9s7-----|-7s4-----(4)--------|
|--9-----9--9s7---7-|-7s4-----(4)--------|
|-------------------|--------------------|


  G5         Fsus2      E5                G     A11     Csus2
                                         5/4
|------------------|----------0---------|-------------------------||
|------------------|------------0-------|------------------------o||
|-----2p0-(0)----0-|-(0)----------------|--------------------0----||
|---0----------0---|--------2-----------|-----0-------0----0------||
|------------------|------2-------------|---2------4-----3-------o||
|-3----------1-----|----0-----------0---|-3-----5-----------------||
|
|       PM       PM         PM
|------------------|--------------------|-------------------------||
|------------------|--------------------|------------------------o||
|-7--------7s5-----|--5s4-----4----(4)/-|-7-----9-(9)---12--------||
|-5--------5s3-----|--3s2-----2----(2)/-|-5-----7-(7)---10--------||
|-5-----5--5s3---3-|--3s2---2-----------|-5-----7-(7)---10-------o||
|------------------|--------------------|-------------------------||


  B5          B5/A    F#11                G5         Fsus2
 4/4
|-------------------|-------------------|------------------|
|--------0----------|-0--------0--------|------------------|
|------4----4-----4-|-------------3-----|-----2p0-(0)----0-|
|----4----------4---|-------4-------4---|---0----------0---|
|--2----------0-----|-----4-------------|------------------|
|-------------------|---2-------------2-|-3----------1-----|
|
|        PM       PM                            PM       PM
|-------------------|-------------------|------------------|
|-------------------|-------------------|------------------|
|-11-------11s9-----|-9s6-----(6)-------|-7--------7s5-----|
|--9--------9s7-----|-7s4-----(4)-------|-5--------5s3-----|
|--9-----9--9s7---7-|-7s4-----(4)-------|-5-----5--5s3---3-|
|-------------------|-------------------|------------------|


     E5                D11    Bb6       Asus2
                      5/4
|----------0---------|----------------------0---*|
|------------0-------|------------------------0-*|
|-(0)----------------|------0---------0---------*|
|--------2-----------|----4--------0------2-----*|
|------2-------------|--5------1--------0-------*|
|----0-----------0---|--------------------------*|
|
|        PM
|--------------------|--------------------------*|
|--------------------|--------------------------*|
|--5s4-----4----(4)/-|-14-----10-(10)---9---9---*|
|--3s2-----2----(2)/-|-12------8--(8)---7---7---*|
|--3s2---2-----------|-12------8--(8)---7---7-7-*|
|--------------------|--------------------------*|


Tablature Legend
----------------
 h   - hammer-on
 p   - pull-off
 b   - bend
 pb  - pre-bend
 r   - bend release (if no number after the r, then release immediately)
 /\  - slide into or out of (from/to "nowhere")
 s   - legato slide
 S   - shift slide
<n>  - natural harmonic
[n]  - artificial harmonic
n(n) - tapped harmonic
 ~   - vibrato
 tr  - trill
 T   - tap
 TP  - trem. picking
 PM  - palm muting
\n/  - tremolo bar dip; n = amount to dip
 \n  - tremolo bar down
 n/  - tremolo bar up
/n\  - tremolo bar inverted dip
 =   - hold bend; also acts as connecting device for hammers/pulls
 <>  - volume swell (louder/softer)
 x   - on rhythm slash represents muted slash
 o   - on rhythm slash represents single note slash

Misc Legend
-----------
 |  - bar
||  - double bar
||o - repeat start
o|| - repeat end
*|  - double bar (ending)
 :  - bar (freetime)
 $  - Segno
 &  - Coda
Tempo markers - <E/E./Q/Q./H/H.> = BPM(8/16=s8/s16), where s8 = swing 8ths, s16 = swing 16ths
comments
We did not receive enough feedback on this tab! Please rate:
print report bad tab
1 2 3 4 5
I want to post or [tab]
guest
You may want to rate the tab now too:
select rating
Please do not post tabs as comments. Select "correction" instead!