Oops, an error
Loading. Please wait.

Six Degrees Of Inner Turbulence Tab

ver1
ver1

Album

Interactive

More versions @911Tabs.com
14,973 views 21 this week
2 commentsread comments
1 2 3 4 5
excellent!
x 4
Autoscroll
+/-
esc
set tempo
stop
Contributor
Difficulty
advanced
WARNING: You are trying to view
                                    content from Ultimate-Guitar.com
                                    in an unauthorized application,
                                    which is prohibited.

                                    Please use an official Ultimate
                                    Guitar Tabs application for iPhone,
                                    iPad or Android to access legitimate
                                    chords, guitar, bass, and drum tabs
                                    from Ultimate-Guitar.com database.

                                    Type "ultimate guitar tabs" in Apple
                                    App Store's or Android Market's
                                    search to find the application.
Band - Dream Theater
Album - Six Degrees Of Inner Turbulence

Track Listings:
Disc 1:
1. The Glass Prison.....................sav2k2000
2. Blind Faith..........................Iron Pete
3. Misunderstood........................unregistered
4. The Great Debate.....................Iron Pete
5. Disappear............................Nemmet
Disc 2:
1. Six Degrees Of Inner Turbulence: Overture...N/A
2. About To Crash.......................Andrew Zara
3. War Inside My Head...................Andrew Zara
4. The Test That Stumped Them All.......Andrew Zara
5. Goodnight Kiss.......................Andrew Zara
6. Solitary Shell.......................jboesch26
7. About To Crash (Reprise).............N/A
8. Losing Time/Grand Finale.............N/A

--------------------------------------------------------------------

1. THE GLASS PRISON
Tuning - B,E,A,D,G,B,E (7-String)

(8 measures bass)

 (0:49) guitars 1 & 2
|----------------|----------------|----------------|----------------|
|----------------|----------------|----------------|----------------|
|----------------|----------------|----------------|----------------|
|----------------|----------------|----------------|----------------|
|2---------------|(2)---------2-2-|2---------------|2-----2-----2---|
|2---------------|(2)---------2-2-|2---------------|2-----2-----2---|
|0---------------|(0)---------0-0-|0---------------|0-----0-----0---|


|----------------|------------------|----------------|----------------|
|----------------|------------------|----------------|----------------|
|----------------|------------------|----------------|----------------|
|----------------|------------------|----------------|----------------|
|----2-----------|__3__-------------|----2-----------|(2)-------------|
|----2-----------|4-4-4-4-----5-5---|----2-----------|(2)-------------|
|----0-----------|2-2-2-2-----3-3---|----0-----------|(0)----/21^~~~~\|


|--------------------------------|--------------------------------|
|--------------------------------|--------------------------------|
|--------------------------------|--------------------------------|
|--------------------------------|--------------------------------|
|--------5-------4---------------|----2-----------2-----------2---|
|---/7-------7-------5-------5---|3-------3---4-------4---5-------|
|0-----------------------0-------|--------------------------------|


|--------------------------------|--------------------------------|
|--------------------------------|--------------------------------|
|--------------------------------|--------------------------------|
|--------------------------------|--------------------------------|
|--------5-------4---------------|----2-----------2---------------|
|---/7-------7-------5-------5---|3-------3---4-------4-------4---|
|0-----------------------0-------|------------------------3-------|


|--------------------------------|--------------------------------|
|--------------------------------|--------------------------------|
|--------------------------------|--------------------------------|
|--------------------------------|--------------------------------|
|--------5-------4---------------|----2-----------2-----------2---|
|---/7-------7-------5-------5---|3-------3---4-------4---5-------|
|0-----------------------0-------|--------------------------------|


|--------------------------------|--------------------------------|
|--------------------------------|--------------------------------|
|--------------------------------|--------------------------------|
|--------------------------------|--------------------------------|
|--------5-------4---------------|----2-----------2---------------|
|---/7-------7-------5-------5---|3-------3---4-------4-----------|
|0-----------------------0-------|------------------------3 p.h.~-|


|--------------------------------|--------------------------------|
|--------------------------------|--------------------------------|
|--------------------------------|--------------------------------|
|--------------------------------|--------------------------------|
|--------5-------4---------------|----2-----------2-----------2---|
|---/7-------7-------5-------5---|3-------3---4-------4---5-------|
|0-----------------------0-------|--------------------------------|


|--------------------------------|--------------------------------|
|--------------------------------|--------------------------------|
|--------------------------------|--------------------------------|
|--------------------------------|--------------------------------|
|--------5-------4---------------|----2-----------2---------------|
|---/7-------7-------5-------5---|3-------3---4-------4-------4---|
|0-----------------------0-------|------------------------3-------|


|--------------------------------|--------------------------------|
|--------------------------------|--------------------------------|
|--------------------------------|--------------------------------|
|--------------------------------|--------------------------------|
|--------9-------7---------------|----5-----------7-------4---5---|
|---/10------10------9-------9---|7-------7---7-------7-----------|
|0-----------------------0-------|--------------------------------|
-divisi
|--------------------------------|--------------------------------|
|--------------------------------|--------------------------------|
|--------------------------------|--------------------------------|
|--------------------------------|--------------------------------|
|--------5-------4---------------|----2-----------2-----------2---|
|---/7-------7-------5-------5---|3-------3---4-------4---5-------|
|0-----------------------0-------|--------------------------------|



|--------------------------------|--------------------------------|
|--------------------------------|--------------------------------|
|--------------------------------|--------------------------------|
|--------------------------------|----------------------------6-\-|
|--------9-------7---------------|----5-----------7-------5-------|
|---/10------10------9-------9---|7-------7---7-------7-----------|
|0-----------------------0-------|--------------------------------|
-                ritard..........
|--------------------------------|--------------------------------|
|--------------------------------|--------------------------------|
|--------------------------------|--------------------------------|
|--------------------------------|--------------------------------|
|--------5-------4---------------|----2-----------2---------------|
|---/7-------7-------5-------5---|3-------3---4-------4-------4-\-|
|0-----------------------0-------|------------------------3-------|


  4/4                              2/4
||--------------------------------|----------------|
||--------------------------------|----------------|
||.-------------------------------|----------------|
||--------------------------------|----------------|
||.-------------------------------|----------------|
||2-------2---------------5---2---|--------5---2---|
||0-------0-----------0-0-3---0---|----0-0-3---0---|


 4/4                              3/4
|--(notes marked w/ "*" played---|divisi (w/ wah)---------||
|--2nd, 4th, and 6th times only)-|--*-------*-------*-----||
|--------------------------------|7-7-----7-7-----7-7----.||
|--------------------------------|----9-------9-------9---||
|--------------------------------|5-------5-------5------.||
|--------5---2-----------5---7---|----7-------7-------7---|| riff A
|----0-0-3---0---5 / 7-----------|------------------------|| 6x


  (2:12) drums superimpose 7/4 feel
||--------------------------------|--------------------------------|
||--------------------------------|--------------------------------|
||.-------------------------------|--------------------------------|
||--------------------------------|--------------------------------|
||.-------------------------------|--------------------------------|
||--------------------------------|--------------------------------|
||3-2-0---0---3-2-0---0---0-0-0---|3-2-0---0---0-0-0---0---0-0-0---|

                                  2/4
|--------------------------------|----------------||
|--------------------------------|----------------||
|--------------------------------|---------------.||
|--------------------------------|----------------||
|--------------------------------|---------------.||
|--------------------------------|----------------||
|3-2-0---0---3-2-0---0---0-0-0---|5-3-0---6-5-0---|| rhythm figure 1


 (2:22) w/ rhythm figure 1 (2x)
|19-14----------14-19-14----------14-19-14-------|
|------15----15----------15----15----------15----|
|---------16----------------16----------------16-|
|gtr 3-------------------------------------------|
|------------------------------------------------|
|------------------------------------------------|
|------------------------------------------------|


|18-15----------------15-17-14----------------14-|
|------17----------17----------16----------16----|
|---------18-15-18----------------17-14-17-------|
|------------------------------------------------|
|------------------------------------------------|
|------------------------------------------------|
|------------------------------------------------|


|15-12----------12-15-12----------12-15-12-------|
|------12----12----------12----12----------12----|
|---------12----------------12----------------12-|
|------------------------------------------------|
|------------------------------------------------|
|------------------------------------------------|
|------------------------------------------------|


|13-9----------------9-|
|-----12----------12---|
|--------13-10-13------|
|----------------------|
|----------------------|
|----------------------|
|----------------------|


|14-10----------10-14-10----------10-14-10-------|
|------12----12----------12----12----------12----|
|---------11----------------11----------------11-|
|------------------------------------------------|
|------------------------------------------------|
|------------------------------------------------|
|------------------------------------------------|


|13-10----------------10-12-9---------------9-|
|------12----------12---------11---------11---|
|---------13-10-13---------------12-9-12------|
|---------------------------------------------|
|---------------------------------------------|
|---------------------------------------------|
|---------------------------------------------|


|10-7-------7-10-7-------7-10-7-----|
|-----8---8--------8---8--------8---|
|-------7------------7------------7-|
|-----------------------------------|
|-----------------------------------|
|-----------------------------------|
|-----------------------------------|


|-------------------21-24-|
|-------------17-17-------|
|----------18-------------|
|-------19----------------|
|----19-------------------|
|/17----------------------|
|-------------------------|


|22-17----------17-22-17----------17-22-17-------|
|------18----18----------18----18----------18----|
|---------19----------------19----------------19-|
|------------------------------------------------|
|------------------------------------------------|
|------------------------------------------------|
|------------------------------------------------|
-
|------------------------------------------------|
|------------------------------------------------|
|divisi------------------------------------------|
|------------------------------------------------|
|8--7--5-----5-----8--7--5-----5-----5--5--5-----|
|------------------------------------------------|rhythm figure 2
|6--5--3-----3-----6--5--3-----3-----3--3--3-----|<<play 3x


|21-18----------------18-20-17----------------17-|
|------20----------20----------19----------19----|
|---------21-18-21----------------20-17-20-------|
|------------------------------------------------|
|------------------------------------------------|
|------------------------------------------------|
|------------------------------------------------|


|18-15----------15-18-15----------15-18-15-------|
|------15----15----------15----15----------15----|
|---------15----------------15----------------15-|
|------------------------------------------------|
|------------------------------------------------|
|------------------------------------------------|
|------------------------------------------------|


|16-12-------19-16-------|
|------15-12-------17-15-|
|------------------------|
|------------------------|
|------------------------|
|------------------------|
|------------------------|
-
|------------------------|
|------------------------|
|------------------------|
|------------------5-----|
|8--7--5-----7--8--------|
|------------------3-----|
|6--5--3-----5--6--------|


 rhythm guitars repeat previous 4 measures
|17-13----------13-17-13----------13-17-13-------|
|------15----15----------15----15----------15----|
|---------14----------------14----------------14-|
|------------------------------------------------|
|------------------------------------------------|
|------------------------------------------------|
|------------------------------------------------|


|16-13----------------13-15-12----------------12-|
|------15----------15----------14----------14----|
|---------16-13-16----------------15-12-15-------|
|------------------------------------------------|
|------------------------------------------------|
|------------------------------------------------|
|------------------------------------------------|


|13-10----------10-13-10----------10-13-10-------|
|------11----11----------11----11----------11----|
|---------10----------------10----------------10-|
|------------------------------------------------|
|------------------------------------------------|
|------------------------------------------------|
|------------------------------------------------|


|15-12-------20-15-------|
|------13----------17----|
|---------12----------17-|
|------------------------|
|------------------------|
|------------------------|
|------------------------|


|21-16----------16-21-16----------16-21-16-------|
|------17----17----------17----17----------17----|
|---------18----------------18----------------18-|
|------------------------------------------------|
|------------------------------------------------|
|------------------------------------------------|
|------------------------------------------------|
-
|------------------------------------------------|
|------------------------------------------------|
|------------------------------------------------|
|------------------------------------------------|
|7--5--4-----4-----7--5--4-----4-----4--4--4-----|
|------------------------------------------------|rhythm figure 3
|5--3--2-----2-----5--3--2-----2-----2--2--2-----|<<play 3x


|20-17----------------17-19-16----------------16-|
|------19----------19----------18----------18----|
|---------20-17-20----------------19-16-19-------|
|------------------------------------------------|
|------------------------------------------------|
|------------------------------------------------|
|------------------------------------------------|


|17-14----------14-17-14----------14-17-14-------|
|------14----14----------14----14----------14----|
|---------14----------------14----------------14-|
|------------------------------------------------|
|------------------------------------------------|
|------------------------------------------------|
|------------------------------------------------|


|15-11-------18-15-------|
|------14-11-------16-14-|
|------------------------|
|------------------------|
|------------------------|
|------------------------|
|------------------------|
-
|------------------------|
|------------------------|
|------------------------|
|------------------------|
|7--5--4-----5--7--8-----|
|------------------------|
|5--3--2-----3--5--6-----|


 rhythm guitars repeat previous 4 measures
|16-12----------12-16-12----------12-16-12-------|
|------14----14----------14----14----------14----|
|---------13----------------13----------------13-|
|------------------------------------------------|
|------------------------------------------------|
|------------------------------------------------|
|------------------------------------------------|


|15-12----------------12-14-11----------------11-|
|------14----------14----------13----------13----|
|---------15-12-15----------------14-11-14-------|
|------------------------------------------------|
|------------------------------------------------|
|------------------------------------------------|
|------------------------------------------------|


|12-9---------9-12-9---------9-12-9------|--------------------|
|-----10---10--------10---10--------10---|----------8-9-10-11-|
|--------9--------------9--------------9-|8-9-10-11-----------|
|----------------------------------------|--------------------|
|----------------------------------------|--------------------|
|----------------------------------------|--------------------|
|----------------------------------------|--------------------|


 6/4
|gtr 3-------------------------------------------|
|12\---------------------------------------------|
|------------------------------------------------|
|------------------------------------------------|
|gtr 1-------------------------------------------|
|8-7---------7-5-----------------8-7-------------|
|----0---0-------0---7-6-0---0-------0---0---0---|


|------------------------------------------------|
|------------------------------------------------|
|------------------------------------------------|
|------------------------------------------------|
|------------------------------------------------|
|8-7---------7-5-----------------8-7-------------|
|----0---0-------0---7-6-0---0-------0---0---0---|
                     gtr 2 (7th string): 15\

 (2:56)
|------------------------------------------------|
|gtrs 1 & 2 -------------------------------------|
|------------------------------------------------|
|------------------------------------------------|
|------------------------------------------------|
|8-7---------7-5-----------------8-7-------------|
|----0---0-------0---7-6-0---0-------0---0---0---| Start Riff B


|------------------------------------------------|
|------------------------------------------------|
|------------------------------------------------|
|------------------------------------------------|
|------------------------------------------------|
|8-7---------7-5-----------------8-7-------------|
|----0---0-------0---7-6-0---0-------0---0---6-7-|


|------------------------------------------------|
|------------------------------------------------|
|------------------------------------------------|
|------------------------------------------------|
|------------------------------------------------|
|8-7---------7-5-----------------8-7-------------|
|----0---0-------0---7-6-0---0-------0---0---0---|


|------------------------------------------------|
|------------------------------------------------|
|------------------------------------------------|
|------------------------------------------------|
|------------------------------------------------|
|8-7---------7-5---------------------5-8-7-5-----|
|----0---0-------0---7-6-0---0---5-6---------6-5-| End Riff B


  (3:04) Verse
||------------------------------------------------|
||------------------------------------------------|
||.-----------------------------------------------|
||------------------------------------------------|
||.-----------------------------------------------|
||8-7---------8-7-----5-7---------8-7-------------|
||----0---0-------0-------0---0-------0---0---0---|


|------------------------------------------------||
|------------------------------------------------||
|-----------------------------------------------.||
|------------------------------------------------||
|-----------------------------------------------.||
|8-7---------8-7-----8-7---------8-7-------------||
|----0---0-------0-------0---0-------0---0---0---||


||------------------------------------------------|
||------------------------------------------------|
||.-----------------------------------------------|
||------------------------------------------------|
||.-----------------------------------------------|
||8-7---------5-7-----8-7---------5-7-------------|
||----0---0-------0-------0---0-------0---0---0---|

0
|------------------------------------------------||
|------------------------------------------------||
|-----------------------------------------------.||
|------------------------------------------------||
|-----------------------------------------------.||
|5-7---------8-7-----8-7---------8-7-------------||
|----0---0-------0-------0---0-------0---0---0---||


||------------------------------------------------||
||------------------------------------------------||
||.----------------------------------------------.||
||.-----------------------------------------------||
||8-7-5---5---8-7-5---8-7-5---5---8-7-5---5---5--.||
||divisi------------------------------------------||
||6-5-3---3---6-5-3---6-5-3---3---6-5-3---3---3---|| 4x


||------------------------------------------------||
||------------------------------------------------||
||.----------------------------------------------.||
||.-----------------------------------------------||
||7-5-4---4---7-5-4---7-5-4---4---7-5-4---4---4--.||
||------------------------------------------------||
||5-3-2---2---5-3-2---5-3-2---2---5-3-2---2---2---|| 4x


(Riff A 4x)

(Rhythm Figure 1 4x)

(Rhythm Figure 2 3x)

 2/4
|------------------------|
|------------------------|
|------------------------|
|------------------5-----|
|8--7--5-----7--8--------|
|------------------3-----|
|6--5--3-----5--6--------|

(Rhythm Figure 2 3x)

 2/4
|------------------------|
|------------------------|
|____3____---____3____---|
|--------------------5---|
|8---7---5---7---8-------|
|--------------------3---|
|6---5---3---5---6-------|

(Rhythm Figure 3 3x)

 2/4
|------------------------|
|------------------------|
|------------------------|
|------------------------|
|7--5--4-----5--7--8-----|
|------------------------|
|5--3--2-----3--5--6-----|

(Rhythm Figure 3 3x)

|------------------------------------------|
|------------------------------------------|
|------------------------___3___--___3___--|
|---------------------------------------2--|
|7--5--4-----5--7--8-----5--4--2--4--5-----|
|------------------------------------------|
|5--3--2-----3--5--6-----3--2--0--2--3--5--|


 (4:36)
|----------------|----------------|----------------|--------0-------|
|----0-----------|0---------------|----0-----------|--------0-------|
|----------------|----------------|----------------|----------------|
|----------------|----------------|----------------|----------------|
|------2-----0---|--5-----2-0-----|------2-----0-2-|(2)-------------|
|2---------------|------------0-5-|2-------------0-|(0)-------------|
|----------------|----------------|----------------|----------------|


|----------------|----------------|----------------|----------------|
|----0-----------|0---------------|----0-----------|------3---------|
|----------------|----------------|----------------|------2---------|
|----------------|----------------|----------------|------0---------|
|------2-----0---|--5----\2-0-----|------2---------|----------------|
|2---------------|------------0-5-|2----------\4-0-|----------------|
|----------------|----------------|----------------|3----(3)--------|


|----------------|----------------|----------------|----------------------|
|----0-----------|0---------------|----0-----------|----------------------|
|----------------|----------------|----------------|----------------------|
|----------------|----------------|----------------|----------------------|
|------2-----0---|--5-----2-0-----|------2-----0-2-|----------------------|
|2---------------|------------0-5-|2-------------0-|-<5>-<4>-<3.2>-<2.4>--|
|----------------|----------------|----------------|----------------------|


|----------------|----------------|----------------|
|----0-----------|0---------------|----0-----------|
|----------------|----------------|----------------|
|----------------|----------------|----------------|
|------2-----0---|--5----\2-0-----|5-----2-----0---|
|2---------------|------------0-5-|2---------------|
|----------------|----------------|----------------|


|----------------|----------------|----------------|----------------|
|----------------|----------------|----------------|----------------|
|----0-----------|0---------------|----0-----------|------0---------|
|----------------|----------------|----------------|----------------|
|----------------|--1-------------|----------------|----3-----------|
|------3-----1---|--------3-1---1-|------3-----1---|----------------|
|3---------------|------------1---|3-------------1-|(1)-------------|


|----------------|----------------|----------------|----------------|
|----------------|----------------|----------------|----------------|
|----0-----------|0---------------|----0-----------|----------------|
|----------------|----------------|----------------|----------------|
|----------------|--1-------------|-----------8-7--|----------------|
|------3-----1---|--------3-1---1-|------3-------8-|6---8-6---------|
|3---------------|------------1---|3---------------|-----------/x\--|


|----------------|----------------|----------------|----------------|
|----------------|----------------|----------------|----------------|
|----0-----------|0---------------|----0-----------|------0---------|
|----------------|----------------|----------------|----------------|
|----------------|--1-------------|----------------|----3-----------|
|------3-----1---|--------3-1---1-|------3-----1---|----------------|
|3---------------|------------1---|3-------------1-|(1)-------------|


|----------------|----------------|----------------|----------------|
|----------------|----------------|----------------|----------------|
|----0-----------|0---------------|----0-----------|----------------|
|----------------|----------------|----------------|----------------|
|----------------|--1-------------|-----------8-7--|------------12\-|
|------3-----1---|--------3-1---1-|------3-------8-|6-8-5-3---/-----|
|3---------------|------------1---|3---------------|----------------|


 2/4       4/4
|---------|--------|--------|-----------------|----------------|
|---------|--------|--------|-----------------|----------------|
|---------|--------|--------|-----------------|----------------|
|---------|--------|--------|-----------------|----------------|
|---------|2-------|----2-2-|2----5---4-------|--2-----2-------|
|___3___--|2-------|----2-2-|2-/7---7---5---5-|3---3-4---4---4-|
|3--5--2--|0-------|----0-0-|0------------0---|------------3---|


|--------------------------------|--------------------------------|
|--------------------------------|--------------------------------|
|--------------------------------|--------------------------------|
|--------------------------------|--------------------------------|
|--------5-------4---------------|----2-----------2-----------2---|
|---/7-------7-------5-------5---|3-------3---4-------4---5-------|
|0-----------------------0-------|--------------------------------|


|--------------------------------|--------------------------------|
|--------------------------------|--------------------------------|
|--------------------------------|--------------------------------|
|--------------------------------|--------------------------------|
|--------5-------4---------------|----2-----------2---------------|
|---/7-------7-------5-------5---|3-------3---4-------4-------4---|
|0-----------------------0-------|------------------------3-------|


|--------------------------------|--------------------------------|
|--------------------------------|--------------------------------|
|--------------------------------|--------------------------------|
|--------------------------------|--------------------------------|
|--------9-------7---------------|----5-----------7-------4---5---|
|---/10------10------9-------9---|7-------7---7-------7-----------|
|0-----------------------0-------|--------------------------------|
-divisi
|--------------------------------|--------------------------------|
|--------------------------------|--------------------------------|
|--------------------------------|--------------------------------|
|--------------------------------|--------------------------------|
|--------5-------4---------------|----2-----------2-----------2---|
|---/7-------7-------5-------5---|3-------3---4-------4---5-------|
|0-----------------------0-------|--------------------------------|



|--------------------------------|--------------------------------|
|--------------------------------|--------------------------------|
|--------------------------------|--------------------------------|
|--------------------------------|--------------------------------|
|--------9-------7---------------|----5-----------7-------5\------|
|---/10------10------9-------9---|7-------7---7-------7-------4~~-|
|0-----------------------0-------|--------------------------------|
-                                         ritard..........    hold
|--------------------------------|--------------------------------|
|--------------------------------|--------------------------------|
|--------------------------------|--------------------------------|
|--------------------------------|--------------------------------|
|--------5-------4---------------|----2-----------2---------------|
|---/7-------7-------5-------5---|3-------3---4-------4-------4~~-|
|0-----------------------0-------|------------------------3-------|


 (5:53)
  3/4                  12x  12/8                  8x
||------------------------||------------------------||
||------------------------||------------------------||
||.----------------------.||.----------------------.||
||------------------------||------------------------||
||.----------------------.||.----------------------.||
||------2-------------2---||------2-----------2-2---||
||1-0-0-0-------1-0-0-0---||1-0-0-0-------1-0-0-0---||


 (6:31)
|------------------------|------------------------|
|------------------------|------------------------|
|------------------------|------------------------|
|------------------------|------------------------|
|----------3-2-----------|------------------------|
|----------------5-------|----------6-5-----------|
|0-7-6-0-1-----0---0-6-5-|0-7-6-0-1-----0-7-0-5-4-| Start Riff C


|------------------------|------------------------|
|------------------------|------------------------|
|------------------------|------------------------|
|------------------------|------------------------|
|----------3-2-----------|--6-5-----4-3---2-------|
|----------------5-------|5-----4-3-----2---1-6---|
|0-7-6-0-1-----0---0-6-5-|----------------------5-|


|------------------------|------------------------|
|------------------------|------------------------|
|------------------------|------------------------|
|------------------------|------------------------|
|----------3-2-----------|------------------------|
|----------------5-------|----------6-5-----------|
|0-7-6-0-1-----0---0-6-5-|0-7-6-0-1-----0-7-0-5-4-|


|------------------------|------------------------|
|------------------------|------------------------|
|------------------------|------------------------|
|------------------------|------------------------|
|----------3-2-----------|7-6---------------------|
|----------------5-------|----8-7-6-5-----2-1-----|
|0-7-6-0-1-----0---0-6-5-|------------7-6-----3-2-| End Riff C

                        3x
||------------------------||------------------------|
||------------------------||------------------------|
||.----------------------.||------------------------|
||------------------------||------------------------|
||.----------------------.||------------------------|
||------2-----------2-2---||------2---------5-4-----|
||1-0-0-0-------1-0-0-0---||1-0-0-0-----0-3-----3-2-|


                        3x
||------------------------||------------------------|
||------------------------||------------------------|
||.----------------------.||------------------------|
||------------------------||------------------------|
||.----------------------.||------------------------|
||3-2-2-2-------3-2-2-2---||----8-7---------5-4-----|
||1-0-0-0-------1-0-0-0---||0-6-----6-5-0-3-----3-2-|


  (7:01)
||------------------------|------------------------------------------------|
||------------------------|------------------------------------------------|
||.-----------------------|------------------------------------------------|
||------------------------|------------------------------------------------|
||.-----------------------|------------------------------------------------|
||7-5-8---5---------------|7---5-7-8-------5-------------------------------|
||------7---6-0-0-0-0-0-0-|------------7-------6---0---0-0-0---0---0---0---| Start Riff D

                                                                              3/8
|------------------------|--------------------------------------------------||-----------|
|------------------------|--------------------------------------------------||10--9------|
|------------------------|------------------------------------9-10--9------.||-------10\-|
|------------------------|----------------------6-7--/9-10-12-----------12--||-----------|
|------------------------|----------5-7---5-7-9----------------------------.||-----------|
|7-5-8---5---------------|7---5-7-8-----------------------------------------||-----------|
|------7---6-0-0-0-0-0-0-|--------------------------------------------------||-----------| End riff D


  12/8                  3x
||------------------------||------------------------|------------------------|------------------------|
||------------------------||------------------------|------------------------|------------------------|
||.----------------------.||------------------------|------------------------|9-9-9-9-9-9-9-9-9-------|
||------------------------||------------------------|------------------------|9-9-9-9-9-9-9-9-9-------|
||.-4---2----------------.||--4---2-----------------|------------------------|7-7-7-7-7-7-7-7-7-------|
||----------4---3---------||----------4---3---------|7-----7-7-7-7-----7-7-7-|------------------------|
||2---2---2-------2-4-2-5-||2---2---2-------2-4-2-0-|5-----5-5-5-5-----5-5-5-|------------------x\----|


                        3x
||------------------------||------------------------|------------------------|------------------------|
||------------------------||------------------------|------------------------|------------------------|
||.----------------------.||------------------------|------------9---9-9-9-9-|7---9--/10--9---7---5---|
||------------------------||------------------------|----------0-9---9-9-9-9-|7---9--/10--9---7---5---|
||.-4---2----------------.||--4---2-----------------|----------0-7---7-7-7-7-|5---7--/8---7---5---3---|
||----------4---3---------||----------4---3---------|7---7-7-7---------------|------------------------|
||2---2---2-------2-4-2-5-||2---2---2-------2-4-2-0-|5---5-5-5---------------|------------------------|


                        3x
||------------------------||------------------------|------------------------|------------------------|
||------------------------||------------------------|------------------------|------------------------|
||.----------------------.||------------------------|------------------------|------------------------|
||------------------------||------------------------|------------------------|------------------------|
||.-4---2----------------.||--4---2-----------------|------------------------|------------------------|
||----------4---3---------||----------4---3---------|7-----7-7-7-7---7-7-7-7-|5-----5-5---8-----8-----|
||2---2---2-------2-4-2-5-||2---2---2-------2-4-2-0-|5-----5-5-5-5---5-5-5-5-|3-----3-3---6-----6-----|


|------------------------|------------------------|------------------------|------------------------|
|------------------------|------------------------|------------------------|------------------------|
|------------------------|------------------------|------------------------|------------------------|
|------------------------|------------------------|------------------------|------------------------|
|------------------------|------------------------|------------------------|------------------------|
|------2-----------------|------2-----------------|------------2-----------|------2---------5-4-----|
|1-0-0-0-------1-0-1-0-0-|1-0-0-0-------1-0-1-0-0-|1-0-0-1-0-0-0-------1-0-|1-0-0-0-----0-3-----3-2-|


|------------------------|------------------------|------------------------|------------------------|
|------------------------|------------------------|------------------------|------------------------|
|------------------------|------------------------|------------------------|------------------------|
|------------------------|------------------------|------------------------|------------------------|
|------------------------|------------------------|------------------------|------------------------|
|------2-----------------|------2-----------------|------------2-----------|----8-7---------5-4-----|
|1-0-0-0-------1-0-1-0-0-|1-0-0-0-------1-0-1-0-0-|1-0-0-1-0-0-0-------1-0-|0-6-----6-5-0-3-----3-2-|


 12/8                     15/8                           12/8                     9/8
|------------------------|------------------------------|------------------------|------------------|
|------------------------|------------------------------|------------------------|------------------|
|------------------------|------------------------------|------------------------|------------------|
|------------------------|------------------------------|------------------------|------------------|
|------------------------|------------------------------|------------------------|------------------|
|------2-----------------|------2-----------------------|------2-----------------|2---------5-4-----|
|1-0-0-0-------1-0-1-0-0-|1-0-0-0-------1-0-1-0-0-1-0-0-|1-0-0-0-------1-0-1-0-0-|0-----0-3-----3-2-|


 12/8                     15/8                           9/8                12/8
|------------------------|------------------------------|------------------|------------------------|
|------------------------|------------------------------|------------------|------------------------|
|------------------------|------------------------------|------------------|------------------------|
|------------------------|------------------------------|------------------|------------------------|
|------------------------|------------------------------|------------------|------------------------|
|------2-----------------|------2-----------------------|------2-----------|----8-7---------5-4-----|
|1-0-0-0-------1-0-1-0-0-|1-0-0-0-------1-0-1-0-0-1-0-0-|1-0-0-0-------1-0-|0-6-----6-5-0-3-----3-2-|


(Riff C 1x)


  15/8                            12/8
||------------------------------||------------------------|------------------------|
||------------------------------||------------------------|------------------------|
||.----------------------------.||------------------------|------------------------|
||------------------------------||------------------------|------------------------|
||.----------------------------.||------------------------|------------------------|
||------2-----------------------||------2-----------------|------2---------5-4-----|
||1-0-0-0-------1-0-1-0-0-1-0-0-||1-0-0-0-------1-0-1-0-0-|1-0-0-0-----0-3-----3-2-|


  15/8                            12/8
||------------------------------||------------------------|------------------------|
||------------------------------||------------------------|------------------------|
||.----------------------------.||------------------------|------------------------|
||------------------------------||------------------------|------------------------|
||.----------------------------.||------------------------|------------------------|
||------2-----------------------||------2-----------------|----8-7---------5-4-----|
||1-0-0-0-------1-0-1-0-0-1-0-0-||1-0-0-0-------1-0-1-0-0-|0-6-----6-5-0-3-----3-2-|


(Riff D including repeat)


  12/8                  3x
||------------------------||------------------------|------------------------|------------------------|
||------------------------||------------------------|------------------------|------------------------|
||.----------------------.||------------------------|------------------------|9---9-9-9-9-9-9-9-9\----|
||------------------------||------------------------|----------------------0-|9---9-9-9-9-9-9-9-9\----|
||.-4---2----------------.||--4---2-----------------|----------------------0-|7---7-7-7-7-7-7-7-7\----|
||----------4---3---------||----------4---3---------|7---7-7-7-7-7---7-7-7---|------------------------|
||2---2---2-------2-4-2-5-||2---2---2-------2-4-2-0-|5---5-5-5-5-5---5-5-5---|------------------------|


                        4x
||------------------------||------------------------|------------------------|
||------------------------||------------------------|------------------------|
||.----------------------.||------------------------|9---9-9-9---9-9-9-9\----|
||.-----------------------||----------------------0-|9---9-9-9---9-9-9-9\----|
||2---4-2-----2---4-2----.||----------------------0-|7---7-7-7---7-7-7-7\----|
||--------4-----------4---||7---7-7-7-7-7---7-7-7---|------------------------|
||--2-------2---2-------2-||5---5-5-5-5-5---5-5-5---|------------------------|


                        3x
||------------------------||------------------------|------------------------|
||------------------------||------------------------|------------------------|
||.----------------------.||------------------------|------------9---9-9-9-9-|
||------------------------||------------------------|------------9---9-9-9-9-|
||.-4---2----------------.||--4---2-----------------|------------7---7-7-7-7-|
||----------4---3---------||----------4---3---------|7---7-7-7-7-------------|
||2---2---2-------2-4-2-5-||2---2---2-------2-4-2-0-|5---5-5-5-5-------------|


 4/4
|--------------------------------|--------------------------------|--------|----------|
|--------------------------------|--------------------------------|--------|----------|
|9---7-9-7-----------------------|--------------------------------|--------|----------|
|--9-------9\7-5-7---5-7-5-----5-|--------------------------------|--------|----------|
|------------------7-------7-5---|7---5-7-5-----------------------|--------|------5-7-|
|--------------------------------|--7-------7\5-3-5---3-5-3-------|--------|---divisi-|
|--------------------------------|------------------5-------5-3-4-|5\------|------3-5-|


|--------------------------------|--------------------------------|
|--------------------------------|--------------------------------|
|--------------------------------|--------------------------------|
|5---7---5-------5---7---5-------|5---7---5-------5-7-^-r-5-------|
|--7---7---7-5-7---7---7---7-5-7-|--7---7---7-5-7-----------7-5-7-|
|--------------------------------|--------------------------------|
|(gtr 1 doubles 8vb until 10:52)-|--------------------------------|


|--------------------------------|--------------------------------|
|--------------------------------|--------------------------------|
|--------------------------------|--------------------------------|
|5---7---5-------5---7---5-------|5---7---5-------5-7-5-----------|
|--7---7---7-5-7---7---7---7-5-7-|--7---7---7-5-7-------7-5---5-7-|
|--------------------------------|--------------------------7-----|
|--------------------------------|--------------------------------|


|--------------------------------|--------------------------------|
|--------------------------------|--------------------------------|
|--------------------------------|--------------------------------|
|5---7---5-------5---7---5-------|5---7---5-------5-7-^-r-5-------|
|--7---7---7-5-7---7---7---7-5-7-|--7---7---7-5-7-----------7-5-7-|
|--------------------------------|--------------------------------|
|--------------------------------|--------------------------------|


|--------------------------------|--------------------------------|
|--------------------------------|--------------------------------|
|--------------------------------|--------------------------------|
|5---7---5-------5---7---5-------|5---7---5-------------------7-9-|
|--7---7---7-5-7---7---7---7-5-7-|--7---7---7-5-6-7---------------|
|--------------------------------|--------------------------------|
|--------------------------------|--------------------------------|


 (9:58) guitar solo 1 (included separately below)
|--------------------------------|--------------------------------|
|--------------------------------|--------------------------------|
|7---9---7-------7---9---7-------|7---9---7-------7-9-^-r-7-------|
|--9---9---9-7-9---9---9---9-7-9-|--9---9---9-7-9-----------9-7-9-|
|--------------------------------|--------------------------------|
|--------------------------------|--------------------------------|
|--------------------------------|--------------------------------|


|--------------------------------|--------------------------------|
|--------------------------------|--------------------------------|
|7---9---7-------7---9---7-------|7---7---7-------7-9-7-----------|
|--9---9---9-7-9---9---9---9-7-9-|--9---9---9-7-9-------9-7---7-9-|
|--------------------------------|--------------------------9-----|
|--------------------------------|--------------------------------|
|--------------------------------|--------------------------------|


|--------------------------------|--------------------------------|
|--------------------------------|--------------------------------|
|7---9---7-------7---9---7-------|7---9---7-------7-9-^-r-7-------|
|--9---9---9-7-9---9---9---9-7-9-|--9---9---9-7-9-----------9-7-9-|
|--------------------------------|--------------------------------|
|--------------------------------|--------------------------------|
|--------------------------------|--------------------------------|


|--------------------------------|--------------------------------|
|--------------------------------|--------------------------------|
|7---9---7-------7---9---7-------|7---9---7-------7-9-7-----------|
|--9---9---9-7-9---9---9---9-7-9-|--9---9---9-7-9-------9-7-------|
|--------------------------------|--------------------------9-5-7-|
|--------------------------------|--------------------------------|
|--------------------------------|--------------------------------|


 (9:58) solo 1 (gtr 3 w/ wah)
|---------------------|-----------------|----------------------------10----|
|------release slowly-|-----------------|9^----------9^--------------10----|
|--14-/---------------|\7---------------|9^--9-7-----9^--9-7-----9^-----9^^|
|----/----------------|-------------9-7-|--------9-7---------9-7-----------|
|-!-/-----------------|-----------------|----------------------------------|
|-!/------------------|-----------------|----------------------------------|
|-pre dive w/ bar-----|-----------------|----------------------------------|


|--------------------------------|-------------------|-release---------------|
|---7----------------------------|10^^---------12^^^-|(12)------10-----------|
|(9)--9^^r-7---------------------|-------------------|-----------------------|
|------------9-7-----------------|-------------------|-----------------------|
|----------------9-8-7\5---------|-------------------|-----------------------|
|------------------------7-------|-------------------|-----------------------|
|--------------------------------|-------------------|-----------------------|

 ___3__      _______6______ _______6______      ___3__
|7---------7---------7---------7-----------------------|------------------------|
|--10-7------10-7------10-7------10-7----7-10-7--------|-tr---------dive w/ bar-|
|-------10--------10--------10--------10--------10-7---|7(9)--------7------\----|
|----------------------------------------------------9-|--------------------\---|
|------------------------------------------------------|---------------------\--|
|------------------------------------------------------|------------------------|
|------------------------------------------------------|------------------------|


 (10:12) keyboard solo 1
|--------------------------------|--------------------------------|
|--------------------------------|--------------------------------|
|--------------------------------|--------------------------------|
|5---7---5-------5---7---5-------|5---7---5-------5-7-^-r-5-------|
|--7---7---7-5-7---7---7---7-5-7-|--7---7---7-5-7-----------7-5-7-|
|--------------------------------|--------------------------------|
|--------------------------------|--------------------------------|


|--------------------------------|--------------------------------|
|--------------------------------|--------------------------------|
|--------------------------------|--------------------------------|
|5---7---5-------5---7---5-------|5---7---5-------5-7-5-----------|
|--7---7---7-5-7---7---7---7-5-7-|--7---7---7-5-7-------7-5---5-7-|
|--------------------------------|--------------------------7-----|
|--------------------------------|--------------------------------|


|--------------------------------|--------------------------------|
|--------------------------------|--------------------------------|
|--------------------------------|--------------------------------|
|5---7---5-------5---7---5-------|5---7---5-------5-7-^-r-5-------|
|--7---7---7-5-7---7---7---7-5-7-|--7---7---7-5-7-----------7-5-7-|
|--------------------------------|--------------------------------|
|--------------------------------|--------------------------------|


|--------------------------------|--------------------------------|
|--------------------------------|--------------------------------|
|--------------------------------|--------------------------------|
|5---7---5-------5---7---5-------|5---7---5-------5-7-5-------7-9-|
|--7---7---7-5-7---7---7---7-5-7-|--7---7---7-5-7-------7-5-------|
|--------------------------------|--------------------------7-----|
|--------------------------------|--------------------------------|

guitar solo 2: repeat riff from guitar solo 1 except for last bar:
|------------------------------------|
|------------------------------------|
|----7---9---7-------7-9-7-----------|
|7-9---9---9---9-7-9-------9-7-------|
|------------------------------9-7-9-|
|------------------------------------|
|------------------------------------|


 (10:25) solo 2
 ________6________     6      6     6       6     6     6     6
|---------19----------------------------|------------------------|
|17-19-20----20-19----//-----//----//---|--//----//----//----//--|
|---------------------------------------|------------------------|
|---------------------------------------|------------------------|
|---------------------------------------|------------------------|
|---------------------------------------|------------------------|
|---------------------------------------|------------------------|

 ________6________ ________6________ ________6________ ________6________
|------------------------------------------------------------------------|
|17-19-17-19-17-15-17-15-17-19-17-19-20-19-17-19-17-15-17-15-17-19-17-19-|
|------------------------------------------------------------------------|
|------------------------------------------------------------------------|
|------------------------------------------------------------------------|
|------------------------------------------------------------------------|
|------------------------------------------------------------------------|

 ________6________ ________6________ ________6________
|--------------------------------------------------------------------0---|
|20-19-17-19-17-19-20-19-20-22-22-19-19-20-20-20-22-20-24\---------------|
|------------------------------------------------------------------------|
|------------------------------------------------------------------------|
|------------------------------------------------------------------------|
|------------------------------------------------------------------------|
|------------------------------------------------------------------------|


|---10-14-10----14----10-14-10----14----10-13-10-|
|12----------12----12----------12----12----------|
|------------------------------------------------|
|------------------------------------------------|
|------------------------------------------------|
|------------------------------------------------|
|------------------------------------------------|


|---10-14-10----14----10-14-10----14----10-15-10-|
|12----------12----12----------12----12----------|
|------------------------------------------------|
|------------------------------------------------|
|------------------------------------------------|
|------------------------------------------------|
|------------------------------------------------|


|---10-14-10----14----10-17-14----18-15----19-16-|
|12----------12----12----------15-------16-------|
|------------------------------------------------|
|------------------------------------------------|
|------------------------------------------------|
|------------------------------------------------|
|------------------------------------------------|

                   ____3___ ________6________
|---17-21-17----19-22-19----------21-24-21------------|
|19----------19----------20----22----------22-24\-----|
|---------------------------21------------------------|
|-----------------------------------------------------|
|-----------------------------------------------------|
|-----------------------------------------------------|
|-----------------------------------------------------|



 (10:38) keyboard solo 2
|--------------------------------|--------------------------------|
|--------------------------------|--------------------------------|
|--------------------------------|--------------------------------|
|7---9---7-------7---9---7-------|7---9---7-------7-9-^-r-7-------|
|--9---9---9-7-9---9---9---9-7-9-|--9---9---9-7-9-----------9-7-9-|
|--------------------------------|--------------------------------|
|--------------------------------|--------------------------------|


|--------------------------------|--------------------------------|
|--------------------------------|--------------------------------|
|--------------------------------|--------------------------------|
|7---9---7-------7---9---7-------|7---9---7-------7-9-7-----------|
|--9---9---9-7-9---9---9---9-7-9-|--9---9---9-7-9-------9-7---7-9-|
|--------------------------------|--------------------------9-----|
|--------------------------------|--------------------------------|



|--------------------------------|--------------------------------|
|--------------------------------|--------------------------------|
|--------------------------------|--------------------------------|
|7---9---7-------7---9---7-------|7---9---7-------7-9-^-r-7-------|
|--9---9---9-7-9---9---9---9-7-9-|--9---9---9-7-9-----------9-7-9-|
|--------------------------------|--------------------------------|
|--------------------------------|--------------------------------|



|--------------------------------|--------------------------------|
|--------------------------------|--------------------------------|
|--------------------------------|--------------------------------|
|7---9---7-------7---9---7-------|7---9---7-------7-9-7-------7-9-|
|--9---9---9-7-9---9---9---9-7-9-|--9---9---9-7-9-------9-7-------|
|--------------------------------|--------------------------9-----|
|--------------------------------|--------------------------------|


 (10:52) key/guitar unison: see below (end 8vb rhythm guitar doubling)
|--------------------------------|--------------------------------|
|gtrs 1 & 2 ---------------------|--------------------------------|
|--------------------------------|--------------------------------|
|--------------------------------|--------------------------------|
|5---7---5-------5---7---5-------|5---7---5-------5-7-^-r-5-------|
|--7---7---7-5-7---7---7---7-5-7-|--7---7---7-5-7-----------7-5-7-|
|--------------------------------|--------------------------------|


|--------------------------------|--------------------------------|
|--------------------------------|--------------------------------|
|--------------------------------|--------------------------------|
|--------------------------------|--------------------------------|
|5---7---5-------5---7---5-------|5---7---5-------5-7-5-----------|
|--7---7---7-5-7---7---7---7-5-7-|--7---7---7-5-7-------7-5---5-7-|
|--------------------------------|--------------------------7-----|


|--------------------------------|--------------------------------|
|--------------------------------|--------------------------------|
|--------------------------------|--------------------------------|
|--------------------------------|--------------------------------|
|5---7---5-------5---7---5-------|5---7---5-------5-7-^-r-5-------|
|--7---7---7-5-7---7---7---7-5-7-|--7---7---7-5-7-----------7-5-7-|
|--------------------------------|--------------------------------|


|--------------------------------|--------------------------------|
|--------------------------------|--------------------------------|
|--------------------------------|--------------------------------|
|--------------------------------|--------------------------------|
|5---7---5-------5---7---5-------|5---7---5-------5-7-5-----------|
|--7---7---7-5-7---7---7---7-5-7-|--7---7---7-5-7-------7-5---5-6-|
|--------------------------------|--------------------------7-----|


 (10:52) unison w/ keyboard
|21-22-19-22-17-22----19-17-19-14-19----19-------|
|------------------19----------------17----15-19-|
|------------------------------------------------|
|------------------------------------------------|
|------------------------------------------------|
|------------------------------------------------|
|------------------------------------------------|

                         ________6________ ________6________
|------------------------------------------------------------|
|17-15-14-17-15-14----14-15-14----14-------------------------|
|------------------16----------16----16-14-16-14----14-------|
|------------------------------------------------16----16-14-|
|------------------------------------------------------------|
|------------------------------------------------------------|
|------------------------------------------------------------|


|------------12-10-12-14-------------------|
|------------------------------------------|
|------------------------------------------|
|14-12-14-16-------------11^---r---9----\--|
|------------------------------------------|
|------------------------------------------|
|------------------------------------------|

 ________6_______ ________6______ _______6_______
|12-10-------------------------------------------------------|
|------12-10------12-10--------------------------------------|
|------------11-9-------11-9---------------------------------|
|----------------------------12-9-12-9-----------------------|
|--------------------------------------10-9------------------|
|-------------------------------------------12-10------12-14-|
|-------------------------------------------------12---------|


|------------------------------------------------|
|------------------------------------------------|
|------------------------14----16----14----------|
|------------------14-16----16----16----16-------|
|12----14----12----------------------------------|
|---14----14----14-------------------------12-14-|
|------------------------------------------------|


|------------------------------------------------|
|------------------------------------------------|
|------------------------14-16-^--r--14----------|
|------------------14-16----------------16-------|
|12----14----12----------------------------------|
|---14----14----14-------------------------12-14-|
|------------------------------------------------|


|------------------------------------------------|
|------------------------------------------17-19-|
|------------------------14----16----14----------|
|------------------14-16----16----16----16-------|
|12----14----12----------------------------------|
|---14----14----14-------------------------------|
|------------------------------------------------|


|17----19----17----------22-24-^--r--22----------|
|---19----19----19-22-24----------------24-22-23-|
|------------------------------------------------|
|------------------------------------------------|
|------------------------------------------------|
|------------------------------------------------|
|------------------------------------------------|


 (11:05)
|(gtr 3 out)---------------------|--------------------------------|
|24\-----------------------------|--------------------------------|
|7---9---7-------7---9---7-------|7---9---7-------7-9-7-9-7-------|
|--9---9---9-7-9---9---9---9-7-9-|--9---9---9-7-9-----------9-7-9-|
|(gtr 4: clean w/ palm mute)-----|--------------------------------|
|7-------------------------------|--------------------------------|
|(gtrs 1 & 2)--------------------|--------------------------------|


|--------------------------------|--------------------------------|
|--------------------------------|--------------------------------|
|7---9---7-------7---9---7-------|7---9---7-------7-9-7---------7-|
|--9---9---9-7-9---9---9---9-7-9-|--9---9---9-7-9-------9-7-5-7---|
|--------------------------------|--------------------------------|
|--------------------------------|--------------------------------|
|--------------------------------|--------------------------------|

 
(Gtrs 1 & 2 play Riff B 1x)


|--------------------------------|--------------------------------|
|--------------------------------|--------------------------------|
|7---9---7-------7---9---7-------|7---9---7-------7-9-7---------7-|
|--9---9---9-7-9---9---9---9-7-9-|--9---9---9-7-9-------9-7-5-7---|
|--------------------------------|--------------------------------|
|gtr 4 --------------------------|--------------------------------|
|--------------------------------|--------------------------------|


                                3x
||--------------------------------||--------------------------------|
||gtrs 1 & 2 ---------------------||--------------------------------|
||.------------------------------.||--------------------------------|
||--------------------------------||--------------------------------|
||.------------------------------.||--------------------------------|
||--------------------------------||--------------------------------|
||3-2-0-5-3-0-3-2-0-0---0-0---0-0-||3-2-0-5-3-0-6-5-0-5-3-0-3-2-0-0-| Riff E


(Repeat Riff E including repeats)


||--------------------------------|--------------------------------||
||--------------------------------|--------------------------------||
||.-------------------------------|-------------------------------.||
||--------------------------------|--------------------------------||
||.-------------------------------|-------------------------------.||
||2-1---------------------------1-|2-1---------------------------1-||
||----3-2---0---2---0-------2-3---|----3-2---0---2---3-2-------3---|| 3x


|--------------------------------|--------------------------------|
|--------------------------------|--------------------------------|
|--------------------------------|--------------------------------|
|--------------------------------|--------------------------------|
|--------------------------------|------------------------------0-|
|2-1---------------------------1-|2-1-----------------------2-4---|
|----3-2---0---2---0-------2-3---|----3-2---0---2---3-2-----------|


||--------------------------------|--------------------------------||
||--------------------------------|--------------------------------||
||.-------------------------------|-------------------------------.||
||.-------------------------------|--------------------------------||
||2-4-4-2-4-4-2-4-4-2-4-2-4-5-4-2-|2-4-4-2-4-4-2-4-4-2-4-2--------.||
||--------------------------------|------------------------5-4-2-1-||
||--------------------------------|--------------------------------|| Riff F


||--------------------------------|--------------------------------||
||--------------------------------|--------------------------------||
||.-------------------------------|-------------------------------.||
||--------------------------------|--------------------------------||
||.---------------------------0-2-|4-4-2-4---2-4-2-4-5-4-2--------.||
||2-1-------------------1-2-4-----|------------------------5-4-2-1-||
||----3-2---0---2---3-5-----------|--------------------------------|| Riff G


(Riff E including repeats)

(Riff G 2x)

                                3x  5/4
||--------------------------------||----------------------------------------|
||--------------------------------||----------------------------------------|
||.------------------------------.||----------------------------------------|
||.-------------------------------||----------------------------------------|
||7-6----------------------------.||7-6-------------------------------------|
||----8-7-----6-5-----------------||----8-7-----6-5---------2-1-------1-2-4-|
||----------0-----7-6---0---0-0---||----------0-----7-6---0-----2-3-2-------|


(Riff F 1x)

(first measure of Riff E 2x)

(Riff F 1x)

(both measures of Riff E, skip repeats)

(Riff F 1x)


 w/ first measure of Riff F
|--------------------------------|
|--------------------------------|
|4-6-6-4-6-6-4-6-6-4-6-4-6-7-6-4-|
|gtr 3 --------------------------|
|--------------------------------|
|--------------------------------|
|--------------------------------|



 _______6_______ _______6_______ _______6________ ___3____ (32nds___)
|9-10-12-10-9----------9----------------------------------------------|
|-------------12-10-12---12-10-9--------------------------------------|
|--------------------------------11-10---------------10-11-10---------|
|--------------------------------------12-11-9-11-12----------12-11-9-|
|gtrs 1 & 2 ----------------------------------------------------------|
|---------------------------------------------------------------------|
|---------------------------------------------------------------------|


 5/4
 ___3___ (32nds___) _______6_______ _______6_______
|------------------------------------------------------------------------|
|------------------------------------------------------------------------|
|------9-----------------------------------------------------------------|
|11-12---12-11-9----9-------------------------------divisi---------------|
|----------------12---11-12-9-11----9---------------9-----7----5----4----|
|--------------------------------12---12-10-9-10-12-10----9----7----5----|
|------------------------------------------------------------------------|

 (12:50) 4/4
|----------------|----------------|----------------|----------------|
|----0-------0---|--0-------------|----0-------0---|----------------|
|----------------|----------------|----------------|----------------|
|----------------|----------------|----------------|----------------|
|9-------7-----5-|------7----/7-5-|9-------7-----5-|----------------|
|7-------5-----3-|------4---4-----|7-------5-----3-|----3-4-------4-|
|----------------|----------------|----------------|----------3-----|


|----------------|----------------|----------------|----------------|
|----0-------0---|--0-------------|----0-------0---|----------------|
|----------------|----------------|----------------|----------------|
|----------------|----------------|----------------|----------------|
|--------7-----5-|------7----/7-5-|9-------7-----5-|----------------|
|--------5-----3-|------4---4-----|7-------5-----3-|----4-----4-----|
|0---------------|----------------|----------------|------3-----2^r-|


||----------------|----------------|----------------|----------------|
||----0-------0---|--0-------------|----0-------0---|----------------|
||.---------------|----------------|----------------|----------------|
||----------------|----------------|----------------|----------------|
||.-------7-----5-|------7----/7-5-|9-------7-----5-|----------------|
||--------5-----3-|------4---4-----|7-------5-----3-|----3-4-------4-|
||0---------------|----------------|----------------|----------3-----|


|----------------|----------------|----------------|----------------||
|----0-------0---|--0-------------|----0-------0---|----------------||
|----------------|----------------|----------------|---------------.||
|----------------|----------------|----------------|----------------||
|--------7-----5-|------7----/7-5-|9-------7-----5-|---------------.||
|--------5-----3-|------4---4-----|7-------5-----3-|----4-----4-----||
|0---------------|----------------|----------------|------3-----2^r-||


|----------------|----------------|----------------|----------------|
|----0-------0---|--0-------------|----0-------0---|----------------|
|----------------|----------------|----------------|----------------|
|----------------|----------------|----------------|----------------|
|--------7-----5-|------7----/7-5-|9-------7-----5-|----------------|
|--------5-----3-|------4---4-----|7-------5-----3-|----3-4-------4-|
|0---------------|----------------|----------------|----------3-----|


|----------------|----------------|----------------|----------------|--------|
|----0-------0---|--0-------------|----0-------0---|----------------|--------|
|----------------|----------------|----------------|---------divisi-|--------|
|----------------|----------------|----------------|----------------|9\------|
|--------7-----5-|------7----/7-5-|9-------7-----5-|------------4^-/|9\------|
|--------5-----3-|------4---4-----|7-------5-----3-|----4-----4-----|7\------|
|0---------------|----------------|----------------|------3-----2^-/|--------|

--------------------------------------------------------------

2. BLIND FAITH
Tuning - E,A,D,G,B,E

Csus2
3 x 0 2 3 x Gsus2
x x 0 2 3 0 Dsus2
x 0 2 2 0 0 G/B
2 x 0 2 3 x 
A/C#
4 x 2 4 5 x AmVIII
x 0 x 9 10 8 


Gtr I (A D G C E A) - 'Baritone, Semi Clean tone'
Gtr II (E A D G B E) - 'Acoustic, Capo 5'
Gtr III (A D G C E A) - 'Baritone, Distorted'
Gtr IV (E A D G B E) - 'Distorted Electric, Standard Tuning'
Gtr V (A D G C E A) - 'Baritone (solo)'
Gtr VI (E A D G B E) - 'Classical'


 Intro
  Q=115
 4/4
  Gtr I
  W          Wx8
|----------|--------|
|----------|--------|
|----------|--------|
|----------|--------|
|----------|--------|
|----------|--------|


    $
    D5                          (Dm7)         F
    E E H.        E E H.        E E H.        E E H.
||--------------|-------------|-------------|------------||
||o-------------|-------------|-------------|-----------o||
||------2-------|-----2-------|-----0-------|-----0------||
||----2---------|---2---------|---2---------|---2--------||
||o-0-----------|-0-----------|-0-----------|-3---------o||
||--------------|-------------|-------------|------------||


   Verse
    D5
    PM---------------------------------------
    e S  S  S  S  S  S  S  S  e S  S  S  S
||------------------------------------------|
||o-----------------------------------------|
||----------2-------(2)---------------2-----|
||----2-------(2)-2-------(2)---2-------(2)-|
||o-0---(0)-------------------0---(0)-------|
||------------------------------------------|


 -----------------------------------------|
  S  S  S  S  S  S  S  S  S  S  e S  S  S  S
|----------------------------------------------|
|----------------------------------------------|
|---(2)-------2-------(2)---------------2------|
|-------2-------(2)-2-------(2)---2-------(2)--|
|-0-------(0)-------------------0---(0)--------|
|----------------------------------------------|


  (Dm7)
  PM-------------------------------------------
  S  S  S  S  S  S  S  S  S  S  e S  S  S  S
|---------------------------------------------|
|---------------------------------------------|
|---(2)-------0-------(0)---------------0-----|
|-------2-------(2)-2-------(2)---2-------(2)-|
|-0-------(0)-------------------0---(0)-------|
|---------------------------------------------|


  F
 -----------------------------------------|
  S  S  S  S  S  S  S  S  S  S  e S  S  S  S
|-----------------------------------------------||
|----------------------------------------------o||
|---(0)-------0-------(0)---------------0-------||
|-------2-------(2)-2-------(2)---2-------(2)---||
|-3-------(3)-------------------3---(3)--------o||
|-----------------------------------------------||


  Csus2               Gsus2                 D      Dsus4      D      Dsus4
  Gtr I
  E E E E +E   Q.     E  E  E E +E   Q.     Q   E  E +H       Q   E  E +H
|-------------------|---------0-(0)-------|-----------------|--------------|
|-------3-(3)-------|-------3-------(3)---|-----------------|--------------|
|-----2-------(2)---|----2----------------|-----6--7-(7)----|-----6--7-(7)-|
|---0---------------|-0-(0)---------------|-----7-----------|-----7--------|
|-------------------|---------------------|-0--(0)----------|-0--(0)-------|
|-3-----------------|---------------------|-----------------|--------------|
|
| Gtr II
| E E E E +E   Q.     E  E  E E +E   Q.     Q   E  E +H       Q   E  E +H
|-------------------|---------0-(0)-------|-----------------|--------------|
|-------3-(3)-------|-------3-------(3)---|--------3-(3)----|--------3-(3)-|
|-----2-------(2)---|----2----------------|-----2-----------|-----2--------|
|---0---------------|-0-(0)---------------|-----------------|--------------|
|-------------------|---------------------|-0--(0)----------|-0--(0)-------|
|-3-----------------|---------------------|-----------------|--------------|


  Csus2                  Gadd9/B
  E  E  E E +E  Q   E    E  E  E E +E  Q   E
|----------------------|---------0-(0)--------|
|---------3-(3)--------|---------------3------|
|-------2-------2------|-------2----------(2)-|
|----0-------------(0)-|----0-----------------|
|----------------------|----------------------|
|-3-(3)----------------|-2-(2)----------------|
|
| E  E  E E +E  Q   E    E  E  E E +E  Q   E
|----------------------|---------0-(0)--------|
|---------3-(3)--------|---------------3------|
|-------2-------2------|-------2----------(2)-|
|----0-------------(0)-|----0-----------------|
|----------------------|----------------------|
|-3-(3)----------------|-2-(2)----------------|


                             D.S.
  D      Dsus4      D      Dsus4
  Q   E  E +H       Q   E  E +H
|-----------------|-----------------|
|-----------------|-----------------|
|-----6--7-(7)----|-----6--7-(7)----|
|-----7-----------|-----7-----------|
|-0--(0)----------|-0--(0)----------|
|-----------------|-----------------|
|
| Q   E  E +H       Q   E  E +H
|-----------------|-----------------|
|--------3-(3)----|--------3-(3)----|
|-----2-----------|-----2-----------|
|-----------------|-----------------|
|-0--(0)----------|-0--(0)----------|
|-----------------|-----------------|


 Pre-Chorus
  Csus2                 Gadd9/B
  Gtr III
  E  E  E E +E  E E E   E  E  E E +E  E E E
|---------------------|---------0-(0)-------|
|---------3-(3)-------|---------------3-----|
|-------2-------2-0---|-------2---------2---|
|----0--------------0-|----0--------------0-|
|---------------------|---------------------|
|-3-(3)---------------|-2-(2)---------------|
|
| Gtr II
| E  E  E E +E  E E E   E  E  E E +E  E E E
|---------------------|---------0-(0)-------|
|---------3-(3)-------|---------------3-----|
|-------2-------2-0---|-------2---------2---|
|----0--------------0-|----0--------------0-|
|---------------------|---------------------|
|-3-(3)---------------|-2-(2)---------------|


  Dsus2                 A/C#
  E  E  E E +E  E E E   E  E  E E +E  Q  E
|---------0-(0)-------|---------0-(0)------|
|-------0-------0---0-|-------0-------0----|
|---------------------|--------------------|
|----7------------7---|----6-------------6-|
|---------------------|--------------------|
|-5-(5)---------------|-4-(4)--------------|
|
| E  E  E E +E  E E E   E  E  E E +E  Q  E
|---------0-(0)-------|---------0-(0)------|
|-------0-------0---0-|-------0-------0----|
|---------------------|--------------------|
|----7------------7---|----6-------------6-|
|---------------------|--------------------|
|-5-(5)---------------|-4-(4)--------------|


  Csus2                 Gadd9/B
  E  E  E E +E  E E E   E  E  E E +E  E E E
|---------------------|---------0-(0)-------|
|---------3-(3)-------|---------------3-----|
|-------2-------2-0---|-------2---------2---|
|----0--------------0-|----0--------------0-|
|---------------------|---------------------|
|-3-(3)---------------|-2-(2)---------------|
|
| E  E  E E +E  E E E   E  E  E E +E  E E E
|---------------------|---------0-(0)-------|
|---------3-(3)-------|---------------3-----|
|-------2-------2-0---|-------2---------2---|
|----0--------------0-|----0--------------0-|
|---------------------|---------------------|
|-3-(3)---------------|-2-(2)---------------|


  Bbsus2  N.C.                Bb5
  E  E  E E +E  E +E  E   +E  E E E E E   Q
|-----------------------|---------------------|
|-----------------------|---------------------|
|---------4-(4)-5-(5)-2-|-(2)-----------------|
|-------5---------------|-----3---------------|
|----3------------------|-------3-------------|
|-1-(1)-----------------|---------1-1-x-/12\--|
|
| E  E  E E +E  E +E  E   +E  E Q   H
|-----------------------|---------------------|
|-----------------------|---------------------|
|---------4-(4)-5-(5)-2-|-(2)-----------------|
|-------5---------------|-----3---------------|
|----3------------------|-------3-------------|
|-1-(1)-----------------|-----------1---------|


 Chorus
  Q=120
  N.C.                                       G5A5           C5D5
                    3/4                 4/4                2/4
  Gtr III
  E E E E +E  E Q    E E E +E    +E  E   E E E E +E  E Q    E E   Q
|------------------|-------------------|------------------|-----------|
|------------------|-------------------|------------------|-----------|
|------------------|-------------------|------------------|-----------|
|------------------|-------------------|-----7s9-(9)------|-----------|
|-----5s7-(7)------|-------------------|-----5s7-(7)------|-5s7---7---|
|-0-3---------5-7--|-3-5-5-(5)b7r(5)-3-|-0-3---------5-7--|-3s5---5---|
|
| Gtr IV
| E E E E +E  E Q    E E E +E    +E  E   E E E E +E  E Q    E E   Q
|------------------|-------------------|------------------|-----------|
|------------------|-------------------|------------------|-----------|
|------------------|-------------------|------------------|-----/14\--|
|-----5s7-(7)------|-------------------|------------------|-5s7-/14\--|
|-0-3---------5-7--|-3-5-5-(5)b7r(5)-3-|-0-3-5s7-(7)-5-7--|-3s5-------|
|------------------|-------------------|-----3s5-(5)------|-----------|


  N.C.                                       G5A5                 G5
 4/4                3/4                 4/4
                                  ~~~
  E E E E +E  E Q    E E E +E    +E  E   E E E E +E  E Q    E E E E +E  E E E
|------------------|-------------------|------------------|----------------|
|------------------|-------------------|------------------|----------------|
|------------------|-------------------|------------------|----------------|
|------------------|-------------------|-----7s9-(9)------|-------7-(7)----|
|-----5s7-(7)------|-------------------|-----5s7-(7)------|-------5-(5)-3-2|
|-0-3---------5-7--|-3-5-5-(5)b6r(5)-3-|-0-3---------5-7--|-3-5-3------0---|
|
|                                 ~~~
| E E E E +E  E Q    E E E +E    +E  E   E E E E +E  E Q    E E E E +E  E E E
|------------------|-------------------|------------------|----------------|
|------------------|-------------------|------------------|----------------|
|------------------|-------------------|------------------|----------------|
|-----5s7-(7)------|-------------------|------------------|----------------|
|-0-3---------5-7--|-3-5-5-(5)b6r(5)-3-|-0-3-5s7-(7)-5-7--|-3-5-3-5-(5)0---|
|------------------|-------------------|-----3s5-(5)------|-------3-(3)-1-0|


  Q=115
  D5                                   F
                           >            <
  W          +W           +W            Q.   E +E  E E E
|----------|------------|------------|-------------------|
|----------|------------|------------|-------------------|
|-2--------|-(2)--------|-(2)--------|-------0-(0)-------|
|-2--------|-(2)--------|-(2)--------|-------------2---2-|
|-0--------|-(0)--------|-(0)--------|--3------------3---|
|----------|------------|------------|-------------------|
|
|                          >
| W          +W           +W           +W
|----------|------------|------------|-------------------|
|-3--------|-(3)--------|-(3)--------|-(3)---------------|
|-2--------|-(2)--------|-(2)--------|-(2)---------------|
|-0--------|-(0)--------|-(0)--------|-(0)---------------|
|-0--------|-(0)--------|-(0)--------|-(0)---------------|
|----------|------------|------------|-------------------|


  D5
  Gtr III
  Q.    E  +E  E E E   Q.    E  +E  E E E
|--------------------|--------------------|
|--------------------|--------------------|
|-------2--(2)-------|-------2--(2)-------|
|--------------2---2-|--------------2---2-|
|-0----(0)-------0---|-0----(0)-------0---|
|--------------------|--------------------|


  (Dm7)                F
  Q.    E  +E  E E E   Q.    E  +E  E E E
|--------------------|--------------------|
|--------------------|--------------------|
|-------0--(0)-------|-------0--(0)-------|
|--------------2---2-|--------------2---2-|
|-0----(0)-------0---|-3----(3)-------3---|
|--------------------|--------------------|


   Verse
    D5         Gsus4  D5         Gsus4
       PM|               PM|
    Q  S S E E Q.     Q  S S E E Q.
||-------------5----|------------5----|
||o------------8----|------------8----|
||--2------2---7----|-2------2---7----|
||--2------2--------|-2------2--------|
||o-0--0-0-0--------|-0--0-0-0--------|
||------------------|-----------------|


  D5         Gsus4  F
     PM|               PM|
  Q  S S E E Q.     Q  S S E E E E   +E
|------------5----|------------------------||
|------------8----|-----------------------o||
|-2------2---7----|-0------0---------------||
|-2------2--------|-2------2-----4b5r(4)---||
|-0--0-0-0--------|-3--3-3-3---3----------o||
|-----------------|------------------------||


  Csus2              Gsus2                D      Dsus4      D      Dsus4
  Gtr III
  E E E E +E  Q.     E  E  E E +E  Q.     Q   E  E +H       Q   E  E +E  Q.
|------------------|---------0-(0)------|-----------------|--------------0-|
|-------3-(3)------|-------3-------3----|-----------------|----------------|
|-----2-------2----|----2---------------|-----6--7-(7)----|-----6--7-(7)---|
|---0--------------|-0------------------|-----7-----------|-----7----------|
|------------------|--------------------|-0--(0)----------|-0--(0)---------|
|-3----------------|--------------------|-----------------|----------------|
|
| Gtr II
| E E E E +E  Q.     E  E  E E +E  Q.     Q   E  E +H       Q   E  E +H
|------------------|---------0-(0)------|-----------------|----------------|
|-------3-(3)------|-------3-------3----|--------3-(3)----|--------3-(3)---|
|-----2-------2----|----2---------------|-----2-----------|-----2----------|
|---0--------------|-0-(0)--------------|-----------------|----------------|
|------------------|--------------------|-0--(0)----------|-0--(0)---------|
|-3----------------|--------------------|-----------------|----------------|


  Csus2                  Gadd9/B
  E  E  E E +E  Q.       H          S  S S S S S E
|----------------------|---------0-(0)-------------|
|---------3-(3)--------|-------3----8--8p5---------|
|-------2-------2------|----2--------------7-6s4-2-|
|----0-----------------|---------------------------|
|----------------------|---------------------------|
|-3-(3)----------------|-2-(2)---------------------|
|                        E  E  E E +H
|
| E  E  E E +E  E  E E   E  E  E E +H
|----------------------|---------0-(0)-------------|
|---------3-(3)--------|-------3-------------------|
|-------2-------2--0---|----2----------------------|
|----0---------------0-|---------------------------|
|----------------------|---------------------------|
|-3-(3)----------------|-2-(2)---------------------|


  D      Dsus4      D      Dsus4 D
  Q   E  E +H       Q   E  E +E  Q.
|-----------------|--------------------|
|-----------------|--------------------|
|-----6--7-(7)----|-----6--7-(7)-6-----|
|-----7-----------|-----7--------------|
|-0--(0)----------|-0--(0)-------------|
|-----------------|--------------------|
|
| Q   E  E +H       Q   E  E +H
|-----------------|--------------------|
|--------3-(3)----|--------3-(3)-------|
|-----2-----------|-----2--------------|
|-----------------|--------------------|
|-0--(0)----------|-0--(0)-------------|
|-----------------|--------------------|


 Pre-Chorus
  Csus2                 Gadd9/B
  Gtr III
  E  E  E E +E  E E E   E  E  E E +E  E E E
|---------------------|---------0-(0)-------|
|---------3-(3)-------|---------------3-----|
|-------2-------2-0---|-------2---------2---|
|----0--------------0-|----0--------------0-|
|---------------------|---------------------|
|-3-(3)---------------|-2-(2)---------------|
|
| Gtr II
| E  E  E E +E  E E E   E  E  E E +E  E E E
|---------------------|---------0-(0)-------|
|---------3-(3)-------|---------------3-----|
|-------2-------2-0---|-------2---------2---|
|----0--------------0-|----0--------------0-|
|---------------------|---------------------|
|-3-(3)---------------|-2-(2)---------------|


  Dsus2                 A/C#
  E  E  E E +E  E E E   E  E  E E +E  Q  E
|---------0-(0)-------|---------0-(0)------|
|-------0-------0---0-|-------0-------0----|
|---------------------|--------------------|
|----7------------7---|----6-------------6-|
|---------------------|--------------------|
|-5-(5)---------------|-4-(4)--------------|
|
| E  E  E E +E  E E E   E  E  E E +E  Q  E
|---------0-(0)-------|---------0-(0)------|
|-------0-------0---0-|-------0-------0----|
|---------------------|--------------------|
|----7------------7---|----6-------------6-|
|---------------------|--------------------|
|-5-(5)---------------|-4-(4)--------------|


  Csus2                 Gadd9/B
  E  E  E E +E  E E E   E  E  E E +E  E E E
|---------------------|---------0-(0)-------|
|---------3-(3)-------|---------------3-----|
|-------2-------2-0---|-------2---------2---|
|----0--------------0-|----0--------------0-|
|---------------------|---------------------|
|-3-(3)---------------|-2-(2)---------------|
|
| E  E  E E +E  E E E   E  E  E E +E  E E E
|---------------------|---------0-(0)-------|
|---------3-(3)-------|---------------3-----|
|-------2-------2-0---|-------2---------2---|
|----0--------------0-|----0--------------0-|
|---------------------|---------------------|
|-3-(3)---------------|-2-(2)---------------|


  Bbsus2  N.C.                Bb5
  E  E  E E +E  E +E  E   +E  E E E Q.   E
|-----------------------|------------------|
|-----------------------|------------------|
|---------4-(4)-5-(5)-2-|-(2)--------------|
|-------5---------------|-----3-----3----x-|
|----3------------------|-------3---3----x-|
|-1-(1)-----------------|---------1-1------|
|
| E  E  E E +E  E +E  E   +E  E Q   H
|-----------------------|------------------|
|-----------------------|------------------|
|---------4-(4)-5-(5)-2-|-(2)--------------|
|-------5---------------|-----3------------|
|----3------------------|-------3----------|
|-1-(1)-----------------|-----------1------|


   Chorus
    Q=120
    N.C.                                       G5A5           C5D5
                      3/4                 4/4                2/4
    Gtr III
    E E E E +E  E Q    E E E +E    +E  E   E E E E +E  E Q    E E   Q
||-------------------|-------------------|------------------|-----------|
||o------------------|-------------------|------------------|-----------|
||-------------------|-------------------|------------------|-----------|
||-------------------|-------------------|-----7s9-(9)------|-----------|
||o-----5s7-(7)------|-------------------|-----5s7-(7)------|-5s7---7---|
||--0-3---------5-7--|-3-5-5-(5)b7r(5)-3-|-0-3---------5-7--|-3s5---5---|
|
|   Gtr IV
|   E E E E +E  E Q    E E E +E    +E  E   E E E E +E  E Q    E E   Q
||-------------------|-------------------|------------------|-----------|
||o------------------|-------------------|------------------|-----------|
||-------------------|-------------------|------------------|-----/14\--|
||------5s7-(7)------|-------------------|------------------|-5s7-/14\--|
||o-0-3---------5-7--|-3-5-5-(5)b7r(5)-3-|-0-3-5s7-(7)-5-7--|-3s5-------|
||-------------------|-------------------|-----3s5-(5)------|-----------|


  N.C.
 4/4                3/4
  Gtr III
                                  ~~~
  E E E E +E  E Q    E E E +E    +E  E
|------------------|-------------------|
|------------------|-------------------|
|------------------|-------------------|
|------------------|-------------------|
|-----5s7-(7)------|-------------------|
|-0-3---------5-7--|-3-5-5-(5)b6r(5)-3-|
|
| Gtr IV
|                                 ~~~
| E E E E +E  E Q    E E E +E    +E  E
|------------------|-------------------|
|------------------|-------------------|
|------------------|-------------------|
|-----5s7-(7)------|-------------------|
|-0-3---------5-7--|-3-5-5-(5)b6r(5)-3-|
|------------------|-------------------|


                     1.         2.
      G5A5           C5D5             G5
 4/4                2/4        4/4
  E E E E +E  E Q    E E Q      E E E E +E  E E E
|------------------|---------||-------------------|
|------------------|--------o||-------------------|
|------------------|---------||-------------------|
|-----7s9-(9)------|---------||-------7-(7)-------|
|-----5s7-(7)------|-5s7-7--o||-------5-(5)-------|
|-0-3---------5-7--|-3s5-5---||-3-5-3-------0-3-2-|
|
| E E E E +E  E Q    E E Q      E E E E +E  E E E
|------------------|---------||-------------------|
|------------------|--------o||-------------------|
|------------------|---------||-------------------|
|------------------|-5s7-7---||-------------------|
|-0-3-5s7-(7)-5-7--|-3s5-5--o||-3-5-3-5-(5)-0-3-2-|
|-----3s5-(5)------|---------||-------3-(3)-------|


 Bridge
  N.C.
                        3/4
  Gtr III
  E. S S S E +E  E E E   E. S +E  E +S  E.
|----------------------|-------------------|
|----------------------|-------------------|
|----------------------|-------------------|
|----------------------|-5--7-(7)-4-(4)----|
|----7---7---------7-5-|----------------5--|
|-0--------0-(0)-0-----|-------------------|


 4/4                         3/4
  PM--|             PM|
  S S S S S S E +E  S S E E   E. S +E  E +S  S S S
|---------------------------|----------------------|
|---------------------------|----------------------|
|---------------------------|----4-(4)-7-(7)-------|
|---------------------------|-5--------------------|
|-------7---7-----------7-5-|----------------5-5-5-|
|-0-0-0-------0-(0)-0-0-----|----------------------|


 4/4                         3/4
                    PM|
  S S S S S S E +E  S S E E   E. S +E  E +S  E.
|---------------------------|-------------------|
|---------------------------|-------------------|
|---------------------------|-------------------|
|---------------------------|-5--7-(7)-4-(4)----|
|-----5h7---7-----------7-5-|----------------5--|
|-5h7---------0-(0)-0-0-----|-------------------|


 4/4                    3/4
  E. S S S E +E  E E E   E. S +E  E +S  E.
|----------------------|--------------------|
|----------------------|--------------------|
|----------------------|----4-(4)-7-(7)-----|
|----------------------|-5------------------|
|----7---7---------7-5-|----------------5---|
|-0--------0-(0)-0-----|--------------------|


 4/4                    3/4
  E. S S S E +E  E E E   E. S +E  E +S  E.
|----------------------|-------------------|
|----------------------|-------------------|
|----------------------|-------------------|
|----------------------|-5--7-(7)-4-(4)----|
|----7---7---------7-5-|----------------5--|
|-0--------0-(0)-0-----|-------------------|


 4/4                        3/4
  E. S S S E +S  S S S E E   E. S +E  E +S  E.
|--------------------------|---------------------|
|--------------------------|---------------------|
|--------------------------|---------------------|
|--------------------------|----------------4----|
|-3--3---3-3-(3)-3-3-3-3-5-|----2-(2)-5-(5)------|
|--------------------------|-3-------------------|


 4/4                        3/4
  E. S S S E +S  S S S E E   E. S +E  E +S  E.
|--------------------------|-------------------|
|--------------------------|-------------------|
|--------------------------|-------------------|
|--------------------------|-5--7-(7)-4-(4)----|
|----7---7-------------7-5-|----------------5--|
|-0--------0-(0)-0-0-0-----|-------------------|


  E. S +E  E +S  E.   E. S +E  E +S  E.
|-------------------|--------------------|
|-------------------|--------------------|
|-------------------|--------------------|
|-------------------|--------------------|
|-3--5-(5)-2-(2)----|----2-(2)-----------|
|----------------3--|-5--------3-(3)-2---|


  Q=130
  (A5)
 4/4                     3/4
  E. S +E  E +S  E. E E   E. S +E  E +S  E.
|-----------------------|-------------------|
|-----------------------|-------------------|
|-4--------4-(4)----4---|-------------------|
|-2--0-(0)-2-(2)-0--2-5-|-7--0-(0)-5-(5)-4--|
|-----------------------|-------------------|
|-----------------------|-------------------|


 4/4                     5/8
  E. S +E  E +S  E. E E   E. S +E  E E
|-----------------------|--------------|
|-----------------------|--------------|
|-4--------4-(4)----4---|-7------------|
|-2--0-(0)-2-(2)-0--2-5-|----5-(5)-7-0-|
|-----------------------|--------------|
|-----------------------|--------------|


 4/4                     3/4
  E. S +E  E +S  E. E E   E. S +E  E +S  E.
|-----------------------|-------------------|
|-----------------------|-------------------|
|-4--------4-(4)----4---|-------------------|
|-2--0-(0)-2-(2)-0--2-5-|-7--0-(0)-5-(5)-4--|
|-----------------------|-------------------|
|-----------------------|-------------------|


 4/4                     5/8
  E. S +E  E +S  E. E E   E. S +E  E E
|-----------------------|--------------|
|-----------------------|--------------|
|-4--------4-(4)----4---|-7--6-(6)-----|
|-2--0-(0)-2-(2)-0--2-5-|----------7-5-|
|-----------------------|--------------|
|-----------------------|--------------|


 Guitar Solo
               N.C.
 4/4
  Gtr III
  E +E          H.                         W
|----------------------------------------|----------------------------|
|----------------------------------------|----------------------------|
|-4-(4)\---------------------------------|----------------------------|
|-2-(2)\---------------------------------|----------------------------|
|----------------------------------------|----------------------------|
|----------------------------------------|----------------------------|
|
| Gtr V
| E  S   S     +S  S S S S S S S S S S S   S S S S S S S S S S S S Q
|----0---3b3.5-(3)-0-----0---------------|----------------------------|
|--------------------3p0---3p0-----------|----------------------------|
|------------------------------3-2p0-----|-0--------------------------|
|------------------------------------2p0-|---2p0---2---0-----------2--|
|----------------------------------------|-------2---2---2-1p0--------|
|----------------------------------------|---------------------3p0----|


  Gtr V
   |--3--|  |--3--|     |--3--|           |--------6--------|           |--3--|
   E     S  S  S  S     S  S  S  S     S  S  S  S     S  S  S  S     S  S  S  S
|-----12----------12-------------12-------------12-------------12----------|
|15b17-15-12-15b17-15-12-15b17----15-12-15b17----15-12-15b17----15-12-15b17|
|--------------------------------------------------------------------------|
|--------------------------------------------------------------------------|
|--------------------------------------------------------------------------|
|--------------------------------------------------------------------------|


 3/4
   |--3--|           |------5-------|           |--3--|
   S  S  S  S     S  S  S  S     S  S  S  S     S  S  S
|-12-------------12-------------12-------------12-------|
|----15-12-15b17----15-12-15b17----15-12-15b17----15-12-|
|-------------------------------------------------------|
|-------------------------------------------------------|
|-------------------------------------------------------|
|-------------------------------------------------------|


 4/4
                                            |--3--|
   Q      +S   S  S  S  a  S  S  E  +S   S  S  S  S
|-15b17r=(15)-12-------------15---------15----------|
|----------------15-12-15s17----17-(17)----17-15----|
|------------------------------------------------16-|
|---------------------------------------------------|
|---------------------------------------------------|
|---------------------------------------------------|


 5/8
   |---------6----------|  |--3--|      |--3---|
   S  S  S   S     +S   S  S  S  S     +S   S  S  E
|---------------------------------------------------|
|-17----15------------------------------------------|
|----16----\14b15r(14)-12---------------------------|
|-------------------------14-12---------------------|
|-------------------------------12b13r(12)-10-------|
|---------------------------------------------12-10-|


 4/4                                             3/4
   +S   S  E     +S  S S S  S S S  T T S  S S S    S S S S S S S S S S S S
|--------------------------10-7-9-10p9p7------7-|--------------------7p0---|
|---------10b12r(10)-8---8---------------10-8---|-10-9-8-7-----------------|
|----------------------9------------------------|----------9-8-7-8-9-----7h|
|-----------------------------------------------|--------------------------|
|-----------------------------------------------|--------------------------|
|-(10)\-----------------------------------------|--------------------------|


 4/4                                         5/8
  S S  S S  S S  S S  S S  S  S  S  S  S  S    S  S  S  S  S S S S S S
|---0-12-0-15-0-17-0-19-0-22s15-12-------17s|=12-10-------14s5-3-------|
|----------------------------------15-12----|-------12-10--------5-3p0-|
|-8-----------------------------------------|--------------------------|
|-------------------------------------------|--------------------------|
|-------------------------------------------|--------------------------|
|-------------------------------------------|--------------------------|


 4/4
                                  |------6-------|
  S S S  S S S  S  S  S  S  S  S  S  S  S  S  S  S
|-------10--------------14----------------12-14-15-|
|---7-8----8-7----10-12----12-10-12-14-15----------|
|-9------------12----------------------------------|
|--------------------------------------------------|
|--------------------------------------------------|
|--------------------------------------------------|


 3/4
            T                 T
   S  S  S  S  S  S  S  S  S  S  S  S
|----10h12h19p12p10----12h15h22p15p12-|
|-12----------------15----------------|
|-------------------------------------|
|-------------------------------------|
|-------------------------------------|
|-------------------------------------|


 4/4
   T        T        T        T        T        T        T       T
   |------6-------|  |------6-------|  |------6-------|  |-----6------|
   S  S  S  S  S  S  S  S  S  S  S  S  S  S  S  S  S  S  S  S S  S  S S
|-22p15p12-21p15p12-------------------19p15p14-17p15p14-----------------|
|-----------------------------------------------------------------------|
|-------------------19p14p12-18p14p12-----------------------------------|
|-------------------------------------------------------17p14p9-16p14p9-|
|-----------------------------------------------------------------------|
|-----------------------------------------------------------------------|


 5/8
   T        T        T      T      T
   |------6-------|  |-3-|  |----6-----|
   S  S  S  S  S  S  S S S  S S S  S S S
|-15p12p10--------------------------------|
|----------15p12p10-----------------------|
|-------------------14p9p7----------------|
|--------------------------14p9p7---------|
|---------------------------------14p9p7--|
|-----------------------------------------|


 4/4
  E   S  S       +S   S  S  S  S  T  T  S  S  S  S  S  S
|----12-15b15.5-(15)-12-------12h14p12----12-------------|
|----12-----------------15-12----------15----15-14-12-15-|
|--------------------------------------------------------|
|-x/-----------------------------------------------------|
|-x/-----------------------------------------------------|
|--------------------------------------------------------|


 3/4
   S  S  S  S  S  S  S  S  S  S  S  S
|-------------------------------------|
|-14-12-------------------------------|
|-------15-14-13-12-------14-11-------|
|-------------------14-12-------12----|
|----------------------------------14-|
|-------------------------------------|


 4/4
   |------6-------|  |------6-------|  |------6-------|  |------6-------|
   S  S  S  S  S  S  S  S  S  S  S  S  S  S  S  S  S  S  S  S  S  S  S  S
|-------------------------------------------------------------------------|
|-------------------------------------------------------------------------|
|----------------------------------------------------------------16-18-19-|
|----------------------------14-16-17----------16-17-19-16-17-19----------|
|----------14-16-17-14-16-17----------16-17-19----------------------------|
|-14-15-17----------------------------------------------------------------|


 5/8
   |------6-------|  |--3--|  |------6-------|
   S  S  S  S  S  S  S  S  S  S  S  S  S  S  S
|----------------------------19-21-22-19-21-22--||
|----------19-20-22-19-20-22--------------------||
|-18-19-21--------------------------------------||
|-----------------------------------------------||
|-----------------------------------------------||
|-----------------------------------------------||


  Q=124
  A5                    B5  C5       F5E5  N.C.
                                          2/4
  Gtr V
   Q          +E   +E   E   Q.       Q      W
|-22b24======(22)r(22)\---|--------------|----------|
|-------------------------|--------------|----------|
|-------------------------|--------------|----------|
|-------------------------|--------------|----------|
|-------------------------|--------------|----------|
|-------------------------|--------------|----------|
|
| Gtr III
|        PM--|                 PM--|
|  E     S S   E    E   E   E  S S E E E    E E E E
|-------------------------|--------------|----------|
|-------------------------|--------------|----------|
|-------------------------|--------------|----------|
|-------------------------|--------------|----------|
|-------------------------|----------3-2-|----5-----|
|--0-----0-0---0----0---2-|-3--3-3-3-----|-/5---3-2-|
|
| Gtr IV
|        PM--|                 PM--|
|  E     S S   E    E   E   E  S S E E E    E E E E
|-------------------------|--------------|----------|
|-------------------------|--------------|----------|
|-------------------------|----------5-4-|----------|
|--2----------------2---4-|-5--------3-2-|----5-----|
|--0-----0-0---0----0---2-|-3--3-3-3-----|-/5---3-2-|
|-------------------------|--------------|----------|


  A5         B5  C5       F5E5  N.C.
 5/8                           3/4
  Q.       Q     Q.       Q     H.
|--------------|--------------|---------------|
|--------------|--------------|---------------|
|--------------|--------------|---------------|
|--------------|--------------|---------------|
|--------------|--------------|---------------|
|--------------|--------------|---------------|
|
|    PM--|          PM--|          PM
| E  S S E E E   E  S S E E E   E  E E E E E
|--------------|--------------|---------------|
|--------------|--------------|---------------|
|--------------|--------------|---------------|
|--------------|--------------|-4----2--------|
|--------------|----------3-2-|----5---5-3-2--|
|-0--0-0-0-0-2-|-3--3-3-3-----|---------------|
|
|    PM--|          PM--|          PM
| E  S S E E E   E  S S E E E   E  E E E E E
|--------------|--------------|---------------|
|--------------|--------------|---------------|
|--------------|----------5-4-|-4----2--------|
|-2--------2-4-|-5--------3-2-|----5---5-3-2--|
|-0--0-0-0-0-2-|-3--3-3-3-----|---------------|
|--------------|--------------|---------------|


  A5        B5  C5      F5E5  N.C.
 5/8                         2/4
  Gtr III
    PM--|         PM--|
  E S S E E E   E S S E E E    E E E E
|-------------|-------------|----------|
|-------------|-------------|----------|
|-------------|-------------|----------|
|-------------|-------------|----------|
|-------------|---------3-2-|----5-----|
|-0-0-0-0-0-2-|-3-3-3-3-----|-/5---3-2-|
|
| Gtr IV
|   PM--|         PM--|
| E S S E E E   E S S E E E    E E E E
|-------------|-------------|----------|
|-------------|-------------|----------|
|-------------|---------5-4-|----------|
|-2-------2-4-|-5-------3-2-|----5-----|
|-0-0-0-0-0-2-|-3-3-3-3-----|-/5---3-2-|
|-------------|-------------|----------|


  A5        B5  C5      F5E5  N.C.
 5/8                         3/4
    PM--|         PM--|         PM
  E S S E E E   E S S E E E   E E E E E E
|-------------|-------------|-------------|
|-------------|-------------|-------------|
|-------------|-------------|-------------|
|-------------|-------------|-4---2-------|
|-------------|---------3-2-|---5---5-3-2-|
|-0-0-0-0-0-2-|-3-3-3-3-----|-------------|
|
|   PM--|         PM--|         PM
| E S S E E E   E S S E E E   E E E E E E
|-------------|-------------|-------------|
|-------------|-------------|-------------|
|-------------|---------5-4-|-4---2-------|
|-2-------2-4-|-5-------3-2-|---5---5-3-2-|
|-0-0-0-0-0-2-|-3-3-3-3-----|-------------|
|-------------|-------------|-------------|


  A5        B5   C5                  G5            E5
 5/8
  Gtr III
    PM--|            PM---|            PM--|         PM--|
  E S S E E  E    E  S  S  E  E  E   E S S E E E   E S S E E E
|--------------|-------------------|-------------|-------------|
|--------------|-------------------|-------------|-------------|
|--------------|-------------------|-------------|-------------|
|-9-------9-11-|-12----------12-12-|-7-------7-7-|-4-------4-4-|
|-7-7-7-7-7--9-|-10-10-10-10-10-10-|-5-5-5-5-5-5-|-2-2-2-2-2-2-|
|--------------|-------------------|-------------|-------------|
|
| Gtr IV
|   PM--|            PM---|            PM--|         PM--|
| E S S E E  E    E  S  S  E  E  E   E S S E E E   E S S E E E
|--------------|-------------------|-------------|-------------|
|--------------|-------------------|-------------|-------------|
|--------------|-------------------|-------------|-------------|
|--------------|-------------------|-------------|-------------|
|-7-------7--9-|-10----------10-10-|-5-------5-5-|-2-------2-2-|
|-5-5-5-5-5--7-|--8--8--8--8--8--8-|-3-3-3-3-3-3-|-0-0-0-0-0-0-|


  A5        B5   C5                  G5            N.C.
                                                  2/4
    PM--|            PM---|            PM--|
  E S S E E  E    E  S  S  E  E  E   E S S E E E   E S S E S S
|--------------|-------------------|-------------|-------------|
|--------------|-------------------|-------------|-------------|
|--------------|-------------------|-------------|-------------|
|-9-------9-11-|-12----------12-12-|-7-------7-7-|-------------|
|-7-7-7-7-7--9-|-10-10-10-10-10-10-|-5-5-5-5-5-5-|-3-2-0-------|
|--------------|-------------------|-------------|-------3-2-3-|
|
|   PM--|            PM---|            PM--|
| E S S E E  E    E  S  S  E  E  E   E S S E E E   E S S E S S
|--------------|-------------------|-------------|-------------|
|--------------|-------------------|-------------|-------------|
|--------------|-------------------|-------------|-------------|
|--------------|-------------------|-------------|-3-2-0-------|
|-7-------7--9-|-10----------10-10-|-5-------5-5-|-------3-2-3-|
|-5-5-5-5-5--7-|--8--8--8--8--8--8-|-3-3-3-3-3-3-|-------------|


  A5        B5C5        F5E5N.C.       A5        B5C5        F5E5N.C.
 3/4             4/4
    PM--|         PM--|                  PM--|       PM--|         PM
  E S S E E E E   S S E E E  E E E E   E S S E E E E S S E   E E E E E E E E
|---------------|--------------------|---------------------|---------------|
|---------------|--------------------|---------------------|---------------|
|---------------|--------------------|---------------------|---------------|
|---------------|--------------------|---------------------|-----4---2-----|
|---------------|-------3-2----5-----|---------------------|-3-2---5--5-3-2|
|-0-0-0-0-0-2-3-|-3-3-3-----/5---3-2-|-0-0-0-0-0-2-3-3-3-3-|---------------|
|
|   PM--|         PM--|                  PM--|       PM--|         PM
| E S S E E E E   S S E E E  E E E E   E S S E E E E S S E   E E E E E E E E
|---------------|--------------------|---------------------|---------------|
|---------------|--------------------|---------------------|---------------|
|---------------|-------5-4----------|---------------------|-5-4-4---2-----|
|-2-------2-4-5-|-------3-2----5-----|-2-------2-4-5-------|-3-2---5--5-3-2|
|-0-0-0-0-0-2-3-|-3-3-3-----/5---3-2-|-0-0-0-0-0-2-3-3-3-3-|---------------|
|---------------|--------------------|---------------------|---------------|


 Piano Solo
 5/8                           2/4           5/8
  Gtr VI
                                    |-3-|
  E  S S E E E   E  S S E E E   E E S S S E   E  S S E E E   E  S S E E E
|----5p3-5-----|----3p1-3-1-0-|-3-----------|----5p3-5-----|----3p1-3-1-0-|
|------------0-|-1------------|-3---1h3p1-0-|------------0-|-1------------|
|-2--------2---|--------------|---0---------|-2--------2---|--------------|
|--------------|----------3---|-------------|--------------|--------------|
|-0--------0---|--------------|-------------|-0--------0---|--------------|
|------------0-|-1----------1-|-3---3-------|------------0-|-1--------1---|
  Q.       E E   Q.       E E   Q   Q         Q.       E E   Q.       Q


 3/4                   5/8                           2/4
      |-3-|   |-3-|                                       |-3-|
  E E S S S E S S S E   E  S S E E E   E  S S E E E   E E S S S E
|-3-------------------|----5p3-5-----|----3p1-3-1-0-|-3------------|
|-3---1h3p1-0---------|------------0-|-1------------|-3---1h3p1-0--|
|---0---------2h4p2-0-|-2--------2---|--------------|---0----------|
|---------------------|--------------|----------3-2-|-0------------|
|-----3-----2-0-------|-0--------0-2-|-3------------|-----3-----2--|
|-3-----------------3-|--------------|--------------|---3----------|
  Q   E     E E     E   Q.       E E   Q.       E E   E E E     E


 5/8                             3/4
                                  |----6----| |----6----| |----6----|
  E  S S E E E     E  S S E E E   S S S S S S S S S S S S S S S S S S
|----5p3-5-------|----3p1-3-1-0-|-------3-----------------------0h1h3-|
|------------0---|-1------------|-3p0-----3p0-------------0h1h3-------|
|-2--------2-----|--------------|-----0---------------0h2-------------|
|----------------|--------------|---------------0h2-3-----------------|
|-0--------0-----|------------3-|-2-----------3-----------------------|
|------------3p1-|-0--------3---|-------3-----5-----3-----1-----0-----|
  Q.       E S S   Q.       E E   E     E     E     E     E     E
                                  |


 5/8                                        2/4
                                             |----6----|
  S  S S S S S S S S S   S S S S S S S S E   S S S S S S S S E
|-1--------------------|-----------------0-|-------------------|
|----1-----------0-1h3-|-1p0-------1-3---1-|-3p1p0-------------|
|------2p0-2-----------|-----2---------0---|-------2h4p0-----0-|
|------------------0---|-------0-----------|---------------0---|
|------------2-3-------|-0-------3---2---3-|-------------3-----|
|-1------------1---3---|-------------------|-3-----------1---0-|
  Q.           E   E     Q       E   E   E   Q           E   E


 5/8
                                              |-3-|
  S S S S S S S S S S   S  S   S  S +E  S  S  S S S
|---------------------|--------0--------3p=1--0-----|
|---------------------|-1h=3------------1-(1)---3p1-|
|-0h2---2-------0-2h4-|-0-(0)-(0)-2-(2)-------------|
|-----3-2-----3---2---|-----------------------------|
|-5-------5-3-5-------|-----------3-(3)-3-----3-----|
|---------------------|-1---------------------------|
  Q       E   E   E     Q.              E     E


 3/4
  |--3--|    |----6----| |-----6-----|
  S  S  S  E S S S S S S S S  S S S  S
|----------------------0--------7h8h10--|
|-3-(3)(3)---------1h3---6h8h10---------|
|-0h=2p=0----0h2h4--------------0-------|
|----------0----------------------------|
|------------3-----2-----0--------------|
|-3-------------------------------------|
  Q          E     E     E      E


  AmVIII
 5/8                          2/4
  Gtr VI
  Q.       Q     W              W
  |
  /

  Gtr III
     PM--|         PM--|
  E  S S E E E   E S S E E E    E E E E
|--------------|-------------|----------|
|--------------|-------------|----------|
|--------------|-------------|----------|
|--------------|-------------|----------|
|--------------|---------3-2-|----5-----|
|-0--0-0-0-0-2-|-3-3-3-3-----|-/5---3-2-|


 5/8                              3/4
  W                W               W
    PM--|            PM|
  E S S E E  S S   E S S E  E  E   E  E E  E E E
|----------------|---------------|-----------------|
|----------------|---------------|-----------------|
|----------------|---------------|-----------------|
|----------------|---------------|-----------------|
|---------7------|------------10-|-9----7----------|
|-0-0-0-0---10-8-|-7-7-7-7-10----|---10---10-8-7---|


 5/8                           2/4
    PM--|          PM|            PM
  E S S E E  E   E S S E E  E   E S S E E
|--------------|--------------|-----------|
|--------------|--------------|-----------|
|--------------|--------------|-----------|
|--------------|--------------|-----------|
|--------------|-7-7-7-7-9-10-|-5-5-5-----|
|-8-8-8-8-8-10-|--------------|-------8-7-|


 5/8                         3/4
    PM--|         PM--|         PM|
  E S S E E E   E S S E E E   E S S E E E E
|-------------|-------------|----------------|
|-------------|-------------|----------------|
|-------------|-------------|----------------|
|-------------|-----------5-|-------5-4------|
|-------------|---------7---|-5-5-5-----7-5--|
|-5-5-5-5-5-7-|-8-8-8-8-----|----------------|


 5/8                           6/8
    PM--|          PM|
  E S S E E  E   E S S E E  E   E E  E E E E    E E E  E E E
|--------------|--------------|--------------|---------------|
|--------------|--------------|--------------|---------------|
|--------------|--------------|--------------|---------------|
|--------------|--------------|-7-9-10-------|----7-9-10-----|
|--------------|-7-7-7-7-9-10-|--------5-7-9-|-10--------8---|
|-7-7-7-7-8-10-|--------------|--------------|-------------8-|


   Organ Solo
    A5        B5  C5      F5E5  N.C.
   5/8                         2/4
    Gtr III
      PM--|         PM--|
    E S S E E E   E S S E E E    E E E E
||--------------|-------------|----------|
||o-------------|-------------|----------|
||--------------|-------------|----------|
||--------------|-------------|----------|
||o-------------|---------3-2-|----5-----|
||--0-0-0-0-0-2-|-3-3-3-3-----|-/5---3-2-|
|
|   Gtr IV
|     PM--|         PM--|
|   E S S E E E   E S S E E E    E E E E
||--------------|-------------|----------|
||o-------------|-------------|----------|
||--------------|---------5-4-|----------|
||--2-------2-4-|-5-------3-2-|----5-----|
||o-0-0-0-0-0-2-|-3-3-3-3-----|-/5---3-2-|
||--------------|-------------|----------|


  A5        B5  C5      F5E5  N.C.
 5/8                         3/4
    PM--|         PM--|         PM
  E S S E E E   E S S E E E   E E E E E E
|-------------|-------------|----------------||
|-------------|-------------|---------------o||
|-------------|-------------|----------------||
|-------------|-------------|-4---2----------||
|-------------|---------3-2-|---5---5-3-2---o||
|-0-0-0-0-0-2-|-3-3-3-3-----|----------------||
|
|   PM--|         PM--|         PM
| E S S E E E   E S S E E E   E E E E E E
|-------------|-------------|----------------||
|-------------|-------------|---------------o||
|-------------|---------5-4-|-4---2----------||
|-2-------2-4-|-5-------3-2-|---5---5-3-2----||
|-0-0-0-0-0-2-|-3-3-3-3-----|---------------o||
|-------------|-------------|----------------||


  A5        B5   C5                  G5            E5
 5/8
    PM--|            PM---|            PM--|         PM--|
  E S S E E  E    E  S  S  E  E  E   E S S E E E   E S S E E E
|--------------|-------------------|-------------|-------------|
|--------------|-------------------|-------------|-------------|
|--------------|-------------------|-------------|-------------|
|-9-------9-11-|-12----------12-12-|-7-------7-7-|-4-------4-4-|
|-7-7-7-7-7--9-|-10-10-10-10-10-10-|-5-5-5-5-5-5-|-2-2-2-2-2-2-|
|--------------|-------------------|-------------|-------------|
|
|   PM--|            PM---|            PM--|         PM--|
| E S S E E  E    E  S  S  E  E  E   E S S E E E   E S S E E E
|--------------|-------------------|-------------|-------------|
|--------------|-------------------|-------------|-------------|
|--------------|-------------------|-------------|-------------|
|--------------|-------------------|-------------|-------------|
|-7-------7--9-|-10----------10-10-|-5-------5-5-|-2-------2-2-|
|-5-5-5-5-5--7-|--8--8--8--8--8--8-|-3-3-3-3-3-3-|-0-0-0-0-0-0-|


  A5        B5   C5                  G5            N.C.
                                                  2/4
    PM--|            PM---|            PM--|
  E S S E E  E    E  S  S  E  E  E   E S S E E E   E S S E S S
|--------------|-------------------|-------------|-------------|
|--------------|-------------------|-------------|-------------|
|--------------|-------------------|-------------|-------------|
|-9-------9-11-|-12----------12-12-|-7-------7-7-|-------------|
|-7-7-7-7-7--9-|-10-10-10-10-10-10-|-5-5-5-5-5-5-|-3-2-0-------|
|--------------|-------------------|-------------|-------3-2-3-|
|
|   PM--|            PM---|            PM--|
| E S S E E  E    E  S  S  E  E  E   E S S E E E   E S S E S S
|--------------|-------------------|-------------|-------------|
|--------------|-------------------|-------------|-------------|
|--------------|-------------------|-------------|-------------|
|--------------|-------------------|-------------|-3-2-0-------|
|-7-------7--9-|-10----------10-10-|-5-------5-5-|-------3-2-3-|
|-5-5-5-5-5--7-|--8--8--8--8--8--8-|-3-3-3-3-3-3-|-------------|


  A5        B5  C5      F5E5  N.C.
 5/8                         2/4
    PM--|         PM--|
  E S S E E E   E S S E E E    E E E E
|-------------|-------------|----------|
|-------------|-------------|----------|
|-------------|-------------|----------|
|-------------|-------------|----------|
|-------------|---------3-2-|----5-----|
|-0-0-0-0-0-2-|-3-3-3-3-----|-/5---3-2-|
|
|   PM--|         PM--|
| E S S E E E   E S S E E E    E E E E
|-------------|-------------|----------|
|-------------|-------------|----------|
|-------------|---------5-4-|----------|
|-2-------2-4-|-5-------3-2-|----5-----|
|-0-0-0-0-0-2-|-3-3-3-3-----|-/5---3-2-|
|-------------|-------------|----------|


  A5        B5  C5      F5E5  N.C.
 5/8                         3/4
    PM--|         PM--|         PM
  E S S E E E   E S S E E E   E E E E E E
|-------------|-------------|-------------|
|-------------|-------------|-------------|
|-------------|-------------|-------------|
|-------------|-------------|-4---2-------|
|-------------|---------3-2-|---5---5-3-5-|
|-0-0-0-0-0-2-|-3-3-3-3-----|-------------|
|
|   PM--|         PM--|         PM
| E S S E E E   E S S E E E   E E E E E E
|-------------|-------------|-------------|
|-------------|-------------|-------------|
|-------------|---------5-4-|-4---2-------|
|-2-------2-4-|-5-------3-2-|---5---5-3-5-|
|-0-0-0-0-0-2-|-3-3-3-3-----|-------------|
|-------------|-------------|-------------|


 5/8                           6/8
    PM--|          PM|
  E S S E E  E   E S S E E  E   E E  E E E E    E E E  E E E
|--------------|--------------|--------------|---------------|
|--------------|--------------|--------------|---------------|
|--------------|--------------|--------------|---------------|
|--------------|--------------|-7-9-10-------|----7-9-10-----|
|--------------|-7-7-7-7-9-10-|--------5-7-9-|-10--------8---|
|-7-7-7-7-8-10-|--------------|--------------|-------------8-|
|
|   PM--|          PM|
| E S S E E  E   E S S E E  E   E E  E E E E    E E E  E E E
|--------------|--------------|--------------|---------------|
|--------------|--------------|--------------|---------------|
|--------------|--------------|--------------|---------------|
|--------------|--------------|--------------|---------3-----|
|--------------|--------------|-5-7--8-------|--3-5-7----1---|
|-0-0-0-0-1--3-|-5-5-5-5-7--8-|--------3-5-7-|-------------1-|


   Keyboard Solo
    Q=130
    (A5)
   4/4                     3/4
    Gtr III
    E. S +E  E +S  E. E E   E. S +E  E +S  E.
||------------------------|-------------------|
||o-----------------------|-------------------|
||--4--------4-(4)----4---|-------------------|
||--2--0-(0)-2-(2)-0--2-5-|-7--0-(0)-5-(5)-4--|
||o-----------------------|-------------------|
||------------------------|-------------------|


 4/4                     5/8
  E. S +E  E +S  E. E E   E. S +E  E E
|-----------------------|---------------|
|-----------------------|---------------|
|-4--------4-(4)----4---|-7-------------|
|-2--0-(0)-2-(2)-0--2-5-|----5-(5)-7-0--|
|-----------------------|---------------|
|-----------------------|---------------|


 4/4                     3/4
  E. S +E  E +S  E. E E   E. S +E  E +S  E.
|-----------------------|-------------------|
|-----------------------|-------------------|
|-4--------4-(4)----4---|-------------------|
|-2--0-(0)-2-(2)-0--2-5-|-7--0-(0)-5-(5)-4--|
|-----------------------|-------------------|
|-----------------------|-------------------|


 4/4                     5/8
  E. S +E  E +S  E. E E   E. S +E  E E
|-----------------------|---------------||
|-----------------------|--------------o||
|-4--------4-(4)----4---|-7--6-(6)------||
|-2--0-(0)-2-(2)-0--2-5-|----------7-5--||
|-----------------------|--------------o||
|-----------------------|---------------||


 Guitar/Keyboard Unison
  Q=124
  N.C.(D)
 4/4
  Gtr IV
                           |--3--|            |---3---|
  S  S  S  S  S   S  S  S  S  S  S  S  S  S   S  S    S  S
|---------15--------19-20-19h20p19-15-17-19--17h19p==17----|
|------------19--15-------------------------------------19-|
|---14-19--------------------------------------------------|
|----------------------------------------------------------|
|----------------------------------------------------------|
|----------------------------------------------------------|
|
| Gtr III
| E     S  S +S   S  E     E        S  S +S   S    E
|----------------------------------------------------------|
|----------------------------------------------------------|
|----------------------------------------------------------|
|----------------------------------------------------------|
|----------------------------------------------------------|
|-5-----5--5-(5)--5--5-----3--------3--3-(3)--3----3-------|


                      |--3--|       |---3---|  |---3----|  |--3--|
   S  S  S  S  S   S  S  S  S  S  S S  S    S  S   S    S  S  S  S
|-------------15p=14-------10--------------------------------------|
|--------------------15p10-----------------------------------------|
|-----------------------------12-10-9h10h==12----------------------|
|-17p16---------------------------------------10h=12h==14----------|
|-------17-12---------------------------------------------10-------|
|------------------------------------------------------------13s12-|
|
|  E     S  S +S   S  E        E    S    S    +S     S     E
|------------------------------------------------------------------|
|------------------------------------------------------------------|
|------------------------------------------------------------------|
|------------------------------------------------------------------|
|------------------------------------------------------------------|
|--2-----2--2-(2)--2--2--------1----1----1----(1)----1-----1-------|


                                              |---3----|
   S  S  S  S   S   S  S  S  S  S  S  S   S   S  S     S  S
|----------15---------19-20-22-19----17--19--17h19p===17----|
|--------------19--15-------------20---------------------19-|
|----14-19--------------------------------------------------|
|-----------------------------------------------------------|
|-----------------------------------------------------------|
|-----------------------------------------------------------|
|
|  E     S  S  +S   S  E     E     S  S  +S   S     E
|-----------------------------------------------------------|
|-----------------------------------------------------------|
|-----------------------------------------------------------|
|-----------------------------------------------------------|
|-12----12-12-(12)-12-12----10----10-10-(10)-10----10-------|
|-----------------------------------------------------------|


   |--3--|  |---3---|  |---3----|  |--3--|  |--3--|
   S  S  S  S  S    S  S   S    S  S  S  S  S  S  S  S  S  S   S  T  T  S
|---------------------------------10h12h14-15p13p12------------------------|
|---------------------------------------------------15-13-17---------------|
|---------------------12h=14h==16-----------------------------14-----------|
|----------12h14h==16--------------------------------------------17p15p14--|
|--------------------------------------------------------------------------|
|-15h17h19-----------------------------------------------------------------|
|
|  E        S    S    +S     S     E        E        S  S +S   S  S     S
|--------------------------------------------------------------------------|
|--------------------------------------------------------------------------|
|--------------------------------------------------------------------------|
|--------------------------------------------------------------------------|
|--9--------9----9----(9)----9-----9--------8--------8--8-(8)--8--8-----0--|
|--------------------------------------------------------------------------|


               |--3--|        |--3---|  |--3--|
  S   S  S  S  S  S  S  S  S  S   S  S  S  S  S  S  S  S  S
|----------------------------17p=15p14----14h15p14----------|
|----------15-------------15-----------17----------15-------|
|-------------17p16p14--------------------------------14----|
|----12-17-------------17--------------------------------17-|
|-----------------------------------------------------------|
|-----------------------------------------------------------|
|
| Q.                    E    +H
|-----------------------------------------------------------|
|-----------------------------------------------------------|
|-----------------------------------------------------------|
|-----------------------------------------------------------|
|-5---------------------5----(5)----------------------------|
|-3---------------------3----(3)----------------------------|


   |--3--|  |---3---|               |--3---|  |--3--|  |--3--|  |--3--|
   S  S  S  S  S    S  S   S  S  S  S   S  S  S  S  S  S  S  S  S  S  S
|----------------------------17-19-20p=19-15-------12--------------------|
|--------------------------------------------15s13----15-----------------|
|-------------------------19-----------------------------14p12-----------|
|-16h17h19------------17---------------------------------------16p14p12--|
|----------17h19h==21----------------------------------------------------|
|------------------------------------------------------------------------|
|
|  E.            S    +E      E    +H
|------------------------------------------------------------------------|
|------------------------------------------------------------------------|
|------------------------------------------------------------------------|
|--7-------------7----(7)-----7----(7)-----------------------------------|
|--5-------------5----(5)-----5----(5)-----------------------------------|
|------------------------------------------------------------------------|


 4/4
   |--3--|  |---3---|        |--3--|  |--3--|       |---3----|  |--3--|
   S  S  S  S  S    S  E     S  S  S  S  S  S  E    S   S    S  S  S  S
|---------------------------------------------15------------------------|
|---------------------15-------12h13p12---------------------------------|
|----11h12p11---------------14----------14p12------11h=12h==14p12p11----|
|-14----------14p==12------------------------------------------------12-|
|-----------------------------------------------------------------------|
|-----------------------------------------------------------------------|
|
|  E        S    S    +S  S  E        E        S S +S     S     E
|-----------------------------------------------------------------------|
|-----------------------------------------------------------------------|
|-----------------------------------------------------------------------|
|-----------------------------------------------------------------------|
|-----------------------------------------------------------------------|
|--5--------5----5----(5)-5--5--------3--------3-3-(3)----3-----3-------|


                                  |---3---|  |--------6--------|
   S  S  S  S  S   S  S  S  S  S  S  S    S  S   S    S  S  S  S
|-----------------------15-12-13------------------------------------|
|--------------------15----------15p13p==11-----13p==11-------------|
|----------14-11--12------------------------14----------------------|
|-------12----------------------------------------------14h15-12----|
|-10s12-------------------------------------------------------------|
|-------------------------------------------------------------------|
|
|  E     S  S +S   S  E     E     S    S    +S     S     E
|-------------------------------------------------------------------|
|-------------------------------------------------------------------|
|-------------------------------------------------------------------|
|-------------------------------------------------------------------|
|-------------------------------------------------------------------|
|--2-----2--2-(2)--2--2-----1-----1----1----(1)----1-----1----------|


                             |--3--|             |---3----|
   S  S  S  S   S   S  S  S  S  S  S  S  S   S   S  S     S  S
|--------------------------------------------------------------|
|--------------------------------------------------------------|
|----------12---------16-17-16h17p16-12-14--16--14h16p===14----|
|--------------16--12---------------------------------------16-|
|----12-17-----------------------------------------------------|
|--------------------------------------------------------------|
|
|  E     S  S  +S   S  E     E        S  S  +S   S     E
|--------------------------------------------------------------|
|--------------------------------------------------------------|
|--------------------------------------------------------------|
|--------------------------------------------------------------|
|-12----12-12-(12)-12-12----10-------10-10-(10)-10----10-------|
|--------------------------------------------------------------|


                      |--3--|       |---3---|  |---3----|  |---3---|
   S  S  S  S  S   S  S  S  S  S  S S  S    S  S   S    S  S  S    S
|-------------15p=14-------10-----------------------------------------|
|--------------------15p10--------------------------------------------|
|-----------------------------12-10-9h10h==12-------------------------|
|-17p16---------------------------------------10h=12h==14-------------|
|-------17-12---------------------------------------------10----------|
|------------------------------------------------------------13s==12--|
|
|  E     S  S +S   S  E        E    S    S    +S     S     S    S
|---------------------------------------------------------------------|
|---------------------------------------------------------------------|
|---------------------------------------------------------------------|
|---------------------------------------------------------------------|
|--9-----9--9-(9)--9--9--------8----8----8----(8)----8-----8----0-----|
|---------------------------------------------------------------------|


               |--3--|        |--3---|  |--3--|
  S   S  S  S  S  S  S  S  S  S   S  S  S  S  S  S  S  S  S
|----------------------------17p=15p14----14h15p14----------|
|----------15-------------15-----------17----------15-------|
|-------------17p16p14--------------------------------14----|
|----12-17-------------17--------------------------------17-|
|-----------------------------------------------------------|
|-----------------------------------------------------------|
|
| Q.                    E    +H
|-----------------------------------------------------------|
|-----------------------------------------------------------|
|-----------------------------------------------------------|
|-----------------------------------------------------------|
|-5---------------------5----(5)----------------------------|
|-3---------------------3----(3)----------------------------|


   |--3--|  |---3---|               |--3---|  |--3--|  |--3--|  |--3--|
   S  S  S  S  S    S  S   S  S  S  S   S  S  S  S  S  S  S  S  S  S  S
|----------------------------17-19-20p=19-15-------12--------------------|
|--------------------------------------------15s13----15-----------------|
|-------------------------19-----------------------------14p12-----------|
|-16h17h19------------17---------------------------------------16p14p12--|
|----------17h19h==21----------------------------------------------------|
|------------------------------------------------------------------------|
|
|  E.            S    +E      E    +H
|------------------------------------------------------------------------|
|------------------------------------------------------------------------|
|------------------------------------------------------------------------|
|--7-------------7----(7)-----7----(7)-----------------------------------|
|--5-------------5----(5)-----5----(5)-----------------------------------|
|------------------------------------------------------------------------|


   |--3--|  |--3--|     |--3--|  |--3---|     |--3--|  |--3--|
   S  S  S  S  S  S  E  S  S  S  S   S  S  E  S  S  S  S  S  S
|-----------------------------------------22-------------------|
|-------------------15----19h20p19-----------------------------|
|----11h12p11----------21-----------21p19----17h19-16----------|
|-14----------14p12-----------------------------------17h19-16-|
|--------------------------------------------------------------|
|--------------------------------------------------------------|
|
|  Q                 E  E       +H
|--------------------------------------------------------------|
|--------------------------------------------------------------|
|--------------------6--7-------(7)----------------------------|
|--------------------7-----------------------------------------|
|--0-----------------------------------------------------------|
|--------------------------------------------------------------|


   |--3--|  |--3--|      |--3--|  |--3---|  |--3--|  |--3--|  |--3--|
   S  S  S  S  S  S  E   S  S  S  S   S  S  S  S  S  S  S  S  S  S  S
|------------------------------------------------------------19h20h22--|
|---------------------------------------------------19h20h22-----------|
|-------------------19---------------------17h19h21--------------------|
|----16h17p16--------------------17h=19h21-----------------------------|
|-19----------19p17-----17h19h21---------------------------------------|
|----------------------------------------------------------------------|
|
|  Q                 E   E       +H
|----------------------------------------------------------------------|
|----------------------------------------------------------------------|
|--------------------6---7-------(7)-----------------------------------|
|--------------------7-------------------------------------------------|
|--0----------------(0)------------------------------------------------|
|----------------------------------------------------------------------|


 Pre-Chorus
  Q=120
  Csus2                         Gsus2
  Gtr II
    E   S  S E E  S  S E  E E     E   S  S E E  S  S E  E E
    |   |  | | |  |  | |  | |     |   |  | | |  |  | |  | |
    /   /  / / /  /  / /  / /     /   /  / / /  /  / /  / /

    >
   +W                            +H             H
|-(22)------------------------|-(22)------------------------|
|-----------------------------|-----------------------------|
|-----------------------------|-----------------------------|
|-----------------------------|-----------------------------|
|-----------------------------|-----------------------------|
|-----------------------------|-----------------------------|
|
|   E   E    E E +E    Q.         E   E    E E +E    Q.
|-----------------------------|--------------0-(0)----------|
|--------------3-(3)----------|------------3---------3------|
|------------2---------2------|-------2---------------------|
|-------0---------------------|---0--(0)--------------------|
|-----------------------------|-----------------------------|
|---3--(3)--------------------|-----------------------------|


  Dsus2
  E S S  E  E  S  S E E E   E S S  E  E  S  S E E E
  | | |  |  |  |  | | | |   | | |  |  |  |  | | | |
  / / /  /  /  /  / / / /   / / /  /  /  /  / / / /

  W                         W
|-------------------------|--------------------------|
|-------------------------|--------------------------|
|-------------------------|--------------------------|
|-------------------------|--------------------------|
|-------------------------|--------------------------|
|-------------------------|--------------------------|
|
| Q      E  E +H            Q      E  E +Q      Q
|-------------------------|--------------------------|
|-------------------------|--------------------------|
|--------6--7-(7)---------|--------6--7-(7)-----6----|
|--------7----------------|--------7-----------------|
|-0-----(0)---------------|-0-----(0)----------------|
|-------------------------|--------------------------|


  Csus2                      G/B
  E  S  S E E  S  S E  E E   E  S  S E E  S  S E  E E
  |  |  | | |  |  | |  | |   |  |  | | |  |  | |  | |
  /  /  / / /  /  / /  / /   /  /  / / /  /  / /  / /

  Gtr III
  E  E    E E +E    Q.       E  E    E E +E    Q.
|--------------------------|-----------0-(0)----------|
|-----------3-(3)----------|---------3---------3------|
|---------2---------2------|----2---------------------|
|----0---------------------|-0-(0)--------------------|
|--------------------------|--------------------------|
|-3-(3)--------------------|--------------------------|


  Dsus2
  E S S  E  E  S  S E E E   E S S  E  E  S  S E E E
  | | |  |  |  |  | | | |   | | |  |  |  |  | | | |
  / / /  /  /  /  / / / /   / / /  /  /  /  / / / /

  Q      E  E +H            Q      E  E +Q      Q
|-------------------------|--------------------------|
|-------------------------|--------------------------|
|--------6--7-(7)---------|--------6--7-(7)-----6----|
|--------7----------------|--------7-----------------|
|-0-----(0)---------------|-0-----(0)----------------|
|-------------------------|--------------------------|


  Csus2                     G/B
  E  S  S E E  S  S E E E   E  S  S E E  S  S E E E
  |  |  | | |  |  | | | |   |  |  | | |  |  | | | |
  /  /  / / /  /  / / / /   /  /  / / /  /  / / / /

  E  E    E E +E    E E E   E  E    E E +E    E E E
|-------------------------|-----------0-(0)---------|
|-----------3-(3)---------|-------------------3-----|
|---------2---------2-0---|---------2-----------2---|
|----0------------------0-|----0------------------0-|
|-------------------------|-------------------------|
|-3-(3)-------------------|-2-(2)-------------------|


  Dsus2                     A/C#
  E  S  S E E  S  S E E E   E  S  S E E  S  S E E E
  |  |  | | |  |  | | | |   |  |  | | |  |  | | | |
  /  /  / / /  /  / / / /   /  /  / / /  /  / / / /

  E  E    E E +E    E E E   E  E    E E +E    Q   E
|-----------0-(0)---------|-----------0-(0)----------|
|---------0---------0---0-|---------0---------0------|
|-------------------------|--------------------------|
|----7----------------7---|----6------------------6--|
|-------------------------|--------------------------|
|-5-(5)-------------------|-4-(4)--------------------|


  Csus2                     G/B
  E  S  S E E  S  S E E E   E  S  S E E  S  S E E E
  |  |  | | |  |  | | | |   |  |  | | |  |  | | | |
  /  /  / / /  /  / / / /   /  /  / / /  /  / / / /

  Gtr III
  E  E    E E +E    E E E   E  E    E E +E    E E E
|-------------------------|-----------0-(0)---------|
|-----------3-(3)---------|-------------------3-----|
|---------2---------2-0---|---------2-----------2---|
|----0------------------0-|----0------------------0-|
|-------------------------|-------------------------|
|-3-(3)-------------------|-2-(2)-------------------|
|
| W                         W
|-------------------------|-------------------------|
|-------------------------|-------------------------|
|-------------------------|-------------------------|
|-------------------------|-------------------------|
|-------------------------|-------------------------|
|-------------------------|-------------------------|


  Bbsus2   N.C.
  W                             W
                                              ~~~~
  E   E  E E +E   E +E    E    +E  Q  E +E    Q    +E
|---------------------------|---------------------------|
|---------------------------|------8--8-(8)-[10]--(10)\-|
|----------4-(4)--5-(5)-/10-|-(10)----------------------|
|--------5------------------|---------------------------|
|-----3---------------------|---------------------------|
|-1--(1)--------------------|---------------------------|
|
| Gtr IV
|                         ~~~~~~~~~           ~~~~
| Q.       E +E   E  E    E    +E  Q  E +E    Q    +E
|---------------------------|---------------------------|
|---------------------------|---------------------------|
|----------9-(9)-10---------|------9--9-(9)--10---(10)\-|
|-------------------12---12-|-(12)----------------------|
|---------------------------|---------------------------|
|---------------------------|---------------------------|


   Chorus
    N.C.                                       G5A5           C5D5
                      3/4                 4/4                2/4
    E E E E +E  E Q    E E E +E    +E  E   E E E E +E  E Q    E E   Q
||-------------------|-------------------|------------------|-----------|
||o------------------|-------------------|------------------|-----------|
||-------------------|-------------------|------------------|-----------|
||-------------------|-------------------|-----7s9-(9)------|-----------|
||o-----5s7-(7)------|-------------------|-----5s7-(7)------|-5s7---7---|
||--0-3---------5-7--|-3-5-5-(5)b7r(5)-3-|-0-3---------5-7--|-3s5---5---|
|
|   E E E E +E  E Q    E E E +E    +E  E   E E E E +E  E Q    E E   Q
||-------------------|-------------------|------------------|-----------|
||o------------------|-------------------|------------------|-----------|
||-------------------|-------------------|------------------|-----/14\--|
||------5s7-(7)------|-------------------|------------------|-5s7-/14\--|
||o-0-3---------5-7--|-3-5-5-(5)b7r(5)-3-|-0-3-5s7-(7)-5-7--|-3s5-------|
||-------------------|-------------------|-----3s5-(5)------|-----------|


  N.C.
 4/4                3/4
                                  ~~~
  E E E E +E  E Q    E E E +E    +E  E
|------------------|-------------------|
|------------------|-------------------|
|------------------|-------------------|
|------------------|-------------------|
|-----5s7-(7)------|-------------------|
|-0-3---------5-7--|-3-5-5-(5)b6r(5)-3-|
|
|                                 ~~~
| E E E E +E  E Q    E E E +E    +E  E
|------------------|-------------------|
|------------------|-------------------|
|------------------|-------------------|
|-----5s7-(7)------|-------------------|
|-0-3---------5-7--|-3-5-5-(5)b6r(5)-3-|
|------------------|-------------------|


                     1.         2.
      G5A5           C5D5             G5
 4/4                2/4        4/4
  E E E E +E  E Q    E E Q      E E E E +E  E E E
|------------------|---------||-------------------|
|------------------|--------o||-------------------|
|------------------|---------||-------------------|
|-----7s9-(9)------|---------||-------7-(7)-------|
|-----5s7-(7)------|-5s7-7--o||-------5-(5)---3-2-|
|-0-3---------5-7--|-3s5-5---||-3-5-3-------0-----|
|
| E E E E +E  E Q    E E Q      E E E E +E  E E E
|------------------|---------||-------------------|
|------------------|--------o||-------------------|
|------------------|---------||-------------------|
|------------------|-5s7-7---||-------------------|
|-0-3-5s7-(7)-5-7--|-3s5-5--o||-3-5-3-5-(5)-0-----|
|-----3s5-(5)------|---------||-------3-(3)---1-0-|


 Outro
  Q=115
  D5                            (Dm7)           F
  Gtr III
                                                 >
  W             +W              +W              +W
|-------------|---------------|---------------|-------------|
|-------------|---------------|---------------|-------------|
|-2-----------|-(2)-----------|-(2)-----------|-(2)---------|
|-2-----------|-(2)-----------|-(2)-----------|-(2)---------|
|-0-----------|-(0)-----------|-(0)-----------|-(0)---------|
|-------------|---------------|---------------|-------------|
|
| Gtr IV
|                                                >
| W             +W              +W              +W
|-------------|---------------|---------------|-------------|
|-3-----------|-(3)-----------|-(3)-----------|-(3)---------|
|-2-----------|-(2)-----------|-(2)-----------|-(2)---------|
|-0-----------|-(0)-----------|-(0)-----------|-(0)---------|
|-0-----------|-(0)-----------|-(0)-----------|-(0)---------|
|-------------|---------------|---------------|-------------|
|
| Gtr I
| E E H.         E  E H.         E  E H.         E  E H.
|-------------|---------------|---------------|-------------|
|-------------|---------------|---------------|-------------|
|-----2-------|-------2-------|-------0-------|-------0-----|
|---2---------|-----2---------|-----2---------|-----2-------|
|-0-----------|--0------------|--0------------|--3----------|
|-------------|---------------|---------------|-------------|


    D5                          (Dm7)         F
    Gtr I
    E E H.        E E H.        E E H.        E E H.
||--------------|-------------|-------------|------------||
||o-------------|-------------|-------------|-----------o||
||------2-------|-----2-------|-----0-------|-----0------||
||----2---------|---2---------|---2---------|---2--------||
||o-0-----------|-0-----------|-0-----------|-3---------o||
||--------------|-------------|-------------|------------||


                                            H.=HQ=80
  D5                          (Dm7)         F
  E E H.        E E H.        E E H.        E E H.        W
|-------------|-------------|-------------|-------------|------*|
|-------------|-------------|-------------|-------------|------*|
|-----2-------|-----2-------|-----0-------|-----0-------|------*|
|---2---------|---2---------|---2---------|---2---------|------*|
|-0-----------|-0-----------|-0-----------|-3-----------|------*|
|-------------|-------------|-------------|-------------|------*|

----------------------------------------------------------------------

3. MISUNDERSTOOD
Tuning - D,A,D,G,B,E

e|--2---------2-3-2---0---------0---0h2---------2-3-2--------------|
B|--3---3-----------3-3---3----3----3-----3-----------3----1-------|
G|--2-------2---------2-------2-----2---------2------------3----3--|
D|--0-----------------0-------------0------------------------------|
A|---------------------------------------------------------3-------|
D|-----0-----------------0---------------0-----------------0---0---|

e -----0---2---------2-3-2---0-------------------0-----------------|
B ---1-----3---3-----------3-3---3----3---2-----3---0-----------0--|
G ---------2-------3---------2-------3----2---2-----4---2-------4--|
D ---------0-----------------0------------2--2------3-------2---2--|
A --3-------------------------------------0---------0--0---0----0--|
D ------------0-----------------0----------------------------------|

e ----------------------------------------------------------------|
B -----------0----------------------------------------------------|
G ---2-------4--5-4-2---------------------------------------------|
D -------2---3----------------------------------------------------|
A --0---0----0----------------------------------------------------|
D ----------------------------------------------------------------|


Verse (0:40)

e|-2-------2-3-2---0---------0---0h2---------2-3-2---------------0--|
B|-3---3---3-----3-3---3----3----3-----3-----3-----3---1--------1---|
G|-2-------2-------2-------2-----2---------2-2---------3----3-------|
D|-0---------------0-------------0----------------------------------|
A|-----------------------------------------------------3-------3----|
D|----0---------------0---------------0----------------0---0--------|


e -2---------2-3-2---0---------------------------------------------|
B -3---3-----3-----3-3---3----3------3-------2-------3---------2---|
G -2-------2-2-------2-------3-----0---0---0---0---0---0-----0---0-|
D -0-----------------0-----------0---------------------------------|
A ---------------------------------------0-------1--------0--------|
D ----0-----------------0------------------------------------------|


e -2-------2-3-2---0---------0--0h2---------2-3-2---------------0--|
B -3---3---3-----3-3---3----3---3-----3-----3-----3---1--------1---|
G -2-------2-------2-------2----2---------2-2---------3----3-------|
D -0---------------0------------0----------------------------------|
A ----------------------------------------------------3-------3----|
D ----0---------------0--------------0----------------0---0--------|


e -2---------2-3-2---0---------------------------------------------|
B -3---3-----3-----3-3---3----3------3-------2-------3---------2---|
G -2-------2-2-------2-------3-----0---0---0---0---0---0-----0---0-|
D -0-----------------0-----------0---------------------------------|
A ---------------------------------------0-------1--------0--------|
D ----0-----------------0------------------------------------------|


e ----------------------------------------------------------------|
B ------3-------2-------------------------------------------------|
G ----0---0---0---0------3-2-----3-2------3-2------3-2------------|
D --0------------------0-------0--------0--------0----------------|
A ----------0-----------------------------------------------------|
D -------------------0-------2--------3--------5------------------|

-------------------------------------------------------------------------

4. THE GREAT DEBATE
Tuning - E,A,D,G,B,E

Q=164
                                                 N.C.(E5)
 7/4
  Gtr I

|------------------|------------------|------------------|
|------------------|------------------|------------------|
|------------------|------------------|------------------|
|------------------|------------------|------------------|
|------------------|------------------|------------------|
|------------------|------------------|----------0-------|


|---------------------|-------------------|
|---------------------|-------------------|
|---------------------|-------------------|
|---------------------|-------------------|
|---------------------|-------------------|
|-(0)--------(0)------|-(0)--------(0)----|


|---------------------|----------------|------------------|
|---------------------|----------------|------------------|
|---------------------|----------------|------------------|
|---------------------|----------------|----------2-------|
|---------------------|----------------|------------------|
|-(0)--------(0)------|----------------|------------------|


|----------------------|--------------------|-------------------|
|----------------------|--------------------|-------------------|
|----------------------|--------------------|-------------------|
|-(2)--------(2)----3--|-(3)--------0-------|-(0)--------(0)----|
|----------------------|--------------------|-------------------|
|----------------------|--------------------|-------------------|


                                  >
|----------------------|--------------------------|
|----------------------|--------------------------|
|--------1----(1)------|-(1)------(1)----(1)------|
|-(0)------------------|--------------------------|
|----------------------|--------------------------|
|----------------------|--------------------------|


|------------------|-------------------|-------------------|
|------------------|-------------------|-------------------|
|------------------|-4--------(4)------|-(4)--------(4)----|
|------------------|-------------------|-------------------|
|------------------|-------------------|-------------------|
|------------------|-------------------|-------------------|


|---------------------|--------------------|
|---------------------|------------7-------|
|-6-------7--(7)------|-(7)----------------|
|---------------------|--------------------|
|---------------------|--------------------|
|---------------------|--------------------|

                                          >
|-------------------------------|----------------------|
|-9--------(9)-(9)----(9)-------|-(9)----(9)----(9)----|
|-------------------------------|----------------------|
|-------------------------------|----------------------|
|-------------------------------|----------------------|
|-------------------------------|----------------------|


|------------------|-------------------|-------------------|
|------------------|-8--------(8)------|-7--------(7)------|
|------------------|-------------------|-------------------|
|------------------|-------------------|-------------------|
|------------------|-------------------|-------------------|
|------------------|-------------------|-------------------|


|-------------------|--------------------------|
|-9--------(9)------|--------------------------|
|-------------------|-7----(7)---6-(6)--(6)----|
|-------------------|--------------------------|
|-------------------|--------------------------|
|-------------------|--------------------------|


|-----------------|-------------------|-------------------|----------------|
|-----------------|-------------------|-------------------|----------------|
|5-------(5)------|-2--------(2)------|-4--------(4)------|-1--------(1)---|
|-----------------|-------------------|-------------------|----------------|
|-----------------|-------------------|-------------------|----------------|
|-----------------|-------------------|-------------------|----------------|


|-----------------|-------------------|-------------------|----------------|
|8-------(8)------|-7--------(7)------|-9--------(9)------|----------------|
|-----------------|-------------------|-------------------|-7--------6-----|
|-----------------|-------------------|-------------------|----------------|
|-----------------|-------------------|-------------------|----------------|
|-----------------|-------------------|-------------------|----------------|


|-----------------------|---------------------|
|-----------------------|---------------------|
|-5--------(5)---5-(5)--|-(5)----2----9-------|
|-----------------------|---------------------|
|-----------------------|---------------------|
|-----------------------|---------------------|


|-------------------|-----------------|
|-------------------|-----------------|
|-4--------(4)------|-1--------(1)----|
|-------------------|-----------------|
|-------------------|-----------------|
|-------------------|-----------------|


    E5
    Gtr I
                                               4x
||--0-------------(0)-0-0-|-0--------(0)-------||
||o-0-------------(0)-0-0-|-0--------(0)------o||
||--9-------------(9)-----|-9--------(9)-------||
||--9-------------(9)-----|-9--------(9)-------||
||o-7-------------(7)-----|-7--------(7)------o||
||--0-------------(0)-----|-0--------(0)-------||


|-||--0--------------------------(0)-0-0----|
|-||o-0--------------------------(0)-0-0----|
|-||--9--------------------------(9)--------|
|-||--9--------------------------(9)--------|
|-||o-7--------------------------(7)--------|
|-||--0--------------------------(0)--------|
|
|     Gtr III
|-||----------------------------------------|
|-||o---------------------------------------|
|-||----------------------------------------|
|-||----------------------------------------|
|-||o--------/7----------------7-----7------|
|-||--0---0--------0-(0)-0-(0)----0---------|


                                        N.C.
                                       6/4
                                          Gtrs II, III
                                                                      4x
|-0-------------(0)--------------||-||--------------------------------||
|-0-------------(0)-------------o||-||o------------------------------o||
|-9-------------(9)--------------||-||--------------------------------||
|-9-------------(9)--------------||-||--------------------------------||
|-7-------------(7)-------------o||-||o-7-7-5-7-5-8-7-5-7-7-5-8-7-5--o||
|-0-------------(0)--------------||-||--------------------------------||
|                                4x                                   4x
|--------------------------------||-||--------------------------------||
|-------------------------------o||-||o------------------------------o||
|--------------------------------||-||--------------------------------||
|--------------------------------||-||--------------------------------||
|-------/7----------------7---7-o||-||o------------------------------o||
|-0--0--------0-(0)-0-(0)---0----||-||--------------------------------||


   Verse
   7/4
    Gtr III
  PM---------------------------------------------------------------------|               
                                                       4x
||----------------------------------|------------------------------------|
||o---------------------------------|---------------------------------o--|
||----------------------------------|------------------------------------|
||----------------------------------|------------------------------------|
||o-7-7-5-7-5-8-7-5-7-7-5-8-7-5-7-5-|-7-7-5-7-5-9-7-5-7-7-5-9-7-5-7-5-o--|
||----------------------------------|------------------------------------|


    Gtr III
    PM------------------------------------------------------------------|
                                                                          4x
||----------------------------------|-------------------------------------||
||o---------------------------------|------------------------------------o||
||9-9-7-9-7-10-9-7-9-9-7-10-9-7-9-7-|-9-9-7-9-7-11-9-7-9-9-7-11-9-7-9-7---||
||----------------------------------|-------------------------------------||
||o---------------------------------|------------------------------------o||
||----------------------------------|-------------------------------------||
|
|   Gtr II
|   PM------------------------------------------------------------------|
|          4x
||----------------------------------|-------------------------------------||
||o---------------------------------|------------------------------------o||
||----------------------------------|-------------------------------------||
||----------------------------------|-------------------------------------||
||o7-7-5-7-5-8-7-5-7-7-5--8-7-5-7-5-|-7-7-5-7-5--9-7-5-7-7-5--9-7-5-7-5--o||
||----------------------------------|-------------------------------------||

   Pre-Chorus
          Asus2              (A7)            N.C.               E5/B
   4/4
    Gtrs II, III

||--------0------|-----0-----0-0-0-0-|-------0------|-----0-----0--0--|
||o-------0------|-----0-----8-8-8-8-|-------0------|-----0-----0--0--|
||--------9------|-----7-----9-9-9-9-|-------9------|-----9-----9--9--|
||--------7------|-----9-----7-7-7-7-|-------7------|-----7-----9--9--|
||o-0--0-------0-|-(0)---0-0---------|-0--0-------0-|-(0)---0-0-------|
||---------------|-------------------|--------------|-----------------|


  E
 7/4

|-0----------0-(0)---------------|-0----------0-(0)----------------||
|-0----------0-(0)---------------|-0----------0-(0)---------------o||
|-9----------9-(9)---------------|-9----------9-(9)----------------||
|-6----------6-(6)---------------|-6----------6-(6)----------------||
|--------------------------------|--------------------------------o||
|----0--0--0-------0-(0)-0-(0)-0-|----0--0--0-------0-(0)-0-(0)-0--||


 Chorus
  D5/A           Dsus2           A5              Asus2Ams4
 4/4

|--------------|-0-------------|---------------|-------------|
|-3--------3---|------3--------|---------------|-3-----5-----|
|-2--------2---|-----------x-x-|-2-------------|-4-----5-----|
|-0--------0---|-----------x-x-|-2-------------|-2-----2-----|
|-0-------(0)--|-----------x-x-|-0---------(0)-|-0----(0)----|
|--------------|---------------|---------------|-------------|


  Em                              F5           F

|----0--(0)-----|------0--------|------------|--------------|
|----0--(0)-----|------0--------|------------|--------------|
|----0--(0)-----|---------------|------------|-2------------|
|-2-------------|---------------|----3-------|------3----x--|
|-2-------------|-----------x-x-|-3--3-------|-----------x--|
|-0-----------0-|-0---------x-x-|-1--1-------|-----------x--|


  D5/A         Dsus2       Am           Asus2Ams4

|------------|-0---------|------------|-----------|
|-3--3-------|------3----|----1-------|-3----5----|
|-2--2-------|-----------|-2--2-------|-4----5----|
|-0--0-------|-----------|-2--2-------|-2----2----|
|-0--0-------|-----------|-0--0-------|-0----0----|
|------------|-----------|------------|-----------|


  G5            Gsus2         F5          Fsus2

|-3-----------|-------------|---------------|-------------|
|-3-----------|-------------|---------------|-------------|
|-0---------0-|-2-----------|-------------0-|-(0)---------|
|-0---------0-|-0---------x-|----3--(3)-----|--------3----|
|-------------|-----------x-|-3--3--(3)-----|-------------|
|-3-----------|-------------|-1--1--(1)-----|-------------|


                                     Verse
    N.C.
   13/8
        PM    PM    PM                PM----------------------|
                               4x                                8x
||-----------------------------||-||-----------------------------||
||o---------------------------o||-||o---------------------------o||
||-----------------------------||-||-----------------------------||
||-----------------------------||-||-----------------------------||
||o-7-5---7-5---7-5---7-5-7-8-o||-||o-7-5---7-5---7-5---7-5-7-8-o||
||------0-----0-----0----------||-||------0-----0-----0----------||

  E5   C5/G    D5/A          F5   G5    E5   C5/G    D5/A     Fsus2Gsus2
 4/4
                                                                        3x
|---------------|---------------||------------------|-------------------||
|---------------|---------------||o-----------------|------------------o||
|----5-(5)-5-7--|-(7)-7---------||-------5-(5)-5-7--|-(7)-7-------------||
|2-2-5-(5)-5-7--|-(7)-7--3--3S5-||--2--2-5-(5)-5-7--|-(7)-7----5--5S7---||
|2-2-3-(3)-3-5--|-(5)-5--3--3S5-||o-2--2-3-(3)-3-5--|-(5)-5----3--3S5--o||
|0-0-3-(3)-3-5--|-(5)-5--1--1S3-||--0--0-3-(3)-3-5--|-(5)-5----1--1S3---||


  E5D5  F5 E5  E5D5    F5 E5            E5D5  F5 E5  E5D5    F5 E5
      PM    PM    PM                     PM     PM      PM

|----------------|------------------|------------------|------------------|
|----------------|------------------|------------------|------------------|
|-9s7---10s9--9s7|---10s9-----------|-9s7---10s9---9s7-|---10s9-----------|
|-9s7---10s9--9s7|---10s9---x-x-x-x-|-9s7---10s9---9s7-|---10s9---x-x-x-x-|
|-7s5----8s7--7s5|----8s7---x-x-x-x-|-7s5----8s7---7s5-|----8s7---x-x-x-x-|
|-----0------0---|-0------x-x-x-x-x-|-----0------0-----|-0------x-x-x-x-x-|


  E5D5  F5 E5  E5D5    F5 E5         E5D5  F5 E5  E5D5    F5 E5  E5
      PM     PM      PM                  PM     PM      PM     PM

|------------------|---------------|------------------|-----------------|
|------------------|---------------|------------------|-----------------|
|-9s7---10s9---9s7-|---10s9--------|-9s7---10s9---9s7-|---10s9---9------|
|-9s7---10s9---9s7-|---10s9--------|-9s7---10s9---9s7-|---10s9---9------|
|-7s5----8s7---7s5-|----8s7--------|-7s5----8s7---7s5-|----8s7---7------|
|-----0------0-----|-0-------------|-----0------0-----|-0------0--------|


    N.C.                                      E5      C5      D5
    PM------------------------------|           PM--|   PM--|   PM|
                                       8x
||------------------|------------------||-||-------------------------|
||o-----------------|-----------------o||-||o------------------------|
||------------------|------------------||-||----------5-------7------|
||------------------|------------------||-||--2-------5-------7------|
||o-7-5---7-5---7-5-|---7-5---7-5-7-8-o||-||o-2-------3-3-3-3-5-5-5--|
||------0-----0-----|-0-----0----------||-||--0-0-0-0----------------|


            Fsus2   Gsus2 E5D5  F5 E5  E5D5
  PM|   PM--------|           PM     PM

|----------------------||------------------|
|---------------------o||------------------|
|-----7----------------||-9s7---10s9---9s7-|
|-----7-----5-----5S7--||-9s7---10s9---9s7-|
|-5-5-5-----3-----3S5-o||-7s5----8s7---7s5-|
|-------0-0-1-1-1-1S3--||-----0------0-----|


    F5 E5            E5D5  F5 E5  E5D5
  PM                     PM     PM

|------------------|------------------|
|------------------|------------------|
|---10s9-----------|-9s7---10s9---9s7-|
|---10s9---x-x-x-x-|-9s7---10s9---9s7-|
|----8s7---x-x-x-x-|-7s5----8s7---7s5-|
|-0------x-x-x-x-x-|-----0------0-----|


    F5 E5         E5D5  F5 E5  E5D5    F5 E5
  PM                  PM     PM      PM

|---------------|------------------|---------------|
|---------------|------------------|---------------|
|---10s9--------|-9s7---10s9---9s7-|---10s9--------|
|---10s9--------|-9s7---10s9---9s7-|---10s9--------|
|----8s7--------|-7s5----8s7---7s5-|----8s7--------|
|-0-------------|-----0------0-----|-0-------------|


  E5D5  F5 E5  E5D5    F5 E5  E5
                                   <
      PM     PM      PM     PM

|------------------|--------------------|
|------------------|--------------------|
|-9s7---10s9---9s7-|---10s9---9---(9)---|
|-9s7---10s9---9s7-|---10s9---9---(9)---|
|-7s5----8s7---7s5-|----8s7---7---(7)---|
|-----0------0-----|-0------0-----------|


  Pre-Chorus
    A5
          PM|             PM|

||--------------------|---------------------|
||o-------------------|---------------------|
||--2-2-------2---2-2-|---------------------|
||--2-2-------2---2-2-|---------2-4-5-4-2---|
||o-0-0---0-0-0---0-0-|---0-0-3-----------3-|
||--------------------|---------------------|


        PM|             PM|

|-------------------|------------------------|
|-------------------|------------------------|
|-2-2-------2---2-2-|------------------------|
|-2-2-------2---2-2-|---------7-9-10-9-7-----|
|-0-0---0-0-0---0-0-|---0-0-7------------7---|
|-------------------|------------------------|


  E5
        PM|             PM|

|-------------------|-------------------|
|-------------------|-------------------|
|-------------------|-----------1-2-1---|
|-2-2-------2---2-2-|---------0-------2-|
|-2-2-------2---2-2-|-------2-----------|
|-0-0---0-0-0---0-0-|---0-0-------------|


        PM|             PM|

|-------------------|-----------------------------||
|-------------------|----------------------------o||
|-------------------|-----------1-2-1-------------||
|-2-2-------2---2-2-|---------0-------2-0---------||
|-2-2-------2---2-2-|-------2-------------2-0----o||
|-0-0---0-0-0---0-0-|---0-0-------------------4---||


 Chorus
  D5/A       Dsus2           A5         Asus2suAm

|----------|-0-------------|----------|---------------|
|-3--------|------3--------|----------|--3------5-----|
|-2--------|-----------x-x-|-2--------|--4------5-----|
|-0--------|-----------x-x-|-2--------|--2------2-----|
|-0--------|-----------x-x-|-0--------|-(0)----(0)----|
|----------|---------------|----------|---------------|


  Em                           F5         F

|----0-------|----0--(0)-----|----------|-------------|
|----0-------|----0--(0)-----|----------|-------------|
|-0----------|---------------|----------|-2-----------|
|-2----------|---------------|-3--------|------3------|
|-2----------|---------------|-3--------|-----------x-|
|-0----------|-0-----------0-|-1--------|-----------x-|


  D5/A         Dsus2       A5           Asus2suAm

|------------|-0---------|------------|---------------|
|----3-------|------3----|----1-------|--3------5-----|
|----2-------|-----------|-2--2-------|--4------5-----|
|-0--0-------|-----------|-2--2-------|--2------2-----|
|-0--0-------|-----------|-0--0-------|-(0)----(0)----|
|------------|-----------|------------|---------------|


  G5            Gsus2         F5           Fsus2

|-3-----------|-------------|----------------|---------------|
|-3-----------|-------------|----------------|---------------|
|-0-----------|-2-----------|--------------0-|-(0)-----------|
|-0---------0-|-0-----------|-3-3----(3)-----|--------3------|
|-------------|-------------|-3-3----(3)-----|-------------0-|
|-3-----------|-----------0-|-1-1----(1)-----|---------------|


  A5          Asus2Am     D5         (D6) (D7)

|-----------|-----------|----------|-----------|
|-----------|-----------|----------|-----------|
|------2----|-4----5----|-2--------|-4----5----|
|-2----2----|-2----2----|-0--------|-0----0----|
|-0----0----|-0----0----|----------|-----------|
|-----------|-----------|----------|-----------|


  F5         Fsus2           F          F5

|----------|---------------|----------|------|
|----------|---------------|-1--------|------|
|----------|-0-------------|-2--------|------|
|-3--------|-3-------------|-3--------|-3----|
|-3--------|-3---------x-x-|-3--------|-3----|
|-1--------|-1---------x-x-|-1--------|-1----|

   Interlude
    Q.=124
    D5              Bbmaj7/D Db5        D5              (Fsus2)   (C/E)
   12/8
    Gtr II

||----------------|-------------------|---------------|------------------||
||o-3-------------|--3--------3-------|-3-------------|-----------------o||
||--2-------------|--3--------1-------|-2-------------|------0-----------||
||--0-------------|--0--------0-------|-0-------------|------------------||
||o-0-------------|-(0)------(0)------|-0-------------|-3---------------o||
||----------------|-------------------|---------------|-1---------0------||
|
|   Gtr IV (Drop D Tuning)
||----------------|-------------------|---------------|------------------||
||o-3-------------|-(3)---------------|-3-------------|-----------------o||
||--2-------------|-(2)---------------|-2-------------|------------------||
||--0-------------|-(0)---------------|-0-------------|------------------||
||o-0-------------|-(0)---------------|-0-------------|-----------------o||
||--0-------------|-(0)---------------|-0-------------|-3---------2------||


    N.C.                        D5
    PM--------------------|
                            8x
||---------------------------||---------------|--------|
||o-------------------------o||-3-------------|-(3)----|
||---------------------------||-2-------------|-(2)----|
||--0-3-5-0-3-5-0-5-6-0-3-5--||-0-------------|-(0)----|
||o-------------------------o||-0-------------|-(0)----|
||---------------------------||---------------|--------|
|
|   PM---------------------------------------------------| 8x
||---------------------------||---------------|----------|
||o-------------------------o||---------------|----------|
||---------------------------||---------------|----------|
||---------------------------||-0-------------|-(0)------|
||o-------------------------o||-0-------------|-(0)------|
||--0-3-5-0-3-5-0-5-6-0-3-5--||-0-------------|-(0)------|


                    >

|--------------|----------------|----------------|----------------|--------|
|-(3)----------|-(3)------------|-(3)------------|-(3)------------|--------|
|-(2)----------|-(2)------------|-(2)------------|-(2)------------|--------|
|-(0)----------|-(0)------------|-(0)------------|-(0)------------|--------|
|-(0)----------|-(0)------------|-(0)------------|-(0)------------|--------|
|--------------|----------------|----------------|----------------|--------|
|
|                   >
|--------------|----------------|----------------|----------------|--------|
|--------------|----------------|----------------|----------------|--------|
|--------------|----------------|----------------|----------------|--------|
|-(0)----------|-(0)------------|-(0)------------|-(0)------------|--------|
|-(0)----------|-(0)------------|-(0)------------|-(0)------------|--------|
|-(0)----------|-(0)------------|-(0)------------|-(0)------------|--------|


    N.C.
    Gtr I
    <                  <

||-------------------|------------------|
||o------------------|------------------|
||-------------------|------------------|
||--7-------(7)------|-8-------(8)------|
||o------------------|------------------|
||-------------------|------------------|


  <                  <                  <

|------------------|------------------|----------------|
|------------------|------------------|----------------|
|------------------|------------------|----------------|
|-6-------(6)------|-7-------(7)------|-3-------(3)----|
|------------------|------------------|----------------|
|------------------|------------------|----------------|


  1.
  <          <            <

|-----------------------|------------------|-----------------||
|-----------------------|------------------|----------------o||
|-----------------------|------------------|-----------------||
|-2----(2)--------------|------------------|-----------------||
|------------3----(3)---|-5-------(5)------|-(5)------------o||
|-----------------------|------------------|-----------------||


  2.
  <          <            <

|-----------------------|------------------|--------|
|-----------------------|------------------|--------|
|------------5----(5)---|-7-------(7)------|-(7)----|
|-2----(2)--------------|------------------|--------|
|-----------------------|------------------|--------|
|-----------------------|------------------|--------|


    D5              Bbmaj7/D        (Db5)           D5
    Gtr II

||----------------|---------------|---------------|-------|
||o-3-------------|-3-------------|-3-------------|-3-----|
||--2-------------|-3-------------|-1-------------|-2-----|
||--0-------------|-0-------------|-0-------------|-0-----|
||o---------------|---------------|---------------|-------|
||----------------|---------------|---------------|-------|
|
|   Gtr IV
||----------------|---------------|---------------|-------|
||o-3-------------|-3-------------|-3-------------|-3-----|
||--2-------------|-3-------------|-1-------------|-2-----|
||--0-------------|-0-------------|-0-------------|-0-----|
||o-0-------------|-0-------------|-0-------------|-0-----|
||--0-------------|-0-------------|-0-------------|-0-----|


  F5              (C/E)   C5

|---------------|-----------------|
|---------------|-----------------|
|---------------|---------5-------|
|-3-------------|---------5-------|
|-3-------------|-3-------3-------|
|-1-------------|-0---------------|
|
|
|---------------|-----------------|
|---------------|-----------------|
|---------------|---------5-------|
|-3-------------|---------5-------|
|-3-------------|-3-------3-------|
|-3-------------|-2---------------|


  N.C.
  PM----------------------------------------------|

|-------------------------|-----------------------------||
|-------------------------|----------------------------o||
|-------------------------|-----------------------------||
|-0-3-5-0-3-5-0-5-6-0-3-5-|-0-3-5-0-3-5-0-5-6-0-3-5-----||
|-------------------------|----------------------------o||
|-------------------------|-----------------------------||
|
| PM-------------------------------------------------------|
|-------------------------|--------------------------------|
|-------------------------|----------------------------o---|
|-------------------------|--------------------------------|
|-------------------------|--------------------------------|
|-------------------------|----------------------------o---|
|-0-3-5-0-3-5-0-5-6-0-3-5-|-0-3-5-0-3-5-0-5-6-0-3-5--------|

   Breakdown
                                   3/2
    PM----------------------------------------------------|

||---------------------------||-||---------------------------||
||o-------------------------o||-||o-------------------------o||
||---------------------------||-||---------------------------||
||--0-3-5-0-3-5-0-5-6-0-3-5--||-||--0-3-5-0-3-5-0-5-6-0-3-5--||
||o-------------------------o||-||o-------------------------o||
||---------------------------||-||---------------------------||
|
|   PM----------------------------------------------------------|
||---------------------------||-||------------------------------|
||o-------------------------o||-||o-------------------------o---|
||---------------------------||-||------------------------------|
||---------------------------||-||------------------------------|
||o-------------------------o||-||o-------------------------o---|
||--0-3-5-0-3-5-0-5-6-0-3-5--||-||--0-3-5-0-3-5-0-5-6-0-3-5-----|


                                   6/4

||---------------------------||-||---------------------------||
||o-------------------------o||-||o-------------------------o||
||---------------------------||-||---------------------------||
||--0-3-5-0-3-5-0-5-6-0-3-5--||-||--0-3-5-0-3-5-0-5-6-0-3-5--||
||o-------------------------o||-||o-------------------------o||
||---------------------------||-||---------------------------||
|
|
||---------------------------||-||---------------------------||
||o-------------------------o||-||o-------------------------o||
||---------------------------||-||---------------------------||
||---------------------------||-||---------------------------||
||o-------------------------o||-||o-------------------------o||
||--0-3-5-0-3-5-0-5-6-0-3-5--||-||--0-3-5-0-3-5-0-5-6-0-3-5--||


Bridge
  Gtrs II, III
  PM--------|   PM--------------------|   PM---------

|-------------------------|-------------------------|
|-------------------------|-------------------------|
|-------------7-----------|-------------7-----------|
|-------------------------|-------------------------|
|-5-5---5---5---5---5---5-|---5---5---5---5---5---5-|
|-------------------------|-------------------------|


 -----------|   PM------|     PM------------------|

|-------------------------|----------------------------|
|-------------------------|----------------------------|
|-------------7-----------|----------------------------|
|-------------------------|-------------2--------------|
|-5-5---5---5---5---5---5-|----------------------------|
|-------------------------|---1---1---1---0---0---0----|


  PM--------|   PM------|     PM---------------------

|-------------------------|-------------------------|
|-------------------------|-------------------------|
|-------------5-----------|-------------------------|
|-------------------------|-------------7-----------|
|-3-3---3---3---3---3---3-|-------------------------|
|-------------------------|---3---3---3---5---5---5-|


 -----------|   PM--------------------|   PM------|

|-------------------------|----------------------------|
|-------------------------|----------------------------|
|-------------7-----------|-7-----------7--------------|
|-------------------------|----------------------------|
|-5-5---5---5---5---5---5-|---5---5---5---5---5---5----|
|-------------------------|----------------------------|


  D5                         Bb/D         Db5
  Gtr I

|--------------------------|---------------------------|
|-3------------------------|-3------------3------------|
|-2------------------------|-3------------1------------|
|-0------------------------|-0------------0------------|
|--------------------------|---------------------------|
|--------------------------|---------------------------|
|
| Gtrs II, III
| PM---------|   PM---------------------|    PM----------|
|--------------------------|-----------------------------|
|--------------------------|-----------------------------|
|--------------7-----------|--------------7--------------|
|--------------------------|-----------------------------|
|-5--5---5---5---5---5---5-|----5---5---5----5---5---5---|
|--------------------------|-----------------------------|


  D5                         Fsus2        C/E

|--------------------------|------------------------------|
|-3------------------------|-1------------1---------------|
|-2------------------------|-0------------0---------------|
|-0------------------------|-3------------2---------------|
|--------------------------|------------------------------|
|--------------------------|------------------------------|
|
|------------|   PM------|      PM--------------------------|
|--------------------------|--------------------------------|
|--------------------------|--------------------------------|
|--------------7-----------|--------------------------------|
|--------------------------|--------------2-----------------|
|-5--5---5---5---5---5---5-|--------------------------------|
|--------------------------|----1---1---1----0---0---0------|


  C5                         G5           A5

|--------------------------|---------------------------|
|--------------------------|---------------------------|
|-5------------------------|-0------------2------------|
|-5------------------------|-0------------2------------|
|-3------------------------|--------------0------------|
|--------------------------|-3-------------------------|
|
| PM---------|   PM------|      PM-----------------------|
|--------------------------|-----------------------------|
|--------------------------|-----------------------------|
|--------------5-----------|-----------------------------|
|--------------------------|--------------7--------------|
|-3--3---3---3---3---3---3-|-----------------------------|
|--------------------------|----3---3---3----5---5---5---|


  D5

|--------------------------|-----------------------------|
|-3------------------------|-3---------------------------|
|-2------------------------|-2---------------------------|
|-0------------------------|-0---------------------------|
|--------------------------|-----------------------------|
|--------------------------|-----------------------------|
|
|------------|   PM---------------------|   PM-------------|
|--------------------------|-------------------------------|
|--------------------------|-------------------------------|
|--------------7-----------|-7------------7----------------|
|--------------------------|-------------------------------|
|-5--5---5---5---5---5---5-|----5---5---5---5---5---5------|
|--------------------------|-------------------------------|


  Keyboard Solo
    N.C.
   12/8
    Gtr III

||--------------------------|
||o-------------------------|
||--------------------------|
||--------------------------|
||o---7-5-7-5-------5-----5-|
||--0---------0-6-7---5-3---|

|-------------------------|-------------------------|
|-------------------------|-------------------------|
|-------------------------|-------------------------|
|-----------------0-2-----|-------------------------|
|---7-5-7-5---5-----------|---7-5-7-5-------5-----5-|
|-0---------5---3-----3-5-|-0---------0-6-7---5-3---|


                           4x
|--------------------------||
|-------------------------o||
|--------------------------||
|--------------------------||
|---7-5-7-5---5---5-------o||
|-0---------5---3---0-3-2--||


 6/4
  Gtr IIGtr Gtr III Gtr II    Gtr III Gtr II  Gtrs II, III
  PM----------------------------------------------|

|-------------------------|--------------------------|
|-------------------------|--------------------------|
|-------------------------|--------------------------|
|-------------------------|--------------------------|
|-------------7-----------|-------------7------------|
|-0-0---0---0---0---0---0-|---0---0---0---0---0---0--|


Guitar Solo
  Q=92
 4/4
  Gtr I
     ~~~~~~~               ~~~~~~~
   a Q  +S  S +T  T T T S  E. +S  S +T  T T T
|---------------------------------------------|
|---------------------------------7-(7)h8p7p6-|
|-------------------------/6--(6)-------------|
|-11s4--(4)-4-(4)h5p4p3-4---------------------|
|---------------------------------------------|
|---------------------------------------------|


                    .5___/
  |--3--| |----3----|
  E  E  E E  E  S  +S      a  +E.  S  T  T  T  T  T  T  T  T
|---------9h14-14-(14)h===17-(17)-13-14h15p14p13-14h15p14p13--|
|-7s10-10-----------------------------------------------------|
|-------------------------------------------------------------|
|-------------------------------------------------------------|
|-------------------------------------------------------------|
|-------------------------------------------------------------|


   ~~                                                    T
                      |--3--| |------6-------|     |--3--|  |-3-|      |---5---|
   Q   +S     S  +S   T  T  T T  T  T  T  T  T T T T  T  T  T T T T  T T T T T T
|-15--(15)-/15-(15)p14p13p12s9h10h11h12p11p10p9s7h9h10h12p10p9p8p7----------|
|---------------------------------------------------------------------------|
|---------------------------------------------------------------------------|
|---------------------------------------------------------------------------|
|---------------------------------------------------------------------------|
|---------------------------------------------------------------------------|


   T                                     T                T                T        T
   |-----6-----| |----6-----|     |-3-|  |---5---| |---5----| |---5---| |-3--|      |-3-|
   T  T T T T  T T T T T T  T T T T T T  T T T T T T T T  T T T T T T T T  T T T T  T T TT T
|----------------------------------------------------------------------------------------------|
|10p9p8p7h8h9-12p10p9p8p7----------------------------------------------------------------------|
|------------------------10p9p8p7h8h9h11s9p7p6h7h9h12p9p7p6------------------------------------|
|----------------------------------------------------------9p7p5h7h12p9p7p5--------------------|
|-----------------------------------------------------------------9p7p5h7h12p9p7p5h10p7p5p4h5--|
|----------------------------------------------------------------------------------------------|


     PM--|
  E. T T S S S S S S S S S  S  S  S
|----------------------------------------------------------14s|
|-------------------------------------------------------------|
|-------------------------------------4-7-6-----9-6s11h12-----|
|------------------------------------5------4h5---------------|
|9p7p5h7h12p9p7p5h10p7p5p4h5-4--4-4-4-------------------------|
|-------------------------------------------------------------|


                     ~~~~~~~~~~~~
|-19-14------------------14-15-14h15p14--14-15-14h15p14--14-15-14h15p14--|
|------15-14-----17b19r17--------------17--------------17--------------17|
|-----------16-14--------------------------------------------------------|
|------------------------------------------------------------------------|
|------------------------------------------------------------------------|
|------------------------------------------------------------------------|

        |------6-------|  |--------6--------|  |----6-----|
   Q    S  S  S  S  S  S  S  S  a  S  S  S  S  S S  S S S S
|14-15-14-----/24-19----------19-15----------17-12---------12-7-----|
|---------17---------20-19s15-------17-15s12-------13-12s8------8-7-|
|-------------------------------------------------------------------|
|-------------------------------------------------------------------|
|-------------------------------------------------------------------|
|-------------------------------------------------------------------|


                                         ~~~
  E    +S  S S  E    +S  S S  S S  S    +E.
|---------------------------------------------|
|---------------------------------------------|
|-9b11r(9)-7-9-[7]b9r(7)----------------------|
|------------------------9-7------------------|
|----------------------------7-5-[7]b9-(7)----|
|---------------------------------------------|


  T T T T T T T T T T T T T T T T T T T T T T T T T T T T T T T T
|------------------------------------------------------------------|
|------------------------------------------------------------------|
|-6-4-----6-4-----6-7-6-4-----6-4-----6-7-6-4-----6-7-6-4-7-9-7-6--|
|-----5-4-----5-4---------5-4-----5-4---------5-4------------------|
|------------------------------------------------------------------|
|------------------------------------------------------------------|


|----------------------------------------------------15-17-15-14|
|----------------------12-8---------------14-15-14-12-----------|
|11-12-11-9----11-9--------11-9-11-12-11-9----------------------|
|----------11-9----11-9-----------------------------------------|
|---------------------------------------------------------------|
|---------------------------------------------------------------|


   S  S  S  S  S  S  S  S  S  S  S  S  S  S  S  S
|-------------------19----------------------------|
|-17----19----20----------17----------------------|
|----16-------------------------16----12----------|
|----------17----16----14-------------------16-14-|
|----------------------------------------14-------|
|----------------------------12----15-------------|


   |------6-------|  |------6-------|  |------6-------|  |------6------|
   S  S  S  S  S  S  S  S  S  S  S  S  S  S  S  S  S  S  S  S  S  S  S S
|----------------------------------------------------17-12-------19p14---|
|----------------------------------------17p12-------------------------0-|
|----------------------16-14-12----------------------------14-12---------|
|----16-14-12-------------------16-14-12-------14-12---------------------|
|-------------16-14-12---------------------------------------------------|
|-12---------------------------------------------------------------------|


                                                     ~~~
   E      S   S      +S   S   S     +S   S  S  S  S  E.  T  T
|-19b21==19r-19b21==(19)-19r-19b21r(19)-------22----21--19-21-|
|---------------------------------------17s19----19-----------|
|-------------------------------------------------------------|
|-------------------------------------------------------------|
|-------------------------------------------------------------|
|-------------------------------------------------------------|


|22-21-19-21-22-21-19-21-22-21-19-21-22-21/-17-19-21-19/-15-17-19-17/-14-15|
|--------------------------------------------------------------------------|
|--------------------------------------------------------------------------|
|--------------------------------------------------------------------------|
|--------------------------------------------------------------------------|
|--------------------------------------------------------------------------|

|17-15/-12-14/-15-14-----------------|
|-------------------17-15-14---------|
|--------------------------16-14-----|
|-------------------------------17-16|
|------------------------------------|
|------------------------------------|


                                                 ~~~~~
                             |--3---|   |--3--|
   Q   E      +T    T  T  T  E     +S   S  S  S  Q
|------------------12-14-15-14b15r(14)p12-------15b17--|
|-----15b17==(15)r------------------------15-12--------|
|------------------------------------------------------|
|-14---------------------------------------------------|
|------------------------------------------------------|
|------------------------------------------------------|


|17b19r17p14-14----------14-10------/21-17----------------------|
|--------------15-14----------12-10--------19-17------22b24r22/-|
|-------------------16-13-----------------------19-18-----------|
|---------------------------------------------------------------|
|---------------------------------------------------------------|
|---------------------------------------------------------------|
Now that's a solo

Guitar/Keyboard Harmony
  Gtr II
|
-------------7---------------------------------|
|-------8-7-------10-8-7-----------------------|
|-----9-----7-9----------9-7-------------------|
|---9------------------------10---9-7----------|
|-7-----------------------------------10---8---|
|----------------------------------------------|
|
| Gtr V (Keyboards arranged for guitar)
|---------------7----------------------------|
|-------8-7-------10-8-7---------------------|
|-----9-----7-9----------9-7-----------------|
|---9------------------------10---9-7--------|
|-7-----------------------------------10---8-|
|--------------------------------------------|
|
| Gtr III
| PM-------------------------------------------|
|----------------------------------------------|
|----------------------------------------------|
|----------------------------------------------|
|----------------------------------------------|
|-------3-3-3-5-5--5-5-5-5---------------------|
|-0-0-0--------------------1----1---1----3-----|


|--------------12-10----15-14-------------------------|
|--------------------10-------15----------15----------|
|-----12----12-------------------14-12-11----14-11----|
|---9----10----------------------------------------12-|
|-7---------------------------------------------------|
|-----------------------------------------------------|
|
|--------------------10-------15----------------------|
|-----12----12-------------------14-------14----------|
|---9----10-------------------------14-12----14-12----|
|-7------------------------------------------------12-|
|-----------------------------------------------------|
|
|-------------------------------------------------------|
|-------------------------------------------------------|
|-------------------------------------------------------|
|-------------------------------------------------------|
|-------------------------------------------------------|
|---------3--3--3--5--5--5--5--5--5---------------------|
|-0-0--0-----------------------------1--1--1--1--1--3---|


|-----------------------------------------10-12---14-15------10------------|
|-----------8--7---------------10-12---13---------------13------10-13------|
|--------9--------7--9-11---12------------------------------------------12-|
|-----9--------------------------------------------------------------------|
|--7-----------------------------------------------------------------------|
|--------------------------------------------------------------------------|
|
|-----------------------------------------14-15---17-20------17------------|
|----------12------------------13-15---17---------------20------17-20------|
|-------12----14-11-12-14---16------------------------------------------17-|
|----14--------------------------------------------------------------------|
|-14-----------------------------------------------------------------------|
|--------------------------------------------------------------------------|
|
|  PM------------------------------------------------------------------------|
|----------------------------------------------------------------------------|
|----------------------------------------------------------------------------|
|----------------------------------------------------------------------------|
|----------------------------------------------------------------------------|
|-----------3--3--3--5----5-----5----5-----5----5----------------------------|
|--0--0--0--------------------------------------------1----1-----1----3------|


|-12--7------------------------------------------------------------------|
|-------------12--7------------------------------------------------------|
|--------9--7---------------11--7----------------9-11---12-11------------|
|----------------------9--7-----------------------------------12---------|
|----------------------------------9--7--9---10--------------------12----|
|------------------------------------------------------------------------|
|
|-------------15-10------------------------------------------------------|
|-20-17---------------------15-------------------------------------------|
|-------16-14---------12-11----12---------------12-14---16-11------------|
|---------------------------------12--------------------------12---------|
|------------------------------------10-12---14--------------------12----|
|------------------------------------------------------------------------|
|
|------------------------------------------------------------------------|
|------------------------------------------------------------------------|
|------------------------------------------------------------------------|
|------------------------------------------------------------------------|
|-----------3--3----3-----5--5--5--5--5----5-----------------------------|
|--0--0--0---------------------------------------1----1-----1----3-------|

                            Keyboard Solo
 3/8                        4/4
  Gtr V
|----------------------|-------------------------------------------------|
|--------------12-13-15|17s15-13-12--------12----------------------------|
|-------9-11-12--------|------------14-12-14--14-12----------------------|
|9-10-12---------------|---------------------------12--10-12-14-12-------|
|----------------------|-----------------------------14-----------14-10--|
|----------------------|-------------------------------------------------|
|
| Gtrs II, III
| PM----------------------------------|
|---------------|---------------------|
|---------------|---------------------|
|---------------|---------------------|
|----------2-4-5|---7-(7)-7---7-7--7--|
|-----2-3-5-----|0-0-------0-0---0----|
|0-2-3----------|---------------------|


|--------------------------------------------|
|--------------------------------15s22s20----|
|-----------------------------14-------------|
|----14-12-10-----------12-16----------------|
|-12----------14--10-12----------------------|
|--------------------------------------------|
|
|--------------------------------------------|
|--------------------------------------------|
|--------------------------------------------|
|--------------------------------------------|
|------------------------------5-----5--3-2--|
|--5-----5--3-(3)--3--2-----2----------------|


|-/24s22-20-19-----------19-------------------------------|
|--------------22--20-22----22-20-------------------------|
|---------------------------------19----17-19-21-19-------|
|------------------------------------21-------------21-17-|
|---------------------------------------------------------|
|---------------------------------------------------------|
|
|---------------------------------------------------------|
|---------------------------------------------------------|
|---------------------------------------------------------|
|------------7-(7)--7-----------7-----7-----------7-------|
|---0-----0------------0-----0-----------0----------------|
|---------------------------------------------------------|


|------------------------14-10----17-14----20-15-------------|
|---------------15-10---------10-------15-------18-----------|
|--21-19-17----------11---------11-------14-------17---------|
|19--------21-17-------12---------------------------17-15----|
|--------------------------------------------------------15--|
|----------------------------------------------------------15|
|
|--------------------|
|--------------------|
|--------------------|
|--------------------|
|---------------5-3-2|
|5--3-(3)-2-(2)------|

    Gtrs II, III

||--------------------------------------|
||o-------------------------------------|
||--------4-5-4-------------------------|
||------7-------7-3---------------------|
||o-0-7-------------3-5-2---3-----2-3-5-|
||------------------------3---1-5-------|


                      1.              2.
 9/16                1/4             2/4
                      |----6----|     |----6----| |-3-|

|-------------------|--------------||-------------------|
|-------------------|-------------o||-------------------|
|-------------------|-------4-5-7--||-------4-5-7-4-----|
|-------------4-----|-3-5-7--------||-3-5-7---------5---|
|-3-2-------7---5---|-------------o||-----------------7-|
|-----5-0-7-------5-|--------------||-------------------|


 4/4

|---------------------------------------------------------|
|---------------------------------------------------------|
|------------------------------------------7-9-10-9-10-12-|
|---------------------------7-9-10-9-10-12----------------|
|--------------5-7-8-7-8-10-------------------------------|
|-5-7-8-7-8-10--------------------------------------------|


 3/4

|-------------------10-12-13-12-13-15----------13-15-17--|
|-10-12-13-12-13-15-------------------13-15-17-----------|
|--------------------------------------------------------|
|--------------------------------------------------------|
|--------------------------------------------------------|
|--------------------------------------------------------|


(GOOD LUCK!)  x12
|t19p17p14p12|
|------------|
|------------|
|------------|
|------------|
|------------|
|
|t14p12p9p7|
|----------|
|----------|
|----------|
|----------|
|----------|

                                                     x2
|t21p17p14p12-t19p17p14p12----------------t19p17p14p12|
|-------------------------t19p17p14p12(x3)------------|
|-----------------------------------------------------|
|-----------------------------------------------------|
|-----------------------------------------------------|
|-----------------------------------------------------|
|
|t16p12p9p7-t14p12p9p7--------------14p12p9p7|
|---------------------t14p12p9p7(x3)---------|
|--------------------------------------------|
|--------------------------------------------|
|--------------------------------------------|
|--------------------------------------------|

  Outro (Hell yeah! You made it!)
    Q=164
                                         E5
   6/4                              7/4
    Gtrs II, III
    PM-------------------------|
    S  S E E E E E E S S E E E E  4x     W.                         +E  S S
||------------------------------||-||--0--------------------------(0)-0-0-|
||o----------------------------o||-||o-0--------------------------(0)-0-0-|
||------------------------------||-||--9--------------------------(9)-----|
||------------------------------||-||--9--------------------------(9)-----|
||o7--7-5-7-5-8-7-5-7-7-5-8-7-5o||-||o-7--------------------------(7)-----|
||------------------------------||-||--0--------------------------(0)-----|
|
|                                        Gtr I
|                                                ~~~
|   W.                            4x     Q   Q   Q.   E +E  E +E  E  E  E
||------------------------------||-||-------------------------------------|
||o----------------------------o||-||o------------------------------------|
||------------------------------||-||-------------------------------------|
||------------------------------||-||-------------------------------------|
||o----------------------------o||-||o--------/7----------------7-----7---|
||------------------------------||-||--0---0--------0-(0)-0-(0)----0------|


                                      4x
|-0--------------------------(0)-0-0--||
|-0--------------------------(0)-0-0-o||
|-9--------------------------(9)------||
|-9--------------------------(9)------||
|-7--------------------------(7)-----o||
|-0--------------------------(0)------||
|
|                                     4x
|-------------------------------------||
|------------------------------------o||
|-------------------------------------||
|-------------------------------------||
|--------/7----------------7-----7---o||
|-0---0--------0-(0)-0-(0)----0-------||


                            1.,2.,3.                  4.
    Gtrs II, III
                                                   4x
||--0-------------(0)-0-0-|-0-------------(0)-0-0--||-0--------(0)----|
||o-0-------------(0)-0-0-|-0-------------(0)-0-0-o||-0--------(0)----|
||--9-------------(9)-----|-9-------------(9)------||-9--------(9)----|
||--9-------------(9)-----|-9-------------(9)------||-9--------(9)----|
||o-7-------------(7)-----|-7-------------(7)-----o||-7--------(7)----|
||--0-------------(0)-----|-0-------------(0)------||-0--------(0)----|


  Gtrs II, III
                       >
|-0--------(0)------|-(0)--------(0)------|
|-0--------(0)------|-(0)--------(0)------|
|-9--------(9)------|-(9)--------(9)------|
|-9--------(9)------|-(9)--------(9)------|
|-7--------(7)------|-(7)--------(7)------|
|-0--------(0)------|-(0)--------(0)------|
|
| Gtr I
|-------------------|---------------------|
|-8--------(8)------|--7---------(7)------|
|-------------------|---------------------|
|-------------------|---------------------|
|-------------------|---------------------|
|-------------------|---------------------|


  N.C.

|-------------------|--------------------------|
|-------------------|--------------------------|
|-------------------|--------------------------|
|-------------------|--------------------------|
|-------------------|--------------------------|
|-------------------|--------------------------|
|
|
|-------------------|--------------------------|
|-9--------(9)------|--------------------------|
|-------------------|-7----(7)---6-(6)----(6)--|
|-------------------|--------------------------|
|-------------------|--------------------------|
|-------------------|--------------------------|


  Gtr I

|-------------------|--------------------------|
|-------------------|--------------------------|
|-5--------(5)------|-2----(2)---9-(9)----(9)--|
|-------------------|--------------------------|
|-------------------|--------------------------|
|-------------------|--------------------------|


|-------------------|-----------------|
|-------------------|-----------------|
|-4--------(4)------|-1--------(1)----|
|-------------------|-----------------|
|-------------------|-----------------|
|-------------------|-----------------|


|-------------------|-------------------|
|-8--------(8)------|-7--------(7)------|
|-------------------|-------------------|
|-------------------|-------------------|
|-------------------|-------------------|
|-------------------|-------------------|


|-------------------|---------------------|
|-9--------(9)------|---------------------|
|-------------------|-7----(7)---6-(6)----|
|-------------------|---------------------|
|-------------------|---------------------|
|-------------------|---------------------|


|-------------------|-----------------------|
|-------------------|-----------------------|
|-5--------(5)------|-2----(2)---9-(9)------|
|-------------------|-----------------------|
|-------------------|-----------------------|
|-------------------|-----------------------|


|-------------------|-----------------|
|-------------------|-----------------|
|-4--------(4)------|-1--------(1)----|
|-------------------|-----------------|
|-------------------|-----------------|
|-------------------|-----------------|


                       >
|-------------------|---------------------|
|-------------------|---------------------|
|-------------------|---------------------|
|-------------------|---------------------|
|-------------------|---------------------|
|-0--------(0)------|-(0)--------(0)------|


                               <
|----------------|------------------|-------------------|
|----------------|------------------|-------------------|
|----------------|------------------|-------------------|
|----------------|-------------2----|-(2)--------(2)----|
|----------------|------------------|-------------------|
|----------------|------------------|-------------------|


  <                        <
|-------------------|--------------------|---------------------|
|-------------------|--------------------|---------------------|
|-------------------|--------------------|---------------------|
|-3--------(3)------|------0----(0)------|-(0)--------(0)------|
|-------------------|--------------------|---------------------|
|-------------------|--------------------|---------------------|


     <
                     6
|------------------------|-------------------|
|------------------------|-------------------|
|----1-------(1)----(1)--|-(1)---------------|
|------------------------|-------------------|
|------------------------|-------------------|
|------------------------|-------------------|


                <
|------------------|---------------------|
|------------------|---------------------|
|---------------9--|-(9)--------(9)------|
|------------------|---------------------|
|------------------|---------------------|
|------------------|---------------------|


       <
|--------------------|------------------|
|--------------------|------9----(9)----|
|------7----(7)------|------------------|
|--------------------|------------------|
|--------------------|------------------|
|--------------------|------------------|


                       <
                       7______/
|--------------------------|-------------------------|
|-(9)----------------------|-------------------------|
|---------------------<3>--|-(<3>)--------(<3>)------|
|--------------------------|-------------------------|
|--------------------------|-------------------------|
|--------------------------|-------------------------|


|-----------------------|--------*|
|-----------------------|--------*|
|-(<3>)-----------------|--------*|
|-----------------------|--------*|
|-----------------------|--------*|
|-----------------------|--------*|

------------------------------------------------------------

5. DISAPPEAR
Tuning - E,A,D,G,B,E

(00:00-00:34)- Intro--------------------------

Keyboard only

(00:35-00:57)

Gtr. 1 (Acoustic)---------------------------------

Dm | G/B | Am | Am/G

Dm | G/B | Am | C

(00:58-2:05)-Verse 1----------------------------------

Vocals come in
Guitar 1 (Acoustic)
(3x)

Dm | G/B | Am | Am/G

Dm | G/B | Am | C

(2:06-2:36)-Interlude-----------------------------------

"A day like today.."
Interlude, Keyboard only

(2:37-2:48)---------------------------------------------------

Intro is repeated with guitar
Gtr. 3 (Lead)
E|-------------|----------------|-------------------|------------------|
B|---5--6/17---|--14\5--6--8----|--5--6/17--20--18--|--10--11--8----6--|
G|-------------|----------------|-------------------|------------------|
D|-------------|----------------|-------------------|------------------|
A|-------------|----------------|-------------------|------------------|
E|-------------|----------------|-------------------|------------------|

(2:48-3:55)-Verse 2----------------------------------

Vocals come back in
(3x)
Gtr. 1 (Acoustic)

Dm | G/B | Am | Am/G

Dm | G/B | Am | C

(3:56-4:26)Interlude-----------------------------------

Two guitars here

    "Days disappear.."                "and my"
Gtr. 2 (Distorted)
 | F5          |                | E5                |                  |
Gtr. 3 (Lead)  |                |                   |                  |
E|-------------|----------------|-------------------|------------------|
B|-------------|----------------|-------------------|------------------|
G|-10----------|----------------|-9-----------------|------------------|
D|-------------|----------------|-------------------|------------------|
A|-------------|----------------|-------------------|------------------|
E|-------------|----------------|-------------------|------------------|

   "world keeps"                         "changing.."

 |  Am         |                | Em                |                  |
 |             |                |                   |                  |
E|-------------|----------------|-------------------|------------------|
B|-------------|----------------|-------------------|------------------|
G|-/14---------|----------------|-12----------------|------------------|
D|-------------|----------------|-------------------|------------------|
A|-------------|----------------|-------------------|------------------|
E|-------------|----------------|-------------------|------------------|

                   "I feel you      here" 

 | F5          |                | Bb                |                  |
 |             |                |                   |                  |
E|-------------|----------------|-------------------|------------------|
B|-------------|----------------|-------------------|------------------|
G|-10----------|----------------|-------------------|------------------|
D|-------------|----------------|-------------------|------------------|
A|-------------|----------------|-------------------|------------------|
E|-------------|----------------|-------------------|------------------|

   "keeps           me            sane"

 | E5          |                | F5                |                  | 
 |             |                |                   |                  |
E|-------------|----------------|-------------------|------------------|
B|-------------|----------------|-------------------|------------------|
G|-9-----------|-/1-------------|-2-----------------|------------------|
D|-------------|----------------|-------------------|------------------|
A|-------------|----------------|-------------------|------------------|
E|-------------|----------------|-------------------|------------------|

 | B           | F7             |
 |                              |
E|-------------|----------------|
B|-------------|----------------|
G|-4-----------|-5--------------|
D|-------------|----------------|
A|-------------|----------------|
E|-------------|----------------|

(4:26-5:42)------------------------------------------

Band enters, All 3 guitars here

 1.          "so I'm moving       on"                  "I'll never for-
 2.              "accepting the   end.."               "I knew you were
 3.            "I gave you my     hand,           I     said it's o-"
Gtr. 1 
 | Bbm         |                | Gbmaj7            |                  |
Gtr. 2
E|-------------|----------------|-------------------|------------------|
B|-------------|----------------|-------------------|------------------|
G|.-6----------|-/10-\-8--6-----|--/10--------------|--/10-\-8--6------|
D|.------------|----------------|-------------------|------------------|
A|-------------|----------------|-------------------|------------------|
E|-------------|----------------|-------------------|------------------|
Gtr. 3                                                                 |
E|-------------|----------------|-------------------|------------------|
B|-------------|----------------|-------------------|------------------|
G|.------------|----------------|-------------------|------------------|
D|.3-----------|----------------|-------------------|------------------|
A|-1-----------|----------------|--4----------------|------------------|
E|-------------|----------------|--2----------------|------------------|

  1. -get"               "As you   laid there,         watching.."
  2. "scared           You were   strong, I was trying.."
  3. "kay, letting go, time to    leave               here"
 | Db          |                | Fm/C              | Ab               |
 |                                                                     |
E|-------------|----------------|-------------------|------------------|
B|-------------|----------------|-------------------|------------------|
G|-/10---------|--/10--11--10---|-/10---------------|--8--------------.|
D|-------------|----------------|-------------------|-----------------.|
A|-------------|----------------|-------------------|------------------|
E|-------------|----------------|-------------------|------------------|
 |                                                                     |
 |                                                                     |
E|-------------|----------------|-------------------|------------------|
B|-------------|----------------|-------------------|------------------|
G|-------------|----------------|-------------------|-----------------.|
D|-6-----------|----------------|-------------------|-----------------.|
A|-4-----------|----------------|-3-----------------|--6---------------|
E|-------------|----------------|-1-----------------|--4---------------|

^^^(repeat 3x)^^^^

             "And I'll carry        on"       "the best that I

 | Bbm         |                | Gbmaj7            |                  |
 |                                                                     |
E|-------------|----------------|-------------------|------------------|
B|-------------|----------------|-------------------|------------------|
G|--6----------|-/10-\-8--6-----|--/10--------------|--/10-\-8--6------|
D|-------------|----------------|-------------------|------------------|
A|-------------|----------------|-------------------|------------------|
E|-------------|----------------|-------------------|------------------|
 |                                                                     |
 |                                                                     |
E|-------------|----------------|-------------------|------------------|
B|-------------|----------------|-------------------|------------------|
G|-------------|----------------|-------------------|------------------|
D|-3-----------|----------------|-------------------|------------------|
A|-1-----------|----------------|--4----------------|------------------|
E|-------------|----------------|--2----------------|------------------|

   "can, without you here be-      side              me"

 | Db          |                | F7/A              |                  |
 |             |                |                   |                  |
E|-------------|----------------|-------------------|------------------|
B|-------------|----------------|-------------------|------------------|
G|--/10--------|-/10--11--10----|--\2~~~~-----------|------------------|
D|-------------|----------------|-------------------|------------------|
A|-------------|----------------|-------------------|------------------|
E|-------------|----------------|-------------------|------------------|
 |                                                                     |
 |                                                                     |
E|-------------|----------------|-------------------|------------------|
B|-------------|----------------|-------------------|------------------|
G|-------------|----------------|--/10--------------|-8----------------|
D|-6-----------|----------------|-------------------|------------------|
A|-4-----------|----------------|-------------------|------------------|
E|-------------|----------------|-------------------|------------------|

                  "let him come   take..              you
 
 | Db/Ab       |                | Gb                |                  |
 |                                                                     |
E|-------------|----------------|-------------------|------------------|
B|-------------|----------------|-------------------|------------------|
G|-------------|----------------|-------------------|------------------|
D|-------------|----------------|-------------------|-------------1----|
A|-------------|----------------|-------------------|------1-----------|
E|-------------|----------------|-------------------|------------------|
 |                                                                     |
 |                                                                     |
E|-------------|----------------|-------------------|------------------|
B|-------------|----------------|-------------------|------------------|
G|-6-----------|----------------|-------------------|------------------|
D|-6-----------|----------------|-------------------|--4~~~------------|
A|-4-----------|----------------|--4----------------|------------------|
E|-4-----------|----------------|--2----------------|------------------|


    "home"

 | F7          |                | Bbm               | Cm7b5            |
 |             |                |                   |                  |
E|-------------|----------------|-------------------|------------------|
B|-------------|----------------|-------------------|------------------|
G|-------------|----------------|-6-----------------|-8----------------|
D|-3-----------|----------------|-------------------|------------------|
A|-------------|----------------|-------------------|------------------|
E|-------------|----------------|-------------------|------------------|
 |                                                                     |
 |                                                                     |
E|-------------|----------------|-------------------|------------------|
B|-------------|----------------|-------------------|------------------|
G|-------------|----------------|-6-----------------|-8----------------|
D|-3-----------|----------------|-------------------|------------------|
A|-3-----------|----------------|-------------------|------------------|
E|-1-----------|----------------|-------------------|------------------|



 | F7          |
 |             |
E|-------------|
B|-------------|
G|-10----------|
D|-------------|
A|-------------|
E|-------------|
 |             |
 |             |
E|-------------|
B|-------------|
G|-5-----------|
D|-------------|
A|-------------|
E|-------------|



(5:43-6:47)-----------------------------------------------------------

Gtr. 3 (Lead)
E|-------------|----------------|-------------------|------------------|
B|---5--6/17---|--14\5--6--8----|--5--6/17--20--18--|--10--11--8----6--|
G|-------------|----------------|-------------------|------------------|
D|-------------|----------------|-------------------|------------------|
A|-------------|----------------|-------------------|------------------|
E|-------------|----------------|-------------------|------------------|

(repeat 3x)


E|-------------|----------------|-------------------|------------------|
B|---5--6/17---|--14\5--6--8----|--5--6/17--20--18--|--10--11--8----6--|
G|-------------|----------------|-------------------|------------------|
D|-------------|----------------|-------------------|------------------|
A|-------------|----------------|-------------------|------------------|
E|-------------|----------------|-------------------|------------------|


E|-------------|
B|-------------|
G|-\3----------|
D|-------------|
A|-------------|
E|-------------|

-------------------------------------------------------------------

Chord voicings:

   Dm   Bbm   G/B  Am  Am/G  C   F5  E5  Em  Bb  B  F7  Gbmaj7  Db
E|-1----1-----3----0----0----0---x---x---0---x---x---1---x------x--|
B|-3----2-----3----1----1----1---x---x---0---3---4---1---2------6--|
G|-2----3-----0----2----2----0---x---x---0---3---4---2---3------6--|
D|-0----3-----0----2----2----2---3---2---2---3---4---1---3------6--|
A|-x----1-----2----0----x----3---3---2---2---1---2---3---x------4--|
E|-x----x-----x----x----3----x---1---0---0---x---x---1---2------x--|

   Fm/C  Ab  F7/A  Db/Ab  Gb    Cm7b5
E|-1----(4)---x------x----2------x--------------|
B|-1----(4)---6------6----2------4--------------|
G|-1-----5----8------6----3------3--------------|
D|-3-----6----7------6----4------4--------------|
A|-3-----6----0------4----4------3--------------|
E|-x-----4----x------4----2------x--------------|

--------------------------------------------------------------------------

1. SIX DEGREES OF INNER TURBULENCE: OVERTURE
N/A

--------------------------------------------------------------------------

2. ABOUT TO CRASH
Tuning - E,A,D,G,B,E

Intro
  Q=160
 4/4
  Gtr I
            PM               PM    PM  ~~~
  Q  Q  Q   E a  E    +E   E E E E E E E
|------------------|---------------------|
|---------------10-|-(10)-10-------------|
|-------9\----9h11-|-(11)--9---9S7---7S9-|
|-------9\---------|-----------9S7---7S9-|
|------------------|---------------------|
|-0--0------0------|---------0-----0-----|


 ~~~~~        PM
  +Q   Q  Q   E  E   +E  E +E  E E E Q
|----------------0-|-(0)-0-(0)-0-0-------|
|---------------/9-|-(9)-7-(7)-5-5S7S3---|
|-(9)-----9\-------|---------------------|
|-(9)-----9\-------|---------------------|
|------------------|---------------------|
|------0------0----|---------------------|


            PM               PM    PM
  Q  Q  Q   E a  E    +E   E E E E E E E
|------------------|---------------------|
|---------------10-|-(10)-10-------------|
|-------9\----9h11-|-(11)--9---9S7-------|
|-------9\---------|-----------9S7-------|
|------------------|-----------------5s7-|
|-0--0------0------|---------0-----0-----|


   ~~~
                              |-3-| |-3-| |-3-| |-3-|
   Q   Q  Q   E E   +E  E +E  S S S S S S S S S S S S S S
|-----------------|----------------------------------------|
|-----------------|-----------7p5p0------------------------|
|---------9\----7-|-(7)-6-(6)-------9p7p0------------------|
|---------9\----7-|-(7)-7-(7)-------------9p7p0------------|
|-[7]-------------|-----------------------------9p7p0------|
|------0------0---|-----------------------------------9p7--|


            PM               PM    PM  ~
  Q  Q  Q   E a  E    +E   E E E E E E E
|------------------|---------------------|
|---------------10-|-(10)-10-------------|
|-------9\----9h11-|-(11)--9---9S7---7S9-|
|-------9\---------|-----------9S7---7S9-|
|------------------|---------------------|
|-0--0------0------|---------0-----0-----|


              PM            PM
   Q   Q  Q   E E   +E  E E E  E  E E  E
|-----------------|----------------------|
|-[9]-------------|----------------------|
|---------9\----7-|-(7)s6s4---13s11-9s11-|
|---------9\----x-|------------x----x----|
|---------------5-|-(5)s4s2---11s=9-7s=9-|
|------0------0---|---------0------------|


            PM                  PM
  Q  Q  Q   E a E   +E   E +E   E  E   E   E   E
|---------------0-|-(0)--5-(5)----10s=12--14s=12-|
|-------------5s7-|-(7)--5-(5)-----x-------x-----|
|-------9\--------|----------------7s==9--11s==9-|
|-------9\--------|------------------------------|
|-----------------|------------------------------|
|-0--0------0-----|-------------0----------------|


   Q  Q  Q   E  S S     S  S  S S  S S  S S  S S  S S  S S  E
|--------------12p0-|--------14p0------19p0------22p0-19p0-24\-|
|-12----------------|-[10]p0------12p0------17p0---------------|
|--------9\---------|------------------------------------------|
|--------9\---------|------------------------------------------|
|-------------------|------------------------------------------|
|-----0-------------|------------------------------------------|


   7/4                       15/8
    Q  Q  Q.   Q  Q  Q.    3x E E E E E E E E E E E E E E E
||-------------------------||--------------------------------|
||o-------0----------0----o||--------------------------------|
||--------4----------4-----||--------------------------------|
||-------------------------||--------------------------------|
||o-2--2-------2--2-------o||-------------2-3-2-3-5-3-2------|
||-------------------------||-3-2-3-5-3-5---------------3-2--|


 4/4
            PM               PM    PM  ~~~
  Q  Q  Q   E a  E    +E   E E E E E E E
|------------------|---------------------|
|---------------10-|-(10)-10-------------|
|-------9\----9h11-|-(11)--9---9S7---7S9-|
|-------9\---------|-----------9S7---7S9-|
|------------------|---------------------|
|-0--0------0------|---------0-----0-----|


 ~~~        PM                PM
  Q  Q  Q   E a E   +E  E +E  E E E Q
|-----------------|--------------------|
|-----------------|--------------------|
|-9-----9\----7s9-|-(9)-7-(7)---7---6--|
|-9-----9\----7s9-|-(9)-7-(7)---7---7--|
|-----------7-----|-----------0--------|
|----0------------|--------------------|


            PM             PM    PM      ~                   PM--------------|
  Q  Q  Q   E  E     E   E E E E E E E   Q  Q  Q   E E   S S E S S E E E S S E
|----------------|---------------------|---------------|-----------------------|
|-------------10-|-(10)-10-------------|---------------|-----------------------|
|-------9\-----9-|--(9)--9---9S7---7S9-|-9-----9\----6-|-7-6-------------------|
|-------9\-----7h|===9---7---9S7---7S9-|-9-----9\------|-----9-7-6-------------|
|----------------|---------------7-----|---------------|-----------9-5-7-------|
|-0--0------0----|---------0-----------|----0------0---|-----------------9-7-5-|


   Verses 1 & 2
              PM               PM    PM  ~~~
    Q  Q  Q   E a  E    +E   E E E E E E E
||-------------------|---------------------|
||o---------------10-|-(10)-10-------------|
||--------9\----9h11-|-(11)--9---9S7---7S9-|
||--------9\---------|-----------9S7---7S9-|
||o------------------|---------------------|
||--0--0------0------|---------0-----0-----|


 ~~~        PM                PM
  Q  Q  Q   E a E   +E  E +E  E E E Q   4x
|-----------------|---------------------||
|-----------------|--------------------o||
|-9-----9\----7s9-|-(9)-7-(7)---7---6---||
|-9-----9\----7s9-|-(9)-7-(7)---7---7---||
|-----------7-----|-----------0--------o||
|----0------------|---------------------||


 Chorus
  Q  E E +E  E Q    +Q   H.        Q  E E +E  E Q    +Q   H.
|--------------0--|-(0)----------|--------------0--|-(0)--------|
|-----------------|------0-------|-----------------|------0-----|
|----1------------|--------------|------4-(4)------|------------|
|------2-(2)-2----|--------------|----2-------2----|------------|
|-0---------------|--------------|-4---------------|------------|
|-----------------|--------------|-----------------|------------|


  Q.   E H      Q.   E +H       Q.   E +H       Q.   E H
|-------------|---------------|------2-(2)----|--------3----|
|-------------|------0-(0)----|------0-(0)----|--------0----|
|-------------|---------------|---------------|------0------|
|-4----4------|-2-------------|---------------|-------------|
|-2------2----|-0-------------|---------------|-------------|
|-------------|---------------|-2-------------|-3-----------|


  Q  E E Q  E E   Q  E E Q  E E   W
|---------------|------2--------|----------|
|---------------|----3----------|----------|
|------0------2-|----2--------4-|----------|
|----2------4---|-----------2---|-4--------|
|---------------|--------0------|-2--------|
|-0------2------|-3-------------|----------|


   |--3--|  |--3--|  |--3--|  |--3--|
   E  E  E  E  E  E  E  E  E  E  E  E
|--------------------------------------|
|--------------------------------------|
|----------11----14----------13----16--|
|----12-------12-------14-------14-----|
|-------12----------------14-----------|
|-10----------------12-----------------|


  Q  E E +E  E Q    +Q   H.        Q  E E +E  E Q    +Q   H.
|--------------0--|-(0)----------|--------------0--|-(0)--------|
|-----------------|------0-------|-----------------|------0-----|
|----1------------|--------------|------4-(4)------|------------|
|------2-(2)-2----|--------------|----2-------2----|------------|
|-0---------------|--------------|-4---------------|------------|
|-----------------|--------------|-----------------|------------|


  Q   E E +H      E E E E +H       W          Q   E E +H
|---------------|----------------|----------|----------------|
|-----0---------|-------0-(0)----|----------|-------0-(0)----|
|---------------|-----4----------|----------|-----0----------|
|-4-------------|---2------------|-4--------|----------------|
|-2-----2-(2)---|-0--------------|-5--------|----------------|
|---------------|----------------|-2--------|-3--------------|


 Out-Chorus                Bridge
 6/8
                                              PM----------|
  Q  E Q  E   Q  E Q  E     Q.   Q.    8x     E S S E E E E   8x
|-----------|-----------||-------------||-||------------------||
|-----------|-----------||o------0----o||-||o----------------o||
|-----------|-----------||-------4-----||-||------------------||
|-----------|-----------||-------------||-||------------------||
|-----------|-----------||o-2---------o||-||o-2-2-2-2-2-2-2--o||
|-0--0-2--2-|-3--3-5--5-||-------------||-||------------------||


   Interlude
       |-3--|                           |-3-|
     E S  S S E E E E   E E E E E E   E S S S E E E E   E E E E E E
||--------------------|-------------|-----------------|--------------||
||o-10-9h10p9-0-5-7S9-|-7-0-5-0-3-0-|-7-5h7p5-0-3-5S7-|-5-0-3-0-2-0-o||
||--------------------|-------------|-----------------|--------------||
||--------------------|-------------|-----------------|--------------||
||o-------------------|-------------|-----------------|-------------o||
||--------------------|-------------|-----------------|--------------||


    Gtr I
        |--3--|
     E  S  S  S E  E  E  E    E E  E E E E
||-------------------------|---------------|
||o-10--9h10p=9-0--5--7S=9-|--7-0--5-0-3-0-|
||-------------------------|---------------|
||-------------------------|---------------|
||o------------------------|---------------|
||-------------------------|---------------|
|
|   Gtr II
|       |--3--|
|    E  S  S  S E  E  E  E    E E  E E E E
||-------------------------|---------------|
||o-15-14h15p14-0-10-12S14-|-12-0-10-0-9-0-|
||-------------------------|---------------|
||-------------------------|---------------|
||o------------------------|---------------|
||-------------------------|---------------|


      |--3--|
   E  S  S  S E E E  E   E E E E E E
|----------------------|--------------||
|--7--5h=7p=5-0-3-5S=7-|-5-0-3-0-2-0-o||
|----------------------|--------------||
|----------------------|--------------||
|----------------------|-------------o||
|----------------------|--------------||
|
|     |--3--|
|  E  S  S  S E E E  E   E E E E E E
|----------------------|--------------||
|-12-10h12p10-0-7-9S10-|-9-0-7-0-5-0-o||
|----------------------|--------------||
|----------------------|--------------||
|----------------------|-------------o||
|----------------------|--------------||


   Outro
                              PM--|
    S S S S S S E E E 16x     E E E E E E
||---------------------||-||--------------|
||o-------------------o||-||o-------------|
||---------------------||-||--------------|
||---------------------||-||--------5-7-5-|
||o-7-7-7-7-7-7-------o||-||o-----7-------|
||--0-0-0-0-0-0-0-0-0--||-||--0-7---------|


                                       PM
  +E  E E Q.     +E  E E E E E   E E E E E E
|--------------|---------------|-------------|
|--------------|---------------|-------------|
|--------------|-----7-4-5-4---|-------------|
|-(5)-4--------|-------------5-|-7-4-------4-|
|-------5-7----|-(7)-----------|-----5---5---|
|--------------|---------------|-------7-----|


  PM--|
  E E E E E E   +E  E E  Q.     +E  E E E E E     E E  E S S S S S S
|-------------|---------------|---------------|-----7-----------------||
|-------------|---------------|---------------|-/10---10-8p7---------o||
|-------------|---------------|-----7-4-5-4---|--------------9p7------||
|-------5-7-5-|-(5)-4---[4]---|-(4)---------5-|------------------9p7--||
|-----7-------|-------7-------|---------------|----------------------o||
|-0-7---------|---------------|---------------|-----------------------||


  PM--------------------------------------------------|
  E E E E E E   E E E E E E   E E E E E E   E E E E E E
|-------------|-------------|-------------|-------------|
|-------------|-------------|-------------|-------------|
|-------------|-------------|-------------|-------------|
|-------------|-------------|-------------|-------------|
|-------------|-5-5-5-------|-3-3-3-------|-------2-----|
|-0-0-0-5-5-5-|-------3-3-3-|-------2-2-2-|-3-3-3---3-2-|


  E E E E E E   E E E E E E   E E E E E E   E E E E E E
|-------------|-------------|-------------|-------------||
|-------------|-------------|-------------|-------------||
|-------------|-------------|-------------|-------------||
|-------------|-------------|-------------|-------5-----||
|-------------|-5-5-5-------|-------------|---2-5---5-2-||
|-0-0-0-5-5-5-|-------4-4-4-|-5-5-5-2-2-2-|-3-----------||


  PM--------------------------------------------|
  E E E E E E   E E E E E E   E E E E E E   E E E E E E
|-------------|-------------|-------------|-------------|
|-------------|-------------|-------------|-------------|
|-------------|-------------|-------------|-------------|
|-------------|-------------|-------------|---------6-5-|
|-------5-5-5-|-------3-3-3-|-------2-2-2-|-3-2-3-6-----|
|-4-4-4-------|-3-3-3-------|-1-1-1-------|-------------|


  PM------------------------------------------------------|        ~~~~~~~
  S S S S S S E E E   S S S S S S E E E   S S S S S S E E E   E E  E  +Q.
|-------------------|-------------------|-------------------|---------------|
|-------------------|-------------------|-------------------|---------------|
|-------------------|-------------------|-------------------|-8-7-[5]-(5)---|
|-------------9-9-9-|-------------6-6-6-|-------------5-5-5-|---------------|
|-8-8-8-8-8-8-------|-6-6-6-6-6-6-------|-5-5-5-5-5-5-------|---------------|
|-------------------|-------------------|-------------------|---------------|


    PM----------------------|
    E E E E E E   E E E E E E  3x H.        H.
||--------------|--------------||---------|-------|
||o-------------|-------------o||---------|-------|
||--------------|--------------||---------|-------|
||--------------|--------------||---------|-------|
||o-3-3-3---3---|-3---3---3-3-o||---------|-------|
||--------------|--------------||-2-------|-1-----|


  PM--|          PM|        PM--|
  E E E E Q    E E E E Q    E E E E Q    E E E Q.
|------------|------------|------------|------------|
|------------|------------|------------|------------|
|------------|------------|------------|------------|
|------------|------------|------------|------------|
|-------5----|-------3----|-------2----|---3-2-3----|
|-4-4-4------|---3-3------|-1-1-1------|------------|


  PM--------|          PM|        PM--------|
  S S S S S S E Q    E E E E Q    S S S S S S E Q    E S S E E S S E
|------------------|------------|------------------|------------------||
|------------------|------------|------------------|------------------||
|------------------|------------|------------------|------------------||
|-------------9----|-------6----|-------------5----|-3----------------||
|-8-8-8-8-8-8------|---6-6------|-5-5-5-5-5-5------|---6-5-3-2--------||
|------------------|------------|------------------|-----------4-3-1--||


  Q.    Q.     Q.     Q.      Q.    Q.     H.
|------------|-------------|-------------|-------|
|------------|-------------|-------------|-------|
|-8----\4----|-3----/11----|-\8----\4----|-3-----|
|------------|-------------|-------------|-------|
|------------|-------------|-------------|-------|
|------------|-------------|-------------|-------|


                                             ~~~
   Q.    Q.     Q.     Q.      Q.    Q.      H.
|-------------|-------------|-------------|--------|
|-------------|------\10----|-------------|--------|
|-/8----\4----|-3-----------|-11----\8----|-10-----|
|-------------|-------------|-------------|--------|
|-------------|-------------|-------------|--------|
|-------------|-------------|-------------|--------|


  Q.    Q.     Q.     Q.      Q.    Q.     H.
|------------|-------------|-------------|---------|
|------------|-------------|-------------|---------|
|-8----\4----|-3----/11----|-\8----\4----|-3tr4----|
|------------|-------------|-------------|---------|
|------------|-------------|-------------|---------|
|------------|-------------|-------------|---------|


                                              ~~~~
   Q.    Q.     Q.     Q.      Q.    Q.       H.
|-------------|-------------|-------------|---------|
|-------------|------\10----|-------------|---------|
|-/8----\4----|-3-----------|-11----\8----|-[10]----|
|-------------|-------------|-------------|---------|
|-------------|-------------|-------------|---------|
|-------------|-------------|-------------|---------|


  H.        H.        H.        H.
|---------|---------|---------|-------|
|---------|---------|---------|-------|
|---------|---------|---------|-------|
|---------|---------|---------|-------|
|---------|---------|-2-------|-1-----|
|-4-------|-3-------|---------|-------|


                      H.=H
                               9/8
  H.        H.        H.        Q.   Q.   Q.
|---------|---------|---------|----------------*|
|---------|---------|---------|----------------*|
|---------|---------|---------|----------------*|
|---------|---------|---------|----------------*|
|-5-------|-4-------|-3-------|-2--------------*|
|---------|---------|---------|------4----3----*|

-----------------------------------------------------------------------

3. WAR INSIDE MY HEAD
Tuning - E,A,D,G,B,E

Intro
  Moderately Q.=126
  Ebm
 12/8
  Gtr I
   ~~~                            ~~~~~~~~~
   H.       Q.   Q.     Q.   Q.   H.
|---------------------|-------------------|
|---------------------|-------------------|
|----------------8----|-7---------6-------|
|-/8--------9---------|------8------------|
|---------------------|-------------------|
|---------------------|-------------------|
|
| Gtr II
|  ~~~                            ~~~~~~~~~
|  H.       Q.   Q.     Q.   Q.   H.
|---------------------|-------------------|
|---------------------|-------------------|
|---------------------|-------------------|
|----------------9----|-8---------7-------|
|-/9-------10---------|------9------------|
|---------------------|-------------------|


 ~~~~~
   H.       Q.   Q.     Q.   Q.   H.
|---------------------|-------------------|
|---------------------|-7---------6tr7----|
|----------------8----|------7------------|
|-/8--------9---------|-------------------|
|---------------------|-------------------|
|---------------------|-------------------|
|
|~~~~~
|  H.       Q.   Q.     Q.   Q.   H.
|---------------------|-------------------|
|---------------------|-------------------|
|---------------------|-7---------6tr7----|
|----------------9----|------8------------|
|-/9-------10---------|-------------------|
|---------------------|-------------------|


   ~~~                            ~~~~~~~~~
   H.       Q.   Q.     Q.   Q.   H.
|---------------------|-------------------|
|---------------------|-------------------|
|----------------8----|-7---------6-------|
|-/8--------9---------|------8------------|
|---------------------|-------------------|
|---------------------|-------------------|
|
|  ~~~                            ~~~~~~~~~
|  H.       Q.   Q.     Q.   Q.   H.
|---------------------|-------------------|
|---------------------|-------------------|
|---------------------|-------------------|
|----------------9----|-8---------7-------|
|-/9-------10---------|------9------------|
|---------------------|-------------------|


                      Cb7      Bb7
 ~~~~~~~~~~~~~~~~~~~~~~~~~~~~~~~~~~
    H.      H.         H.       H.
|-------------------|-----------------|
|-------------------|-----------------|
|--/8-------7-------|-----------------|
|-------------------|-/7-------[6]----|
|-------------------|-----------------|
|-------------------|-----------------|
|
|~~~~~~~~~~~~~~~~~~~~~~~~~~~~~~~~~~
|   H.      H.         H.       H.
|-------------------|-----------------|
|-------------------|-----------------|
|-------------------|-----------------|
|-------------------|-----------------|
|-/10-------9-------|-----------------|
|-------------------|-/5-------[4]----|


  Ebm
   ~~~                                         ~~~~~~~~~~~~~~
   H.            Q.     Q.       Q.     Q.     H.
|------------------------------|----------------------------|
|------------------------------|----------------------------|
|-----------------------8------|-7-------------6------------|
|-/8-------------9-------------|--------8-------------------|
|------------------------------|----------------------------|
|------------------------------|----------------------------|
|
|  ~~~                                         ~~~~~~~~~~~~~~
|  H.            Q.     Q.       Q.     Q.     H.
|------------------------------|----------------------------|
|------------------------------|----------------------------|
|------------------------------|----------------------------|
|-----------------------9------|-8-------------7------------|
|-/9------------10-------------|--------9-------------------|
|------------------------------|----------------------------|
|
| Gtr III
|  PM--------------------------------------------------------
|  E  E E E E E  E  E E E  E E   E  E E E  E E E  E E E E E
|------------------------------|----------------------------|
|------------------------------|----------------------------|
|--8--8-8-8---------8-8-8------|-8--8-8-8---------8-8-8-----|
|--8--8-8-8---------8-8-8------|-8--8-8-8---------8-8-8-----|
|--6--6-6-6---------6-6-6------|-6--6-6-6---------6-6-6-----|
|--6--6-6-6---------6-6-6------|-6--6-6-6---------6-6-6-----|


                                 Cb7     Bb7
 ~~~~~                           ~~~~~~~~~~~~~~
   H.            Q.     Q.       H.       H.
|------------------------------|------------------|
|------------------------------|-7--------6tr7----|
|-----------------------8------|------------------|
|-/8-------------9-------------|------------------|
|------------------------------|------------------|
|------------------------------|------------------|
|
|~~~~~                           ~~~~~~~~~~~~~~
|  H.            Q.     Q.       H.       H.
|------------------------------|------------------|
|------------------------------|------------------|
|------------------------------|-6--------7tr8----|
|-----------------------9------|------------------|
|-/9------------10-------------|------------------|
|------------------------------|------------------|
|
|-----------------------|        ~~~~~~~~~~~~~~
|  E  E E E E E  E  E E E  E E   H.       H.
|------------------------------|------------------|
|------------------------------|------------------|
|--8--8-8-8---------8-8-8------|------------------|
|--8--8-8-8---------8-8-8------|------------------|
|--6--6-6-6---------6-6-6------|------------------|
|--6--6-6-6---------6-6-6------|-5-------[4]------|


  E E E  E E E Q   E +E  Q     E E E  E E E  Q   E +E  Q
|----------------------------|-----------------------------|
|----------------------------|--------------/7---------6---|
|------------8-7---------6---|------------8------7-(7)-----|
|-8-8-8--9-8-------8-(8)-----|-8-8-8--9-8------------------|
|----------------------------|-----------------------------|
|----------------------------|-----------------------------|
|
| E E E  E E E Q   E +E  Q     E E E  E E E  Q   E +E  Q
|----------------------------|-----------------------------|
|----------------------------|-----------------------------|
|----------------------------|--------------/7---------6---|
|------------9-8---------7---|------------9------8-(8)-----|
|-9-9-9-10-9-------9-(9)-----|-9-9-9-10-9------------------|
|----------------------------|-----------------------------|
|
| PM--------------------------------------------------------
| E E E  E E E E E E  E  E E   E E E  E E E  E E E  E  E E
|----------------------------|-----------------------------|
|----------------------------|-----------------------------|
|-8-8-8--8-------8-8--8------|-8-8-8--8--------8-8--8------|
|-8-8-8--8-------8-8--8------|-8-8-8--8--------8-8--8------|
|-6-6-6--6-------6-6--6------|-6-6-6--6--------6-6--6------|
|-6-6-6--6-------6-6--6------|-6-6-6--6--------6-6--6------|


  E E E  E E E Q   E +E  Q
|-----------------------------|
|-----------------------------|
|------------8-7---------6----|
|-8-8-8--9-8-------8-(8)------|
|-----------------------------|
|-----------------------------|
|
| E E E  E E E Q   E +E  Q
|-----------------------------|
|-----------------------------|
|-----------------------------|
|------------9-8---------7----|
|-9-9-9-10-9-------9-(9)------|
|-----------------------------|
|
|--------------------|
| E E E  E E E E E E  E  E E
|-----------------------------|
|-----------------------------|
|-8-8-8--8-------8-8--8-------|
|-8-8-8--8-------8-8--8-------|
|-6-6-6--6-------6-6--6-------|
|-6-6-6--6-------6-6--6-------|


                           Ebm
        ~~        ~~
   Q.   Q.   Q.   Q.       W
|----------------------||-------------------------------|
|-/7---------6---------||o------------------------------|
|-------7---------6----||-------------------------------|
|----------------------||-------------------------------|
|----------------------||o------------------------------|
|----------------------||-------------------------------|
|
|       ~~        ~~
|  Q.   Q.   Q.   Q.       W
|----------------------||-------------------------------|
|----------------------||o------------------------------|
|-/7---------6---------||-------------------------------|
|-------8---------7----||-------------------------------|
|----------------------||o------------------------------|
|----------------------||-------------------------------|
|
|                          Gtrs II, III
|       ~~        ~~       PM----|
|  Q.   Q.   Q.   Q.       E E E e E E Q  E      +Q.
|----------------------||-------------------------------|
|----------------------||o------------------------------|
|----------------------||--8-8-8-8-----8----------------|
|----------------------||--8-8-8-8-----8----------------|
|-/5---------4---------||o-6-6-6-6-----6----------------|
|-------6---------5----||--6-6-6-6---0-6--2b2.5==(2)r---|


              D5 Bb5   Db5
  W
|--------------------------|
|--------------------------|
|--------------------------|
|--------------------------|
|--------------------------|
|--------------------------|
|
| W
|--------------------------|
|--------------------------|
|--------------------------|
|--------------------------|
|--------------------------|
|--------------------------|
|
| PM----|
| E E E e E E Q  E +E  Q
|--------------------------|
|--------------------------|
|-8-8-8-8-----7--------6---|
|-8-8-8-8-----7--8-(8)-6---|
|-6-6-6-6-----5--8-(8)-4---|
|-6-6-6-6---0----6-(6)-----|


                                             A5 Ab5   Gb5
  PM----|                        PM----|
  E E E e E E Q  E      +Q.      E E E e E E Q  E +E  Q
|------------------------------|--------------------------||
|------------------------------|-------------------------o||
|-8-8-8-8-----8----------------|-8-8-8-8------------------||
|-8-8-8-8-----8----------------|-8-8-8-8------------------||
|-6-6-6-6-----6----------------|-6-6-6-6-----7--6-(6)-4--o||
|-6-6-6-6---0-6--2b2.5==(2)r---|-6-6-6-6---0-5--4-(4)-2---||


   Verses
    Ebm                                        D5 Bb5   Db5
    PM----|                        PM----|
    E E E e E E Q  E      +Q.      E E E e E E Q  E +E  Q
||-------------------------------|-------------------------|
||o------------------------------|-------------------------|
||--8-8-8-8-----8----------------|-8-8-8-8-----7--------6--|
||--8-8-8-8-----8----------------|-8-8-8-8-----7--8-(8)-6--|
||o-6-6-6-6-----6----------------|-6-6-6-6-----5--8-(8)-4--|
||--6-6-6-6---0-6--2b2.5==(2)r---|-6-6-6-6---0----6-(6)----|


  Ebm                                        A5 Ab5   Gb5
  PM----|                        PM----|
  E E E e E E Q  E      +Q.      E E E e E E Q  E +E  Q
|------------------------------|-------------------------|
|------------------------------|-------------------------|
|-8-8-8-8-----8----------------|-8-8-8-8-----------------|
|-8-8-8-8-----8----------------|-8-8-8-8-----------------|
|-6-6-6-6-----6----------------|-6-6-6-6-----7--6-(6)-4--|
|-6-6-6-6---0-6--2b2.5==(2)r---|-6-6-6-6---0-5--4-(4)-2--|


  Ebm                                        D5 Bb5   Db5
  PM----|                        PM----|
  E E E e E E Q  E      +Q.      E E E e E E Q  E +E  Q
|------------------------------|-------------------------|
|------------------------------|-------------------------|
|-8-8-8-8-----8----------------|-8-8-8-8-----7--------6--|
|-8-8-8-8-----8----------------|-8-8-8-8-----7--8-(8)-6--|
|-6-6-6-6-----6----------------|-6-6-6-6-----5--8-(8)-4--|
|-6-6-6-6---0-6--2b2.5==(2)r---|-6-6-6-6---0----6-(6)----|


                                             A5 Ab5   Gb5
  PM----|                        PM----|
  E E E e E E Q  E      +Q.      E E E e E E Q  E +E  Q
|------------------------------|--------------------------||
|------------------------------|--------------------------||
|-8-8-8-8-----8----------------|-8-8-8-8------------------||
|-8-8-8-8-----8----------------|-8-8-8-8------------------||
|-6-6-6-6-----6----------------|-6-6-6-6-----7--6-(6)-4---||
|-6-6-6-6---0-6--2b2.5==(2)r---|-6-6-6-6---0-5--4-(4)-2---||


 Chorus
  Cm                  D/C                 Cm                     Ab7     G7
  Gtr II
            ~~~~                ~~~~                             ~~~~~~~~~~~
  H.        H.        H.        H.        H.      +Q.   +Q   E   H.      H.
|-------------------|-------------------|----------------------|---------------|
|-------------------|-------------------|----------------------|---------------|
|-5-----------------|-5-----------------|-5-------(5)---(5)----|---------------|
|-5-----------------|-4-----------------|-5-------(5)---(5)--x-|---------------|
|-3-----------------|-3-----------------|-3-------(3)---(3)--x-|---------------|
|----------/8-------|---------/10-------|----------------------|-2-------1-----|
|
| Gtr III
|           ~~~~                ~~~~                             ~~~~~~~~~~~
| H.        H.        H.        H.        H.      +Q.   +Q   E   H.      H.
|-------------------|-------------------|----------------------|---------------|
|-------------------|-------------------|----------------------|---------------|
|-5-----------------|-5-----------------|-5-------(5)---(5)----|---------------|
|-5-----------------|-4-----------------|-5-------(5)---(5)--x-|---------------|
|-3-------/10-------|-3--------/9-------|-3-------(3)---(3)--x-|---------------|
|-------------------|-------------------|----------------------|-2-------1-----|


  Cm                  D/C                Fm
            ~~~~               ~~~
  H.        H.        H.       H.        H.       Q.    Q   E
|-------------------|------------------|----------------------|
|-------------------|------------------|-6-------(6)---(6)----|
|-5--------/5-------|-5-------/7-------|-5-------(5)---(5)----|
|-5-----------------|-4----------------|-3--------3-----3---x-|
|-3-----------------|-3----------------|-3-------(3)---(3)--x-|
|-------------------|------------------|----------------------|
|
|           ~~~~               ~~~
| H.        H.        H.       H.        H.      +Q.   +Q   E
|-------------------|------------------|----------------------|
|-------------------|------------------|-6-------(6)---(6)----|
|-5-----------------|-5----------------|-5-------(5)---(5)----|
|-5-----------------|-4----------------|-3-------(3)---(3)--x-|
|-3-------/10-------|-3-------/9-------|-3-------(3)---(3)--x-|
|-------------------|------------------|----------------------|


  1.
  Cb5   Bb5  A5   Ab5    Ebm
                         PM----|
   Q.   Q.   Q.   Q.     E E E e E E Q  E      +Q.
|----------------------|------------------------------|
|----------------------|------------------------------|
|----------------------|-8-8-8-8-----8----------------|
|----------------------|-8-8-8-8-----8----------------|
|-/9----8----7----6----|-6-6-6-6-----6----------------|
|-/7----6----5----4----|-6-6-6-6---0-6--2b2.5==(2)r---|
|
|                        PM----|
|  Q.   Q.   Q.   Q.     E E E e E E Q  E      +Q.
|----------------------|------------------------------|
|----------------------|------------------------------|
|----------------------|-8-8-8-8-----8----------------|
|----------------------|-8-8-8-8-----8----------------|
|-/9----8----7----6----|-6-6-6-6-----6----------------|
|-/7----6----5----4----|-6-6-6-6---0-6--2b2.5==(2)r---|


              D5 Bb5   Db5  Ebm
  PM----|                   PM----|
  E E E e E E Q  E +E  Q    E E E e E E Q  E      +Q.
|-------------------------|-------------------------------|
|-------------------------|-------------------------------|
|-8-8-8-8-----7--------6--|-8-8-8-8-----8-----------------|
|-8-8-8-8-----7--8-(8)-6--|-8-8-8-8-----8-----------------|
|-6-6-6-6-----5--8-(8)-4--|-6-6-6-6-----6-----------------|
|-6-6-6-6---0----6-(6)----|-6-6-6-6---0-6--2b2.5==(2)r----|
|
| PM----|                   PM----|
| E E E e E E Q  E +E  Q    E E E e E E Q  E      +Q.
|-------------------------|-------------------------------|
|-------------------------|-------------------------------|
|-8-8-8-8-----7--------6--|-8-8-8-8-----8-----------------|
|-8-8-8-8-----7--8-(8)-6--|-8-8-8-8-----8-----------------|
|-6-6-6-6-----5--8-(8)-4--|-6-6-6-6-----6-----------------|
|-6-6-6-6---0----6-(6)----|-6-6-6-6---0-6--2b2.5==(2)r----|


                            Ebm                                        D5 Bb5   Db5
  Gtrs II, III
  PM----|                   PM----|                        PM----|
  E E E e E E Q  E +E  Q    E E E e E E Q  E      +Q.      E E E e E E Q  E +E  Q
|-------------------------|------------------------------|-------------------------|
|-------------------------|------------------------------|-------------------------|
|-8-8-8-8-----------------|-8-8-8-8-----8----------------|-8-8-8-8-----7--------6--|
|-8-8-8-8-----------------|-8-8-8-8-----8----------------|-8-8-8-8-----7--8-(8)-6--|
|-6-6-6-6-----7--6-(6)-4--|-6-6-6-6-----6----------------|-6-6-6-6-----5--8-(8)-4--|
|-6-6-6-6---0-5--4-(4)-2--|-6-6-6-6---0-6--2b2.5==(2)r---|-6-6-6-6---0----6-(6)----|


  Ebm                                        A5 Ab5   Gb5
  PM----|                        PM----|
  E E E e E E Q  E      +Q.      E E E e E E Q  E +E  Q
|------------------------------|----------------------------||
|------------------------------|---------------------------o||
|-8-8-8-8-----8----------------|-8-8-8-8--------------------||
|-8-8-8-8-----8----------------|-8-8-8-8--------------------||
|-6-6-6-6-----6----------------|-6-6-6-6-----7--6-(6)-4----o||
|-6-6-6-6---0-6--2b2.5==(2)r---|-6-6-6-6---0-5--4-(4)-2-----||


                        Outro
  2.
  Cb5   Bb5  A5   Ab5    Cm                        D/C
                         PM----------------------------------------------|
   Q.   Q.   Q.   Q.     e e e e e e e e e e e e   e e e e e e e e e e e e
|----------------------|-------------------------|-------------------------|
|----------------------|-------------------------|-------------------------|
|----------------------|-------------------------|-------------------------|
|----------------------|-------------------------|-------------------------|
|-/9----8----7----6----|-3-3-3-3-3-3-3-3-3-3-3-3-|-------------------------|
|-/7----6----5----4----|-------------------------|-2-2-2-2-2-2-2-2-2-2-2-2-|


  Eb6                       Ab7         G7            Ab
  PM------------------------------------------------------------------------|
  e e e e e e e e e e e e   e e e e e e e e e e e e   e e e e e e e e e e e e
|-------------------------|-------------------------|-------------------------|
|-------------------------|-------------------------|-------------------------|
|-------------------------|-------------------------|-------------------------|
|-------------------------|-------------------------|-------------------------|
|-6-6-6-6-6-6-6-6-6-6-6-6-|-------------------------|-------------------------|
|-------------------------|-2-2-2-2-2-2-3-3-3-3-3-3-|-4-4-4-4-4-4-4-4-4-4-4-4-|


  D/F#                      Fm                        F#+7
  PM------------------------------------------------------------------------|
  e e e e e e e e e e e e   e e e e e e e e e e e e   e e e e e e e e e e e e
|-------------------------|-------------------------|-------------------------*|
|-------------------------|-------------------------|-------------------------*|
|-------------------------|-------------------------|-------------------------*|
|-------------------------|-------------------------|-------------------------*|
|-------------------------|-------------------------|-------------------------*|
|-2-2-2-2-2-2-2-2-2-2-2-2-|-1-1-1-1-1-1-1-1-1-1-1-1-|-2-2-2-2-2-2-2-2-2-2-2-2-*|

--------------------------------------------------------------------------

4. THE TEST THAT STUMPED THEM ALL
Tuning - E,A,D,G,B,E

 Intro
  Q=163
 7/8
  Gtr I
   S  S  S  S  S  S  S  S  S  S  S  S  S  S
|-19p17-------21p17-------19p17----------17-|
|-------18p17-------18p17-------18-17-18----|
|-------------------------------------------|
|-------------------------------------------|
|-------------------------------------------|
|-------------------------------------------|


 6/8
   S  S  S  S  S  S  S  S  S  S  S  S
|-19p17-------21p17-------19p17-------|
|-------18p17-------18p17-------18p17-|
|-------------------------------------|
|-------------------------------------|
|-------------------------------------|
|-------------------------------------|


 7/8                           6/8
  S S S S S S S S S S S S S S   S S S S S S S S S S S S
|-7p5-----9p5-----7p5-------5-|-7p5-----9p5-----7p5-----|
|-----6p5-----6p5-----6-5-6---|-----6p5-----6p5-----6p5-|
|-----------------------------|-------------------------|
|-----------------------------|-------------------------|
|-----------------------------|-------------------------|
|-----------------------------|-------------------------|


 7/8                            6/8
  S S S S  S S S S S S S S S S   S S S S  S S S S S S S S
|------------------------------|--------------------------|
|------------------------------|--------------------------|
|------------------------------|--------------------------|
|-9p7-----11p7-----9p7-------7-|-9p7-----11p7-----9p7-----|
|-----8p7------8p7-----8-7-8---|-----7h8------8p7-----8p7-|
|------------------------------|--------------------------|


 7/8                             6/8
  PM   PM   PM  PM  PM  PM         PM   PM   PM  PM  PM  PM
  s  S s S  s S s S s S s S S S    s  S s S  s S s S s S s S
|-------------------------------|----------------------------|
|-------------------------------|----------------------------|
|-------------------------------|----------------------------|
|-9p=7-----11p7-----9p7-------7-|--9p=7-----11p7-----9p7-----|
|------8p7------8p7-----8-7-8---|-------7h8------8p7-----8p7-|
|-------------------------------|----------------------------|
|
| Gtr II
| H..                             +H.
|-------------------------------|----------------------------|
|-------------------------------|----------------------------|
|-------------------------------|----------------------------|
|-2-----------------------------|-(2)------------------------|
|-2-----------------------------|-(2)------------------------|
|-0-----------------------------|-(0)------------------------|


 7/8                            6/8
  PM  PM   PM  PM  PM  PM        PM  PM   PM  PM  PM  PM
  s S s S  s S s S s S s S S S   s S s S  s S s S s S s S
|------------------------------|--------------------------|
|------------------------------|--------------------------|
|------------------------------|--------------------------|
|-9p7-----11p7-----9p7-------7-|-9p7-----11p7-----9p7-----|
|-----8p7------8p7-----8p7h8---|-----7h8------8p7-----8p7-|
|------------------------------|--------------------------|
|
| S S H.                         H.
|------------------------------|--------------------------|
|------------------------------|--------------------------|
|------------------------------|--------------------------|
|-7----------------------------|--------------------------|
|-5----------------------------|--------------------------|
|-5----------------------------|--------------------------|


 7/8                             6/8
  PM   PM   PM  PM  PM  PM         PM   PM   PM  PM  PM  PM
  s  S s S  s S s S s S s S S S    s  S s S  s S s S s S s S
|-------------------------------|----------------------------|
|-------------------------------|----------------------------|
|-------------------------------|----------------------------|
|-9p=7-----11p7-----9p7-------7-|--9p=7-----11p7-----9p7-----|
|------8p7------8p7-----8-7-8---|-------7h8------8p7-----8p7-|
|-------------------------------|----------------------------|
|
| ~~~
| H..                             +H.
|-------------------------------|----------------------------|
|-------------------------------|----------------------------|
|-------------------------------|----------------------------|
|-------------------------------|----------------------------|
|-4-----------------------------|-(4)------------------------|
|-------------------------------|----------------------------|


 7/8                            6/8
  PM  PM   PM  PM  PM  PM        PM  PM   PM  PM  PM  PM
  s S s S  s S s S s S s S S S   s S s S  s S s S s S s S
|------------------------------|--------------------------|
|------------------------------|--------------------------|
|------------------------------|--------------------------|
|-9p7-----11p7-----9p7-------7-|-9p7-----11p7-----9p7-----|
|-----8p7------8p7-----8-7-8---|-----7h8------8p7-----8p7-|
|------------------------------|--------------------------|
|
| S S H.                         H.
|------------------------------|--------------------------|
|------------------------------|--------------------------|
|------------------------------|--------------------------|
|------------------------------|--------------------------|
|-5----------------------------|--------------------------|
|------------------------------|--------------------------|


 7/8                             6/8
  PM   PM   PM  PM  PM  PM         PM   PM   PM  PM  PM  PM
  s  S s S  s S s S s S s S S S    s  S s S  s S s S s S s S
|-------------------------------|----------------------------|
|-------------------------------|----------------------------|
|-------------------------------|----------------------------|
|-9p=7-----11p7-----9p7-------7-|--9p=7-----11p7-----9p7-----|
|------8p7------8p7-----8-7-8---|-------7h8------8p7-----8p7-|
|-------------------------------|----------------------------|
|
| H..                             +H.
|-------------------------------|----------------------------|
|-------------------------------|----------------------------|
|-------------------------------|----------------------------|
|-2-----------------------------|-(2)------------------------|
|-2-----------------------------|-(2)------------------------|
|-0-----------------------------|-(0)------------------------|


 7/8                            6/8
  PM  PM   PM  PM  PM  PM        PM  PM   PM  PM  PM  PM
  s S s S  s S s S s S s S S S   s S s S  s S s S s S s S
|------------------------------|--------------------------|
|------------------------------|--------------------------|
|------------------------------|--------------------------|
|-9p7-----11p7-----9p7-------7-|-9p7-----11p7-----9p7-----|
|-----8p7------8p7-----8-7-8---|-----7h8------8p7-----8p7-|
|------------------------------|--------------------------|
|
| S S H.                         H.
|------------------------------|--------------------------|
|------------------------------|--------------------------|
|------------------------------|--------------------------|
|-7----------------------------|--------------------------|
|-5----------------------------|--------------------------|
|-5----------------------------|--------------------------|


 7/8                             6/8
  PM   PM   PM  PM  PM  PM         PM   PM   PM  PM  PM  PM
  s  S s S  s S s S s S s S S S    s  S s S  s S s S s S s S
|-------------------------------|----------------------------|
|-------------------------------|----------------------------|
|-------------------------------|----------------------------|
|-9p=7-----11p7-----9p7-------7-|--9p=7-----11p7-----9p7-----|
|------8p7------8p7-----8-7-8---|-------7h8------8p7-----8p7-|
|-------------------------------|----------------------------|
|
| ~~~
| H..                             +H.
|-------------------------------|----------------------------|
|-------------------------------|----------------------------|
|-------------------------------|----------------------------|
|-------------------------------|----------------------------|
|-4-----------------------------|-(4)------------------------|
|-------------------------------|----------------------------|


 7/8                            6/8
  PM  PM   PM  PM  PM  PM        PM  PM   PM  PM  PM  PM
  s S s S  s S s S s S s S S S   s S s S  s S s S s S s S
|------------------------------|--------------------------|
|------------------------------|--------------------------|
|------------------------------|--------------------------|
|-9p7-----11p7-----9p7-------7-|-9p7-----11p7-----9p7-----|
|-----8p7------8p7-----8-7-8---|-----7h8------8p7-----8p7-|
|------------------------------|--------------------------|
|
| S S H.                         H.
|------------------------------|--------------------------|
|------------------------------|--------------------------|
|------------------------------|--------------------------|
|------------------------------|--------------------------|
|-5----------------------------|--------------------------|
|-3----------------------------|--------------------------|


   7/8           6/8
    Q  Q  E E E   Q  Q  Q   4x
||--------------|-----------||
||o-------------|----------o||
||--------------|-----------||
||--------------|-----------||
||o-------5-7-8-|-7-----7--o||
||--0--0--------|----0------||


   7/8           6/8
                  PM------------|
    Q  Q  E E E   e s s e e s s e  4x
||--------------|------------------||
||o-------------|-----------------o||
||--------------|------------------||
||--------2h3-0-|------------------||
||o-2--2--2h3-0-|-2-2-2-2-2-2-2-2-o||
||--0--0--------|-0-0-0-0-0-0-0-0--||


   Verse 1  0:45
    $
   7/8           6/8
                  PM------------|
    Q  Q  E E E   e s s e e s s e  5x
||--------------|------------------||
||o-------------|-----------------o||
||--------------|------------------||
||--------2h3-0-|------------------||
||o-2--2--2h3-0-|-2-2-2-2-2-2-2-2-o||
||--0--0--------|-0-0-0-0-0-0-0-0--||


 7/8           6/8
                PM------------|
  Q  Q  E E E   e s s e e s s e
|-------------|-----------------|
|-------------|-----------------|
|-------------|-----------------|
|-------2h3-0-|-4-----4-4-----4-|
|-2--2--2h3-0-|-2-2-2-2-2-2-2-2-|
|-0--0--------|-----------------|


 7/8           6/8
                PM------------|
  Q  Q  E E E   e s s e e s s e
|-------------|-----------------|
|-------------|-----------------|
|-------------|-----------------|
|-------2h3-0-|-----------------|
|-2--2--2h3-0-|-2-2-2-2-2-2-2-2-|
|-0--0--------|-0-0-0-0-0-0-0-0-|


 7/8           9/8
                PM--------------------|
  Q  Q  E E E   e s s e e s s e e s s e
|-------------|-------------------------|
|-------------|-------------------------|
|-------------|-------------------------|
|-------2h3-0-|-5-------5-------4-------|
|-2--2--2h3-0-|-3-3-3-3-3-3-3-3-2-2-2-2-|
|-0--0--------|-------------------------|


 7/8           6/8
                PM------------|
  Q  Q  E E E   e s s e e s s e
|-------------|-----------------|
|-------------|-----------------|
|-------------|-----------------|
|-------2h3-0-|-6-------6-------|
|-2--2--2h3-0-|-4-4-4-4-4-4-4-4-|
|-0--0--------|-----------------|


 7/8          9/8
               PM--------------------|
  Q  Q  Q  E   e s s e e s s e e s s e
|------------|-------------------------|
|------------|-------------------------|
|------------|-------------------------|
|-5--5--5--5-|-----------------4-----4-|
|-3--3--3--3-|-4-----4-5-----5-2-2-2-2-|
|------------|-2-2-2-2-3-3-3-3---------|


 7/8           6/8
                PM------------|
  Q  Q  E E E   e s s e e s s e
|-------------|-----------------|
|-------------|-----------------|
|-------------|-----------------|
|-------2h3-0-|-6-------6-------|
|-2--2--2h3-0-|-4-4-4-4-4-4-4-4-|
|-0--0--------|-----------------|


 7/8          9/8
               PM--------------------|
  Q  Q  Q  E   e s s e e s s e e s s e
|------------|-------------------------|
|------------|-------------------------|
|------------|-------------------------|
|-5--5--5--5-|-------------------------|
|-3--3--3--3-|-4-----4-5-----5-7-----7-|
|------------|-2-2-2-2-3-3-3-3-5-5-5-5-|


   7/8                        6/8
    PM------------|
    s s s s s s s s S S Q   3x E E E E E E
||--------------------------||-------------|
||o------------------------o||-------------|
||--------------------------||-------------|
||--------------------------||-2-----------|
||o-----------------2------o||---3-2-------|
||--0-0-0-0-0-0-0-0-0-------||-------5-3-1-|


   7/8                        6/8
    PM------------|
    s s s s s s s s S S Q   3x E E E E E E
||--------------------------||-------------|
||o------------------------o||-------------|
||--------------------------||-------------|
||--------------------------||-2-----------|
||o-----------------2------o||---3-2-------|
||--0-0-0-0-0-0-0-0-0-------||-------5-3-1-|


   Chorus 1:26
                         1.,2.,3.
   5/4
    E S S E E E E q  q    E S S E E E E q  q   4x
||----------------------|----------------------||
||o-8p7p5---5-7-8-7--5--|---------------------o||
||--------8-------------|---5h9p8p5--------5---||
||----------------------|-9---------9-7-9------||
||o---------------------|---------------------o||
||----------------------|----------------------||


  4.
  PM---------------------------------|
  s s s  s E s s s s E s s s s s s s s
|--------------------------------------|
|--------------------------------------|
|--------------------------------------|
|-9-9-7------7-7-5-----5-4-----2-1-----|
|-------10-9-------9-7-----7-6-----3-2-|
|--------------------------------------|


                                                           To Coda
 7/8                                                   6/8
  PM------------|            PM------------|
  S s s s s s s s S S Q      s s s s s s s s S S Q      E E E E E E
|------------------------||--------------------------||--------------|
|------------------------||o------------------------o||--------------|
|------------------------||--------------------------||--------------|
|------------------------||--------------------------||-2------------|
|-3---------------2------||o-----------------2------o||---3-2--------|
|---0-0-0-0-0-0-0-0------||--0-0-0-0-0-0-0-0-0-------||-------5-3-1--|


                             D.S. al Coda
   7/8                        6/8
    PM------------|
    s s s s s s s s S S Q   3x E E E E E E
||--------------------------||-------------|
||o------------------------o||-------------|
||--------------------------||-------------|
||--------------------------||-2-----------|
||o-----------------2------o||---3-2-------|
||--0-0-0-0-0-0-0-0-0-------||-------5-3-1-|


    &
   7/8                        6/8
    PM------------|
    s s s s s s s s S S Q   3x E E E E E E
||--------------------------||-------------|
||o------------------------o||-------------|
||--------------------------||-------------|
||--------------------------||-2-----------|
||o-----------------2------o||---3-2---2-3-|
||--0-0-0-0-0-0-0-0-0-------||-------5-----|


 Guitar Solo 2:55
 7/4
                     ~~~
  H        +Q    +E  H..
|---------------------------------|
|---------------------------------|
|-8b10=====(8)r==(8)-6------------|
|---------------------------------|
|---------------------------------|
|---------------------------------|
|
| Gtr III
| H         E  E  E  Q    Q  Q  E
|---------------------------------|
|---------------------------------|
|---------------------------------|
|---------------------------------|
|-----------2--4--5--4-------2--4-|
|---------------------------------|
|-2-----------------------2-------|


 15/8
   ~~~~                             ~~
  +H         E  E  E  E     +E   E  H     E
|-------------------------------------------|
|-------------------------------------------|
|-(6)\---------10-11-13b15r(13)-11-10-------|
|----------/12------------------------------|
|-------------------------------------------|
|-------------------------------------------|
|
|  q    Q    E  E  E  E      E   E  Q  Q  E
|-------------------------------------------|
|-------------------------------------------|
|-------------------------------------------|
|---------------------3b4r===3--------------|
|------------2--4--5-------------5--4--2----|
|-------------------------------------------|
|--2----2---------------------------------2-|


 7/4
    ~~~
    H      E  E E  E  E E  E  Q       +E
|-----------------------------------------|
|-/12-----12----9-12----9-12-12pb14r=(12)-|
|------------10---------------------------|
|--------------------11-------------------|
|-----------------------------------------|
|-----------------------------------------|
|
|   q  Q   E  E E  Q    Q     Q        E
|-----------------------------------------|
|-----------------------------------------|
|-----------------------------------------|
|-----------------------------------------|
|----------2--4-5--4----------2--------5--|
|-----------------------------------------|
|---2--2----------------2-----------------|


 15/8
   ~~~~~                                  ~~~~         PM----|
   H        S.   S.   S  S S  S S  S  S   Q    S S S S s s s s
|--------------------------------------------------------------|
|-12b14--------[10]---9-10-9----9------------------------------|
|----------------------------11---10-11-[10]---7-6-7-6---6-----|
|------------------------------------------------------9---7-9-|
|--------------------------------------------------------------|
|--------------------------------------------------------------|
|
|  q     q  E       E    E    E    E      E  E E   E   E   E
|--------------------------------------------------------------|
|--------------------------------------------------------------|
|--------------------------------------------------------------|
|----------------------------/6----4------3--------------------|
|-----------2-------4----5-------------------5-4---4-----------|
|--4-----4---------------------------------------------2---2---|
|--2-----2-----------------------------------------------------|


 7/4
  ~~~
  Q..      S  S  S  S  S  S  S  Q   S  S  S  S  S  S  S  S  S  S
|--------/13h16p13----16----13h16--16p13----16----13-17p13----13-|
|------------------15----15--------------15----15----------14----|
|-6--------------------------------------------------------------|
|----------------------------------------------------------------|
|----------------------------------------------------------------|
|----------------------------------------------------------------|
|
| Q    Q      E     E     E     Q   Q           Q           E
|----------------------------------------------------------------|
|----------------------------------------------------------------|
|----------------------------------------------------------------|
|----------------------------------------------------------------|
|-------------2-----4-----5-----4--------------------------------|
|-----------------------------------------------2-----------5----|
|-2----2----------------------------2-----------0-----------3----|


 15/8
   S  S  S  S  S  S  E  +T   T  S  S  S  S  S  S  S  S  a  S  S  a  S  S  S  S  a  S  S  a  S  S  S  S  S
|-19p16----19----16h19-(19)\---21p17----16h19p16----19-16-16h19-19p16-------16-13-13h16-16p13-------13----|
|-------18----18-------------x-------18----------18-------------------18p15-------------------15p12----12-|
|---------------------------------------------------------------------------------------------------------|
|---------------------------------------------------------------------------------------------------------|
|---------------------------------------------------------------------------------------------------------|
|---------------------------------------------------------------------------------------------------------|
|
|  q           q         E         E     E     E     E        E        Q              Q              E
|---------------------------------------------------------------------------------------------------------|
|---------------------------------------------------------------------------------------------------------|
|---------------------------------------------------------------------------------------------------------|
|---------------------------------------------/4-----3----------------------------------------------------|
|------------------------2---------4-----5--------------------5--------4--------------2--------------4----|
|--4-----------4------------------------------------------------------------------------------------------|
|--2-----------2------------------------------------------------------------------------------------------|


 7/4
    ~~~~~~~~~                 ~
         |------6------|           |-----6-----|
    Q   +S   S S  S  S S  Q   Q   +S  S  S S S S Q     E.   T  T
|-/13--(13)p10p9--------------9---(9)p7--------------------------|
|----------------13p10p9----------------10p9p6-------/10----9h10-|
|------------------------10--------------------7p6---------------|
|----------------------------------------------------------------|
|----------------------------------------------------------------|
|----------------------------------------------------------------|
|
|   Q    Q                E E E Q          Q       Q      E
|----------------------------------------------------------------|
|----------------------------------------------------------------|
|----------------------------------------------------------------|
|----------------------------------------------------------------|
|-------------------------2-4-5-4--------------------------------|
|--------------------------------------------------2------5------|
|---2----2---------------------------------2-------0------3------|


 15/8
  T  T T  T Q.    S S  S S S  S   S  S  S  S  S  S   S  S  S  S  S  S  S  S  S  S
|---------------------------------------------------------------------19-21-22-21-|
|-9h10p9h10p9------------------------------------------------19-21-22-------------|
|-----------------------------------------13-14-16-/18-19-22----------------------|
|------------------------7-9-11-/12-15-16-----------------------------------------|
|-----------------8-9-11----------------------------------------------------------|
|---------------------------------------------------------------------------------|
|
| q            q  E    E   E      E     E     E      E     E     E     E     E
|---------------------------------------------------------------------------------|
|---------------------------------------------------------------------------------|
|---------------------------------------------------------------------------------|
|--------------------------------/6-----4-----3-----------------------------------|
|-----------------2----4---5-------------------------5-----4-----4----------------|
|-4------------4-------------------------------------------------------2-----2----|
|-2------------2------------------------------------------------------------------|


 Breakdown 3:17
 7/8
   +E       H.
|-(21)\-----------------------------------------|
|-----------------------------------------------|
|-----------------------------------------------|
|-----------------------------------------------|
|-----------------------------------------------|
|-----------------------------------------------|
|
| Gtr II
|   S    S  S   S  S  S  S  S  S  S  S  S  S  S
|-----------------------------------------------|
|--17p==15--------------------------------------|
|----------16--14-19p16-------16p14----------14-|
|-----------------------19-15-------15-14-15----|
|-----------------------------------------------|
|-----------------------------------------------|


   H..
|-------------------------------------------|
|-------------------------------------------|
|-------------------------------------------|
|-------------------------------------------|
|-------------------------------------------|
|-------------------------------------------|
|
|  S    S  S  S  S  S  S  S  S S  S S  S  S
|-------------------------------------------|
|-------------------------------------------|
|-16p==14-------14p10-------10p9---------10-|
|---------15-14-------14-12------12-9-12----|
|-------------------------------------------|
|-------------------------------------------|


     Gtr II
   S  S  S  S  S S  S  S S S  S S  S S   S S  S S S S S S S S S S S S
|--------------------------------------|------------------------------|
|--------------------------------------|------------------------------|
|-14p10-------10p9-------9p7---------7-|-9p7------7p5p4---5p4p2-----2-|
|-------14-12------12-10-----10-9-10---|-----10-9-------7-------3-5---|
|--------------------------------------|------------------------------|
|--------------------------------------|------------------------------|


                                                       6/8
                             PM------------|
  S S S S S S S S S S Q      s s s s s s s s S S Q      E E E E E E
|------------------------||--------------------------||-------------|
|------------------------||o------------------------o||-------------|
|------------------------||--------------------------||-------------|
|-2----------------------||--------------------------||-2-----------|
|-----------------2------||o-----------------2------o||---3-2-------|
|---0-0-0-0-0-0-0-0------||--0-0-0-0-0-0-0-0-0-------||-------5-3-1-|


   7/8                        6/8
    PM------------|
    s s s s s s s s S S Q   3x E E E E E E
||--------------------------||-------------|
||o------------------------o||-------------|
||--------------------------||-------------|
||--------------------------||-2-----------|
||o-----------------2------o||---3-2-----3-|
||--0-0-0-0-0-0-0-0-0-------||-------3-5---|


 Keyboard Solo 3:33
 7/4                      15/8
  Gtr III
  PM-|                     PM-|
  q  q  E E E Q  Q  Q  E   q  q  E E E  E E E Q  Q  E
|------------------------|-----------------------------|
|------------------------|-----------------------------|
|------------------------|-----------------------------|
|------------------------|-------------/2-1------------|
|-------0-2-3-2-----0--3-|-------0-2-3------3-2--0--3--|
|-------------------0----|--------------------------3--|
|-0--0-----------0-------|-0--0------------------------|


 7/4                      15/8
  PM-|                     PM-|
  q  q  E E E Q  Q  Q  E   q  q  E E E  E E E Q  E E E
|------------------------|------------------------------|
|------------------------|------------------------------|
|------------------------|------------------------------|
|------------------------|-------------/4-2-1----2-1----|
|-------0-2-3-2-----0--3-|-------0-2-3--------2------3--|
|-------------------0----|------------------------------|
|-0--0-----------0-------|-0--0-------------------------|


 7/4                      15/8
  PM-|                     PM-|
  q  q  E E E Q  Q  Q  E   q  q  E E E  E E E Q  Q  E
|------------------------|-----------------------------|
|------------------------|-----------------------------|
|------------------------|-----------------------------|
|------------------------|-------------/2-1------------|
|-------0-2-3-2-----0--3-|-------0-2-3------3-2--0--3--|
|-------------------0----|-----------------------------|
|-0--0-----------0-------|-0--0------------------------|


 7/4                      15/8
  PM-|                     PM-|
  q  q  E E E Q  Q  Q  E   q  q  E E E  E E E Q  E E E
|------------------------|------------------------------|
|------------------------|------------------------------|
|------------------------|------------------------------|
|------------------------|-------------/4-2-1-----------|
|-------0-2-3-2-----0--3-|-------0-2-3--------2--2-4-5--|
|-------------------0----|------------------------------|
|-0--0-----------0-------|-0--0-------------------------|


 Breakdown 3:54
 7/8
  Gtr II
   S  S  S  S  S  S  S  S  S  S  S  S  S  S
|-------------------------------------------|
|-17p15-------------------------------------|
|-------16-14-19p16-------16p14----------14-|
|-------------------19-15-------15-14-15----|
|-------------------------------------------|
|-------------------------------------------|


   S  S  S  S  S  S  S  S  S S  S S  S  S
|-----------------------------------------|
|-----------------------------------------|
|-16p14-------14p10-------10p9---------10-|
|-------15-14-------14-12------12-9-12----|
|-----------------------------------------|
|-----------------------------------------|


   S  S  S  S  S S  S  S S S  S S  S S   S S  S S S S S S S S S S S S
|--------------------------------------|------------------------------|
|--------------------------------------|------------------------------|
|-14p10-------10p9-------9p7---------7-|-9p7------7p5p4---5p4p2-----2-|
|-------14-12------12-10-----10-9-10---|-----10-9-------7-------3-5---|
|--------------------------------------|------------------------------|
|--------------------------------------|------------------------------|


 7/8
  H..         +H      Q.     H..
|-----------|--------------|--------|
|-----------|--------------|--------|
|-----------|--------------|--------|
|-2---------|-(2)----------|--------|
|-----------|--------------|--------|
|-----------|--------------|--------|
|
| Gtr III
| H..         +H      Q.     H..
|-----------|--------------|--------|
|-----------|--------------|--------|
|-----------|--------------|--------|
|-----------|--------------|--------|
|-----------|--------/2----|-5------|
|-0---------|-(0)----------|--------|
|-----------|--------------|--------|


  Gtr III
  H    Q.     H..         +H     Q.
|-----------|-----------|-------------|
|-----------|-----------|-------------|
|-----------|-----------|-------------|
|-----------|-----------|-------------|
|-----------|-----------|-------------|
|-4----5----|-7---------|-(7)----1----|
|-----------|-----------|-------------|


  H..         H    Q.
|-----------|-----------|
|-----------|-----------|
|-----------|-----------|
|-----------|-----------|
|-----------|-----------|
|-4---------|------1----|
|-----------|-3---------|


                              6/8
    Gtr I
    PM------------|
    s s s s s s s s S S Q   3x E E E E E E
||--------------------------||-------------|
||o------------------------o||-------------|
||--------------------------||-------------|
||--------------------------||-2-----------|
||o-----------------2------o||---3-2-------|
||--0-0-0-0-0-0-0-0-0-------||-------5-3-1-|


   7/8                        6/8
    PM------------|
    s s s s s s s s S S Q   3x E E E E E E
||--------------------------||-------------|
||o------------------------o||-------------|
||--------------------------||-------------|
||--------------------------||-2-----------|
||o-----------------2------o||---3-2-------|
||--0-0-0-0-0-0-0-0-0-------||-------5-3-1-|


 7/8
  Gtr III
  H..         +H      Q.      H..
|-----------|--------------|---------|
|-----------|--------------|---------|
|-----------|--------------|---------|
|-----------|--------------|---------|
|-----------|--------/5----|-/8------|
|-3---------|-(3)----------|---------|
|-----------|--------------|---------|


  H    Q.      H..         +H     Q.
|-----------|------------|-------------|
|-----------|------------|-------------|
|-----------|------------|-------------|
|-----------|------------|-------------|
|-4----5----|-/7---------|-(7)----2----|
|-----------|------------|-------------|
|-----------|------------|-------------|


  ~~~
  H..         H    Q.
|-----------|-----------|
|-----------|-----------|
|-----------|-----------|
|-----------|-----------|
|-5---------|-----------|
|-----------|-4----1----|
|-----------|-----------|


                              6/8
    Gtr I
    PM------------|
    s s s s s s s s S S Q   3x E E E E E E
||--------------------------||-------------|
||o------------------------o||-------------|
||--------------------------||-------------|
||--------------------------||-2-----------|
||o-----------------2------o||---3-2-------|
||--0-0-0-0-0-0-0-0-0-------||-------5-3-1-|


   7/8                        5/8
    PM------------|
    s s s s s s s s S S Q   3x E E E E E
||--------------------------||-----------|
||o------------------------o||-----------|
||--------------------------||-----------|
||--------------------------||-2---------|
||o-----------------2------o||---3-2-----|
||--0-0-0-0-0-0-0-0-0-------||-------5-3-|


 Outro 4:39
 4/4
  Gtr III
  S S S S S S S S S S S S S S S S   S S S S S S S S  S S  S S T T  S S  S
|---------------------------------|---------------------------------------|
|---------------------------------|---------------------------------------|
|---------------------------------|---------------7----7-10-9-9-7----7-10-|
|-------------------------3-2-----|---3-2-3-6-7-9---10------------10------|
|---------------0-2-5-3-5-----5-3-|-5-------------------------------------|
|-------1-0-1-4-------------------|---------------------------------------|
|-3-1-3---------------------------|---------------------------------------|


 4/4
  S T T  S S S  S S S S S S  S  S  S  S  S
|------------------------------------------|
|------------------------------------------|
|-9-9-7------7------------7-10-------13-14-|
|-------10-9---10-9-7-6-9------14-15-------|
|------------------------------------------|
|------------------------------------------|
|------------------------------------------|


   S  S  S  S  S  S  S  S  S  S  S  S  S  S  S  S
|-------------------------------------------16-19-|
|----------------------------13-15-18-17-18-------|
|-16-14-13----------13-14-16----------------------|
|----------15-14-15-------------------------------|
|-------------------------------------------------|
|-------------------------------------------------|
|-------------------------------------------------|


 4/4
   ~~~~~~~~~~~~~~~~~~~~~~~~~~~~~~~~~~~~~~~~~~~~~~~~~~~~~~~~~~~~~~~
   W           +W                 +W            +W            +W
|-17--------|-(17)-------------|-(17)--------|-(17)--------|-(17)----*|
|-----------|------------------|-------------|-------------|---------*|
|-----------|------------------|-------------|-------------|---------*|
|-----------|------------------|-------------|-------------|---------*|
|-----------|------------------|-------------|-------------|---------*|
|-----------|------------------|-------------|-------------|---------*|
|-----------|------------------|-------------|-------------|---------*|
|
| Gtr IV
|               |-3--| |-3-|
|  W            Q  Q Q Q Q Q       W            +W            +W
|-----------|---0--0-0-0-0-0---|---0---------|--(0)--------|--(0)----*|
|-----------|---0--0-0-0-0-0---|---0---------|--(0)--------|--(0)----*|
|-----------|---2--2-2-2-2-2---|---2---------|--(2)--------|--(2)----*|
|-----------|---2--2-2-2-2-2---|---2---------|--(2)--------|--(2)----*|
|-----------|---0--0-0-0-0-0---|---0---------|--(0)--------|--(0)----*|
|-----------|------------------|-------------|-------------|---------*|

-------------------------------------------------------------------------

5. GOODNIGHT KISS
Tuning - E,A,D,G,B,E

 Intro
    Slow Q=76
    Amaj9         Emaj7         Amaj9         Emaj7
   4/4
    Gtr I
    E E H    Q    E E H    Q    E E H    Q    E E H    Q   4x
||------0-------|-----0-------|-----0-------|--------------||
||o-----0-------|-----0-------|-----0-------|-----7-------o||
||------6-------|-----8-------|-----6-------|-----8--------||
||----6---------|-----9-------|---6---------|-----9--------||
||o-0--------0--|---7---------|-0--------0--|---7---------o||
||--------------|-0--------0--|-------------|-0--------0---||


   Verse
    Amaj9         Emaj7         Amaj9         Emaj7
    E E H    Q    E E H    Q    E E H    Q    E E H    Q
||------0-------|-----0-------|-----0-------|-------------|
||o-----0-------|-----0-------|-----0-------|-----7-------|
||------6-------|-----8-------|-----6-------|-----8-------|
||----6---------|-----9-------|---6---------|-----9-------|
||o-0--------0--|---7---------|-0--------0--|---7---------|
||--------------|-0--------0--|-------------|-0--------0--|


  Amaj9         Emaj7         Amaj9         Emaj7
  E E H    Q    E E H    Q    E E H    Q    E E H    Q
|-----0-------|-----0-------|-----0-------|--------------||
|-----0-------|-----0-------|-----0-------|-----7--------||
|-----6-------|-----8-------|-----6-------|-----8--------||
|---6---------|-----9-------|---6---------|-----9--------||
|-0--------0--|---7---------|-0--------0--|---7----------||
|-------------|-0--------0--|-------------|-0--------0---||


 Bridge
  G#m               G#m/maj7          B/F#    D#m       E
                                                               ~
  E E E E E E E E   E E E E E E E E   E E E E E E E E   E E Q  Q  Q
|-----------------|-----------------|-------------6---|---------------|
|---------4-------|---------4-------|-------4-7-------|-9------5--4---|
|-------4-----4---|-------4-----4---|-----4-----8---8-|---9-----------|
|-----6---------6-|-----5---------5-|---4-------------|-----9---------|
|---6-------------|---6-------------|---------6-------|-7-------------|
|-4---------4-----|-4---------4-----|-2---------------|---------------|


                                                   1.
  C#                C#m/maj7        G#m/B           F#          G
  E E E E E E E E   E E E E Q  Q    E E E E Q  Q    W           W
|-------------4---|---------4-----|---------4-----|-2--------||-3----|
|-------4-5-----5-|-------4----4--|-------4----4--|-2--------||-3----|
|-----6-----6-----|-----5---------|-----4---------|-3--------||-0----|
|---6-------------|---6-----------|---6-----------|-4--------||-0----|
|-4---------------|-4-------------|---------------|-4--------||------|
|-----------------|---------------|-7-------------|-2--------||-3----|


  D                G               D                G
  E Q  E +Q   Q    Q.   E +H       E Q  E +Q   Q    Q.   E +E  Q  E
|-0-2------------|-3-------------|-0-2------------|-3----2-(2)-0-----|
|-3----3-(3)-----|-3-------------|-3----3-(3)-----|-3-------------3--|
|-2-----------2--|-0----2-(2)----|-2-----------2--|-0----------------|
|-0--------------|-0-------------|-0--------------|-0----------------|
|----------------|---------------|----------------|------------------|
|----------------|-3-------------|----------------|-3----------------|


                                                    2.
  D                G                D                F#
  E Q  E +Q   Q    Q.   E +Q   Q    E E +H.          W
|-0-2------------|-3--------------|-0-2-(2)-------||-2----||
|-3----3-(3)-----|-3-----------3--|-3------------o||-2----||
|-2-----------2--|-0----2-(2)-----|-2-------------||-3----||
|-0--------------|-0--------------|-0-------------||-4----||
|----------------|----------------|--------------o||-4----||
|----------------|-3--------------|---------------||-2----||


 Guitar Solo I
  A                      E
  Gtr II
  ~~                        ~~~~~~~~~~~~
  Q.    E +E  E a E  E    a Q.   E +Q     Q
|----------------------|---------------------|
|-9----\5-(5)s7-7s9-10-|-10p9----------------|
|----------------------|---------9-(9)\--\4--|
|----------------------|---------------------|
|----------------------|---------------------|
|----------------------|---------------------|


  A                           E
  ~~
  Q.    E +E  E E a     +E    +Q.   a  E   Q    S  S  S  S
|---------------------------|-------------------------------|
|-9----\5-(5)s7-9-9b10==(9)r|=(9)---9s10-/12---------17-19--|
|---------------------------|-----------------/16-18--------|
|---------------------------|-------------------------------|
|---------------------------|-------------------------------|
|---------------------------|-------------------------------|


  A                        E
   ~~~                         ~~~~~~~~~~~~~
   Q.    E  +E   E  E  E    a  Q.    E  +Q     E E
|-16---------------16-17-|-17p16-------------------|
|-------17-(17)S19-------|----------17-(17)--\12---|
|------------------------|-------------------------|
|------------------------|-------------------------|
|------------------------|-------------------------|
|------------------------|-------------------------|


  A                        E
   ~~~                       ~~~~~~~~     ~~
   Q.    E  +E   E  E  E     Q   +E.   S  H
|-16---------------16-17-|-/19--(19)-/24-24----||
|-------17-(17)S19-------|---------------------||
|------------------------|---------------------||
|------------------------|---------------------||
|------------------------|---------------------||
|------------------------|---------------------||


 Interlude
  C                Dm/C
  ~~                ~~~
  H.        E  E    H.        E  E
|----------------|-----------------|
|-8-------/12-13-|-10-------/12-13-|
|----------------|-----------------|
|----------------|-----------------|
|----------------|-----------------|
|----------------|-----------------|


  G/B                      Am
   ~~~~~~~~~                                     ~~
   H    +E  a a  E  E  E    a      +E   +E   Q   Q   Q
|------------------------|-12b13==(12)r(12)-12----------|
|-\8----(8)-----12-13-15-|----------------------15--13--|
|-------------x----------|------------------------------|
|-----------x------------|------------------------------|
|------------------------|------------------------------|
|------------------------|------------------------------|


  G6                                  F                 Bb
                      ~~~              ~~~               ~~~
                            |--3--|
   a      +Q.    +E   Q.    S  S  S    H.        E  E    H.       E  E
|-----------------------------------|-----------------|----------------|
|-15b17==(15)r==(15)-12----12h13p12s|=10-------/12-13-|-15-------17-18-|
|-----------------------------------|-----------------|----------------|
|-----------------------------------|-----------------|----------------|
|-----------------------------------|-----------------|----------------|
|-----------------------------------|-----------------|----------------|


  G
   ~~~~~
            |--3--|  |------6-------|  |------6-------|
   Q     E  S  S  S  S  S  S  S  S  S  S  S  S  S  S  S
|-------------------------15-19----------------17-20-19---|
|-18b20----------------15-------------17-18-20------------|
|-------------------16-------------19---------------------|
|----------------17-------------17------------------------|
|-------------17------------------------------------------|
|----------15---------------------------------------------|


  C                      Dm/C                   G/B
   ~~~~~~~~~~~~~          ~~~~~~~~~~~~~          ~~~~~~~~~~~~~
   Q.    E  +Q    E  E    Q.    E  +Q    E  E    Q.    E  +E   E  E  E
|----------------19-20-|-17----17-(17)--19-20-|---------------19-20-22-|
|-20----20-(20)--------|----------------------|-20----20-(20)----------|
|----------------------|----------------------|------------------------|
|----------------------|----------------------|------------------------|
|----------------------|----------------------|------------------------|
|----------------------|----------------------|------------------------|


  Bb              Am        Fm/Ab
               ~~      ~~                 ~~~~~~~
   a     +Q    Q   Q   Q     a     +Q.    E  +Q    Q
|-24b25-(24)--24--22--20--|----------------------------|
|-------------------------|-20b21-(20)---20-(20)--18---|
|-------------------------|----------------------------|
|-------------------------|----------------------------|
|-------------------------|----------------------------|
|-------------------------|----------------------------|


  C/G                    D/F#
   ~~                     ~~~~~~~~~~~~~
               |--3--|                      |--3--|
   H     Q.    S  S  S    Q.    E  +E.   S  E  e  e
|-20-------------------|----------------------------|
|-------17----17h18p17-|-15----15-(15)-----12-13-15-|
|----------------------|---------------/14----------|
|----------------------|----------------------------|
|----------------------|----------------------------|
|----------------------|----------------------------|


  Fm                    Gsus4          G
                 ~~~~~~~~~~~
                               |--3--|
   a     +H      H       Q.    S  S  S  E  +Q.
|---------------------|------------------------------||
|-15b16-(15)----15----|-13----13h15p13-12-(12tr13)---||
|---------------------|------------------------------||
|---------------------|------------------------------||
|---------------------|------------------------------||
|---------------------|------------------------------||


 Guitar Solo II
  Faster Q=104
  Cm          D/C                 Cm         D/C         Cm
                                             <    <       <
                                  ~                       ~~~~~~~~~
   W           +H.       E  +E    W          h    h       H    +E  +E  E E
|-----------|-------------------|----------|-----------|---------------------|
|-13--------|-(13)------13-(13)s|=8--------|-7----6----|---------------------|
|-----------|-------------------|----------|-----------|-/8----(8)-(8)s5-----|
|-----------|-------------------|----------|-----------|---------------------|
|-----------|-------------------|----------|-----------|---------------------|
|-----------|-------------------|----------|-----------|---------------------|


  D/C                    Cm                             D/C
                                         ~~
       |--3--|  |-3--|
  H    E   E E  E E  E    E       +S  S  H     +E   E   H    E   S S  S S S S
|----------------------|------------------------------|-----------------------|
|----------------------|-10b10.5r(10)-----------------|-----------------------|
|-----------------8-10-|-10b10.5r(10)p8---------------|-----------------------|
|------------8-10------|----------------10----(10)\---|------------8----------|
|--------/10-----------|------------------------------|--------/10---\8-6-----|
|----------------------|------------------------------|-------------------8p6-|


  Cm               D/C
  ~
                       |-3--|
  H    Q      Q    E   S S  S      +E   S S  a     +Q    Q
|----------------|----------------------8---11b13-(11)--11--|
|----------------|------------------------8-----------------|
|----------------|-------8-10b12==(10)r---------------------|
|----------------|---/10------------------------------------|
|------6b6.5-----|------------------------------------------|
|-8--------------|------------------------------------------|


  Cm
   ~~~
   Q.   +E   Q  E  S  S
|-/8----(8)\------------|
|-----------------13-13-|
|-----------------------|
|-----------------------|
|-----------------------|

|-----------------------|


  D/C
                               |--3--|
   a      +E   +E.  +S   S  S  S  S  S  E  S  S  a     +S   S
|-15b17==(15)-(15)r(15)-15-14-13h14p13------------------------|
|--------------------------------------16-16-13------------13-|
|-----------------------------------------------15b17-(15)----|
|-------------------------------------------------------------|
|-------------------------------------------------------------|
|-------------------------------------------------------------|


  Cm                          D/C
         ~~~                                                    ~~~
    S S  Q.   Q      E S  S   S  S  S  S  a     +E   a     +E   Q.   E
|---------------------------|-------------------------------------------|
|---------------------------|---------11-13b16-(13)-13b16-(13)-13-------|
|-\10-8-------8b8.5---------|-8-10s12-----------------------------------|
|-------10-------------8-10-|-------------------------------------------|
|---------------------------|-------------------------------------------|
|---------------------------|-------------------------------------------|


  Cm                                           D/C
                                                ~~
   a     +E   S  S  Q      a      +Q.    +E     Q  E.  S  S  S  S S S S S  S
|---------------20-20b22--20b22==(20)r==(20)-|--------10-10------------------||
|------------20------------------------------|-19-----------10-10-7-7-----10-||
|-22b24-(22)---------------------------------|------------------------7-7----||
|--------------------------------------------|-------------------------------||
|--------------------------------------------|-------------------------------||
|--------------------------------------------|-------------------------------||


  Ebm
    ~~~~~~~
                 |-3--|                               |--3--|
    H    H       q q  q  a      +Q.    +S  S    Q.    S  S  S  Q.    S  S
|-------------|------------------------------|-------11-13-14-16----14p13-|
|-/11----9----|-11-9-11-11b12==(11)r==(11)p9-|-11-------------------------|
|-------------|------------------------------|----------------------------|
|-------------|------------------------------|----------------------------|
|-------------|------------------------------|----------------------------|
|-------------|------------------------------|----------------------------|


         ~~
               |------6-------|  |------6-------|
   S  S  Q  E  S  S  S  S  S  S  S  S  S  S  S  S
|-14p13-------13-11-------------------------------|
|-------16----------14-11-12p11-------------------|
|-------------------------------13-11-------------|
|-------------------------------------13-11-------|
|-------------------------------------------13p11-|
|-------------------------------------------------|


    ~~~
                                |-3--|                      |--3--|
    H     Q   +E   S  S   S  S  S  S S  S S  S S   E  S  S  S  S  S  S  S
|-----------------------|-------------------------------------------------|
|-----------------------|-------------------------------------------------|
|-----------------------|----------------------------------10h11p10----10-|
|-----------------------|----------------------------11-13----------13----|
|-/13----11--(11)\------|-9-11h12p11p9-11-9----9-/13----------------------|
|------------------9h11-|-------------------11----------------------------|


                               |--3--|                           |--3--|
   a     +E   S  S  a     +E   S  S  S  a     +E   S  S  E       S  S  S
|------------11---------------11------------------11----14b14.5-11-------|
|---------------11-14b16-(14)----14-11---------------11------------14p11-|
|-13b15-(13)---------------------------13b15-(13)------------------------|
|------------------------------------------------------------------------|
|------------------------------------------------------------------------|
|------------------------------------------------------------------------|


          ~~~~
   a     +Q.     E  S  S  S  S  S  S  S  S
|---------------------13-14-13-14-16-14-16-||
|-14b16-(14)-------16----------------------||
|--------------/15-------------------------||
|------------------------------------------||
|------------------------------------------||
|------------------------------------------||


  F#m
                 ~~
                                 |---3----|  |--3--|
   a     +H      H       a      +Q   +Q   Q  Q  Q  Q
|-16b17-(16)----16----|------------------------------|
|---------------------|-17b19==(17)r(17)-15-14-------|
|---------------------|------------------------16-14-|
|---------------------|------------------------------|
|---------------------|------------------------------|
|---------------------|------------------------------|


          ~~~~
                             |--3---|  |--3--|
   a     +Q.    S  S  a     +E   E  E  E  E  E
|----------------------------------------------|
|--------------14-17------------14-------------|
|-16b18-(16)---------16b18-(16)----17-16-14----|
|-------------------------------------------16-|
|----------------------------------------------|
|----------------------------------------------|


                                 ~~~~~~~~
         |--3--|
   S  S  S  S  S  S  S  S  S  S  E.  +E   +E
|----------------------------------------------|
|----------------------------------------------|
|----------------------------------------------|
|-16-14----------------------------------------|
|-------16s14p12-14-12-------12----------------|
|----------------------14-12----14--(14)-(14)\-|


                                            ~~~~
       |--3--|

  Q    E  E  E      +S   +S       +Q.      +Q   S   S  S  S  a      +Q.    +S   S
|---------------------------------------|-------------19-21-21b22==(21)r==(21)p19--|
|--------17-19b22==(19)r(19)b22==(19)r==|=(19)----/19------------------------------|
|----/18--------------------------------|------------------------------------------|
|---------------------------------------|------------------------------------------|
|---------------------------------------|------------------------------------------|
|---------------------------------------|------------------------------------------|


   ~~~      ~~
   Q.    E  Q  E  a     +E
|-21------------------------|
|-------19-19----17b19-(17)-|
|---------------------------|
|---------------------------|
|---------------------------|
|---------------------------|


                                        A
                           ~~~          ~~~~~~~~~~~~~~~~~~~~~
   S  S  S  S  S  S  S  S  Q.    +E     H    H      H      H
|-14----------------------------------|-----------|-------------|
|----14-17----14----------------------|-----------|-------------|
|----------16----14-16----14----(14)\-|-6----8----|-9----/11----|
|----------------------16-------------|-----------|-------------|
|-------------------------------------|-----------|-------------|
|-------------------------------------|-----------|-------------|


  B             G#m           G#          C#
   ~~~~~~~~~~~~~~~~~~~~~~~~~~~~~~~~~~~~~~~~~~~~~~~~~~~~~~~~~~~~~~~~~~~~~~~~
   H     H       H     H       W           +W            +W            +W
|-------------|-------------|-----------|-------------|-------------|---------*|
|-------------|-12----13----|-14--------|-(14)--------|-(14)--------|-(14)----*|
|-13----14----|-------------|-----------|-------------|-------------|---------*|
|-------------|-------------|-----------|-------------|-------------|---------*|
|-------------|-------------|-----------|-------------|-------------|---------*|
|-------------|-------------|-----------|-------------|-------------|---------*|

---------------------------------------------------------------------

6. SOLITARY SHELL
Tuning - E,A,D,G,B,E

Intro: 

e|---------------------------------------------|
B|---------------------------------------------|
G|--6--6-6----4--4-4----8--8-8----4--4-4-------|
D|--6--6-6----4--4-4----8--8-8----4--4-4----6--|
A|--4--4-4----2--2-2----6--6-6----2--2-2----6--|
E|------------------------------------------4--|

e|---------------------------------------------|
B|---------------------------------------------|
G|--6--6-6----4--4-4----9--9-9----8--8-8----4--| x4
D|--6--6-6----4--4-4----9--9-9----8--8-8----4--| 
A|--4--4-4----2--2-2----7--7-7----6--6-6----2--|
E|---------------------------------------------|


Verse:

VERSE CHORDS: x466xx,x244xx,244xxx...x466xx,x244xx,x799xx (KEEP REPEATING)

......................He seemed no different from the rest..........Just
e|--------------------|-------------------------------------------------|
B|--------------------|-------------------------------------------------|
G|-6-6-6-4-4-4--------|-------------------------------6-6-6-4-4-4-9-9---|
D|-6-6-6-4-4-4--4-4-4-|-------------------------------6-6-6-4-4-4-9-9---|
A|-4-4-4-2-2-2--4-4-4-|-------------------------------4-4-4-2-2-2-7-7---|
E|--------------2-2-2-|-------------------------------------------------|

Pre-Chorus:

    As a boy he was considered some-what odd...

e|---------------------------------------0-0-|
B|---------------------------------------0-0-|
G|---------------------------------------1-1-|
D|-9-9-9-9-9-9-9-9-9--7-7-7-7-7-7-7-7-7--2-2-|
A|-9-9-9-9-9-9-9-9-9--7-7-7-7-7-7-7-7-7--2-2-|
E|-7-7-7-7-7-7-7-7-7--5-5-5-5-5-5-5-5-5--0-0-| x2

....He would daydream in and out of his own world but in every other way he was fine

e|------------------------------------------0-0-0-0-0-0-----------------------------|
B|------------------------------------------0-0-0-0-0-0-----------------------------|
G|------------------------------------------1-1-1-1-1-1-----------------------------|
D|-9-9-9-9-9-9-9-9-9-9-9-9---7-7-7-7-7-7-7--2-2-2-2-2-2--4-4-4-4-4-4-4-4-4-4-4--7-7-|
A|-9-9-9-9-9-9-9-9-9-9-9-9---7-7-7-7-7-7-7--2-2-2-2-2-2--4-4-4-4-4-4-4-4-4-4-4--7-7-|
E|-7-7-7-7-7-7-7-7-7-7-7-7---5-5-5-5-5-5-5--0-0-0-0-0-0--2-2-2-2-2-2-2-2-2-2-2--5-5-|

Chorus:

  
He's a Monday morning lunatic Disturbed from time to time 

e|-----------------------------------------------------|
B|-----------------------------------------------------|
G|-----9-9-9----------9-9------------------------------|
D|-----9-9-9--7-7-7---9-9-7-7--9-9-9-9-9-9-9-9-9-9-9-9-|
A|-----7-7-7--7-7-7---7-7-7-7--9-9-9-9-9-9-9-9-9-9-9-9-|
E|------------5-5-5-------5-5--7-7-7-7-7-7-7-7-7-7-7-7-|

Lost within himself In his solitary shell 


e|----------------------------------------|
B|----------------------------------------|
G|-------------------------9-9-9-9--------|
D|7-7-7-7-7-7-7-7-7-7-7-7--9-9-9-9--9-9-9-|
A|7-7-7-7-7-7-7-7-7-7-7-7--7-7-7-7--9-9-9-|
E|5-5-5-5-5-5-5-5-5-5-5-5-----------7-7-7-|


A temporary catatonic Madman on occasion..When will he break out of his solitary shell

e|------------------------------------|----------------------------------------------|
B|------------------------------------|----------------------------------------------|
G|-9-9-------9-9----------------------|---------------------------------9-9-9-9------|
D|-9-9-7-7---9-9-7-7--9-9-9-9-9-9-9-9-|--7-7-7-7-7-7-7-7-7-7-7-7-7-7-7--9-9-9-9--9-9-|
A|-7-7-7-7---7-7-7-7--9-9-9-9-9-9-9-9-|--7-7-7-7-7-7-7-7-7-7-7-7-7-7-7--7-7-7-7--9-9-|
E|-----5-5-------5-5--7-7-7-7-7-7-7-7-|--5-5-5-5-5-5-5-5-5-5-5-5-5-5-5-----------7-7-|

PAUSE: Strum the E note (022100)

Intro x1

-------------------------------------------------------------------

7. ABOUT TO CRASH (REPRISE)
N/A

-------------------------------------------------------------------

8. LOSING TIME/GRAND FINALE
N/A


comments
print report bad tab
2 comments total.
0 reply
RealUnrealRob wrote on August 6 2009, 10:58 pm

I'm curious, I realize it's a hell of a lot of tablature, but why did you leave out those three parts?

0 reply
josh8644 wrote on January 5 2010, 11:13 am

The tab you have for 'about to crash' is the reprise not the first one :)

I want to post or [tab]
guest
You may want to rate the tab now too:
select rating
Please do not post tabs as comments. Select "correction" instead!