Oops, an error
Loading. Please wait.

Train Of Thought Tab

ver1
ver1

Album

More versions @911Tabs.com
17,946 views 21 this week
no commentswrite comment
1 2 3 4 5
accurate
x 5
add to favorites launch autoscroll
font size
0
reset
Autoscroll
+/-
esc
set tempo
stop
Contributor
Difficulty
advanced
WARNING: You are trying to view
                                    content from Ultimate-Guitar.com
                                    in an unauthorized application,
                                    which is prohibited.

                                    Please use an official Ultimate
                                    Guitar Tabs application for iPhone,
                                    iPad or Android to access legitimate
                                    chords, guitar, bass, and drum tabs
                                    from Ultimate-Guitar.com database.

                                    Type "ultimate guitar tabs" in Apple
                                    App Store's or Android Market's
                                    search to find the application.
Band - Dream Theater
Album - Train Of Thought (2003)

Track Listings:
1. As I Am..................Thenid
2. This Dying Soul..........scotty_6677
3. Endless Sacrifice........unregistered
4. Honor Thy Father.........Iron Pete
5. Vacant...................Andrew Zara (ME!!!)
6. Stream Of Consciousness..unregistered
7. In The Name Of God.......Thenid

--------------------------------------------------------------------

1. AS I AM
Tuning - C,F,Bb,Eb,G,C

Intro
  Q=98
                            E5
 4/4
  Gtr I
  W          Wx8            H     Q.   E   +W      4x
|----------|------------||---------------|---------||
|----------|------------||o-------5----5-|-(5)----o||
|----------|------------||--------4----3-|-(3)-----||
|----------|------------||--2-----2----2-|-(2)-----||
|----------|------------||o-2----(2)-----|--------o||
|----------|------------||--0----(0)-----|---------||


  N.C.
                  ~~~
  H    E E E E   +W           H    E E E E   +H.      +E.    +S
|--------------|------------|--------------|----------------------|
|--------------|------------|--------------|----------------------|
|--------------|------------|--------------|----------------------|
|--------------|------------|--------------|----------------------|
|------7---7---|------------|------7---7---|----------------------|
|-0------0---6-|-(6)--------|-0------0---6-|-(6)------(6)b7==(6)r-|


                                           Q=130
                  ~~~
  H    E E E E   +W           H    E E E E   +H.      +E.    +S
|--------------|------------|--------------|----------------------|
|--------------|------------|--------------|----------------------|
|--------------|------------|--------------|----------------------|
|--------------|------------|--------------|----------------------|
|------7---7---|------------|------7---7---|----------------------|
|-0------0---6-|-(6)--------|-0------0---6-|-(6)------(6)b7==(6)r-|


    E5      N.C.                     G5
      PM--|   PM  ~~~~~~~~   ~~~~~~
    E E E E E E E E   +Q   E E +E  E Q   4x
||------------------|--------------------||-|
||o-----------------|-------------------o||-|
||------------------|--------------------||-|
||------------------|--------------------||-|
||o-2-------7---7---|------7-------7-5--o||-|
||--0-0-0-0---0---6-|-(6)----5-(5)---3---||-|


    E5      N.C.
      PM--------------|       PM--------------|
    E E E E S S S S S S E   E E E E S S S S S S E
||------------------------|------------------------|
||o-----------------------|------------------------|
||------------------------|------------------------|
||------------------------|------------------------|
||o-2-------8-7-5-8-7-5-8-|-7-------8-7-5-8-7-5-7--|
||--0-0-0-0---------------|---0-0-0----------------|


                          1.                      2.
                                  G5    F5                G5    Bb5
  PM----------------|       PM--------------|       PM------------|
  E E E E S S S S S S E   E E E E S S E S S E     E E E E S S E S S E
|-----------------------|----------------------||---------------------|
|-----------------------|---------------------o||---------------------|
|-----------------------|----------------------||---------------------|
|-----------------------|----------------------||---------------------|
|---------8-7-5-8-7-5-8-|-7-----------5-----3-o||-7-----------5-----8-|
|-0-0-0-0---------------|---0-0-0-3-3-3-1-1-1--||---0-0-0-3-3-3-6-6-6-|


   Verse
    E5      N.C.              E5    N.C.            E5      N.C.
      PM--------------|       PM--------------|     PM----------------|
    E E E E S S S S S S E   E E E E S S S S S S E   E E E E S S S S S S E
||------------------------|-----------------------|------------------------|
||o-----------------------|-----------------------|------------------------|
||------------------------|-----------------------|------------------------|
||------------------------|-----------------------|------------------------|
||o-2-2-2-2-8-7-5-8-7-5-8-|-7-2-2-2-8-7-5-8-7-5-7-|-2-2-2-2-8-7-5-8-7-5-8--|
||--0-0-0-0---------------|---0-0-0---------------|-0-0-0-0----------------|


    E5    G5    F5      E5      N.C.              E5    N.C.
    PM|   PM--------|     PM--------------|       PM--------------|
  E E E E S S E S S E   E E E E S S S S S S E   E E E E S S S S S S E
|---------------------|-----------------------|------------------------|
|---------------------|-----------------------|------------------------|
|---------------------|-----------------------|------------------------|
|---------------------|-----------------------|------------------------|
|-7-2-2-2-----5-----3-|-2-2-2-2-8-7-5-8-7-5-8-|-7-2-2-2-8-7-5-8-7-5-7--|
|---0-0-0-3-3-3-1-1-1-|-0-0-0-0---------------|---0-0-0----------------|


                                                 Pre-Chorus
                                              $
  E5      N.C.              E5    G5    Bb5       N.C.(Bm)
                                                  Gtr II
  PM----------------|       PM|   PM------|
  E E E E S S S S S S E   E E E E S S E S S E     Q  H      Q
|-----------------------|----------------------||---------------|
|-----------------------|---------------------o||----0------0---|
|-----------------------|----------------------||---------------|
|-----------------------|----------------------||---------------|
|-2-2-2-2-8-7-5-8-7-5-8-|-7-2-2-2-----5-----8-o||-2-------------|
|-0-0-0-0---------------|---0-0-0-3-3-3-6-6-6--||-------3-----2-|
                                                  H     Q.    E


                                         3/4             4/4
  +E  Q.    +E  Q.      +Q   H      Q     +E  E +Q   Q    +Q   H      Q
|---------------------|-----------------|---------------|------------------|
|-(0)-0-----(0)-0-----|-(0)--0------0---|-(0)-0-(0)--0--|-(0)--0------0----|
|---------------------|-----------------|---------------|------------------|
|---------------------|-----------------|---------------|------------------|
|---------0-(0)----3--|--2--------------|---------------|--2---------------|
|-(2)-----------------|---------3-----2-|-(2)----0------|---------3-----2--|
  +Q.     E +Q     Q     H      Q.    E   +Q     H         H      Q.    E


 5/4                       4/4
                                                                Gtrs I, II
  +E  Q.    +E  E +Q   Q    +Q   H      Q     +E  E +Q   H      Q  H      Q
|-------------------------|-----------------|-----------------|----------------|
|-(0)-0-----(0)-0-(0)--0--|-(0)--0------0---|-(0)-0-(0)--0----|----0------0----|
|-------------------------|-----------------|-----------------|----------------|
|-------------------------|-----------------|-----------------|----------------|
|---------0-(0)----3------|--2--------------|-----------------|-2--------------|
|-(2)---------------------|---------3-----2-|-(2)----0--------|-------3-----2--|
  +Q.     E +Q     H         H      Q.    E   +Q     H.         H     Q.    E


                                          3/4             4/4
  +E  Q.     +E  Q.      +Q   H      Q     +E  E +Q   Q    +Q   H      Q
|----------------------|-----------------|---------------|------------------|
|-(0)-0------(0)-0-----|-(0)--0------0---|-(0)-0-(0)--0--|-(0)--0------0----|
|----------------------|-----------------|---------------|------------------|
|----------------------|-----------------|---------------|------------------|
|----------0-(0)----3--|--2--------------|---------------|--2---------------|
|-(2)----2-------------|---------3-----2-|-(2)----0------|---------3-----2--|
  +Q     E E +Q     Q     H      Q.    E   +Q     H         H      Q.    E


 5/4                        4/4               6/4
  +E  Q.     +E  E +Q   Q    +Q   H      Q     +E  Q.     +W
|--------------------------|-----------------|-------------------|
|-(0)-0------(0)-0-(0)--0--|-(0)--0------0---|-(0)-0------(0)----|
|--------------------------|-----------------|-------------------|
|--------------------------|-----------------|-------------------|
|----------0-(0)----3------|--2--------------|-------------------|
|-(2)----2-----------------|---------3-----2-|-(2)----2-1-(1)----|
  +Q     E E +Q     H         H      Q.    E   +Q     E E +W


 Chorus
  $$
  E5         F#G5               F#5          F5        N.C.
 4/4              3/4          4/4
  Gtr I
           PM|                                               ~~~
  H    +E  E E E   +H     E E   H    +E  E E E   +E  E  E E  Q   E E
|----------------|------------|----------------|---------------------|
|----------------|------------|----------------|---------------------|
|----------------|------------|----------------|---------------------|
|-2----(2)-----5-|-(5)--------|-4----(4)-----3-|-(3)-----------------|
|-2----(2)-2-4-5-|-(5)----2---|-4----(4)-2---3-|-(3)---/5-4-[3]--0-2-|
|-0----(0)-0-2-3-|-(3)------3-|-2----(2)---2-1-|-(1)-1---------------|


  E5         F#G5               F#5          F5        C5
                  3/4          4/4
           PM|
  H    +E  E E E   +H     E E   H    +E  E E E   E E E E E E E E
|----------------|------------|----------------|------------------|
|----------------|------------|----------------|------------------|
|----------------|------------|----------------|------------------|
|-2----(2)-----5-|-(5)--------|-4----(4)-----3-|---3---5---5---5--|
|-2----(2)-2-4-5-|-(5)----2---|-4----(4)-2---3-|---3---3---3---3--|
|-0----(0)-0-2-3-|-(3)------3-|-2----(2)---2-1-|---1--------------|


  E5                 (G)                      (F#sus4)
  Q.   E +E   E   E  E   +Q   E E  E   E   E  E
|----------------------|------------------------|
|------0-(0)-(0)-(0)---|--------0-(0)-(0)-(0)---|
|----------------------|------------------------|
|-2--------------------|------------------------|
|-2--------------------|---------------2--------|
|-0-----------0---2--3-|-(3)--3----3-------3--2-|


                       (Fb5)     N.C.
                                       ~~~
  +Q   E E  E   E   E  E   +E  E  E E  Q   E E
|------------------------|---------------------|
|--------0-(0)-(0)-(0)---|---------------------|
|------------------------|---------------------|
|------------------------|---------------------|
|---------------2--------|-------/5-4-[3]--0-2-|
|-(2)--2----2-------2--1-|-(1)-1---------------|


  E5                 (G)                      (F#sus4)
  Q.   E +E   E   E  E   +Q   E E  E   E   E  E
|----------------------|------------------------|
|------0-(0)-(0)-(0)---|--------0-(0)-(0)-(0)---|
|----------------------|------------------------|
|-2--------------------|------------------------|
|-2--------------------|---------------2--------|
|-0-----------0---2--3-|-(3)--3----3-------3--2-|


                                To Coda
                       F5        C5
                          3/4
  +Q   E E  E   E   E  E   E E E E E E
|------------------------|--------------||
|--------0-(0)-(0)-(0)---|--------------||
|------------------------|--------------||
|----------------------3-|---3---5---5--||
|---------------2------3-|---3---3---3--||
|-(2)--2----2-------2--1-|---1----------||


                                                              To Dbl. Coda
  E5     N.C.                     G5     E5      N.C.                     G5
 4/4
     PM|   PM  ~~~~~~~~   ~~~~~~           PM--|   PM  ~~~~~~~~   ~~~~~~
  Q  E E E E E E   +Q   E E +E  E Q      E E E E E E E E   +Q   E E +E  E Q   3x
|----------------|-------------------||------------------|--------------------||
|----------------|-------------------||o-----------------|-------------------o||
|----------------|-------------------||------------------|--------------------||
|-2--------------|-------------------||------------------|--------------------||
|-2------7---7---|------7-------7-5--||o-2-------7---7---|------7-------7-5--o||
|-0--0-0---0---6-|-(6)----5-(5)---3--||--0-0-0-0---0---6-|-(6)----5-(5)---3---||


   Verse
    E5            N.C.              E5          N.C.
       PM-------------------|        PM-------------------|
    E  E   E   E  S S S S S S E   E  E   E   E  S S S S S S E
||------------------------------|-----------------------------|
||o-----------------------------|-----------------------------|
||------------------------------|-----------------------------|
||------------------------------|-----------------------------|
||o-2-(2)-(2)-(2)-8-7-5-8-7-5-8-|-7-(2)-(2)-(2)-8-7-5-8-7-5-7-|
||--0--0---0---0----------------|----0---0---0----------------|


  E5              N.C.
   PM-----------------------|
   E   E   E   E  S S S S S S E
|--------------------------------|
|--------------------------------|
|--------------------------------|
|--------------------------------|
|-(2)-(2)-(2)-(2)-8-7-5-8-7-5-8--|
|--0---0---0---0-----------------|


    E5          G5    F5      E5            N.C.
     PM-|       PM------|        PM-------------------|
  E  E   E   E  S S E S S E   E  E   E   E  S S S S S S E
|---------------------------|-----------------------------|
|---------------------------|-----------------------------|
|---------------------------|-----------------------------|
|---------------------------|-----------------------------|
|-7-(2)-(2)-(2)-----5-----3-|-2-(2)-(2)-(2)-8-7-5-8-7-5-8-|
|----0---0---0--3-3-3-1-1-1-|-0--0---0---0----------------|


    E5          N.C.
 7/8
     PM-------------------|
  E  E   E   E  S S S S S S
|----------------------------|
|----------------------------|
|----------------------------|
|----------------------------|
|-7-(2)-(2)-(2)-8-7-5-8-7-5--|
|----0---0---0---------------|


                                            D.S. al Coda
    E5          N.C.              E5          G5    Bb5
 4/4
     PM-------------------|        PM-|       PM------|
  E  E   E   E  S S S S S S E   E  E   E   E  S S E S S E
|-----------------------------|----------------------------||
|-----------------------------|---------------------------o||
|-----------------------------|----------------------------||
|-----------------------------|----------------------------||
|-7-(2)-(2)-(2)-8-7-5-8-7-5-8-|-7-(2)-(2)-(2)-----5-----8-o||
|----0---0---0----------------|----0---0---0--3-3-3-6-6-6--||


     Interlude
  &
      E5        N.C.
 4/4
                ~~~~~~~~
      H..       E   +H.      E E
|-||--------------|--------------|
|-||o-------------|--------------|
|-||--------------|--------------|
|-||--2-----------|--------------|
|-||o-2-----------|--------------|
|-||--0---------6-|-(6)------0-1-|


                                     E5        N.C.
  ~~~~~~~~~      ~~~~~~~~~                     ~~~~~~~~
  H    +E   E E  E    +H.      E E   H..       E   +H.      E E
|-------------------|--------------|-------------|--------------|
|-------------------|--------------|-------------|--------------|
|-------------------|--------------|-------------|--------------|
|-------------------|--------------|-2-----------|--------------|
|----------/5-4-[3]-|-(3)----------|-2-----------|--------------|
|-2----(2)----------|----------2-3-|-0---------6-|-(6)------0-1-|


  1.                                       2.
                                                         C5
                                                            3/4
  ~~~~~~~~~     ~~~~~~~~          ~~~~~~~~~~~~~~~~~~
  H    +E   E E E   +Q.    E +E   Q.       H    +E   E E E   E E E E E E
|-----------------|---------------------||-----------------|--------------|
|-----------------|--------------------o||-----------------|--------------|
|-----------------|---------------------||-----------------|--------------|
|-----------------|---------------------||---------------5-|---5---5---5--|
|----------/5-4-3-|-(3)---/6-(6)-------o||----------/5-4-3-|---3---3---3--|
|-2----(2)--------|--------------[3]----||-2----(2)--------|--------------|


 Guitar Solo
  N.C.
 4/4
  Gtr III
    ~~~
    H     Q   +E        S  +S        +E   E  E  +E      +E   E  E  E
|---------------------------------|---------19-(19)b20r(19)-17----17-|
|----------------------20-(20)b22r|=(20)-17--------------------20----|
|--------17--(17)b17.5------------|----------------------------------|
|-/19-----------------------------|----------------------------------|
|---------------------------------|----------------------------------|
|---------------------------------|----------------------------------|


                          ~~~~~~~~
           |--3--|                 |--3--|  |------6-------|
   +E      S  S  S  S     E.  +E   S  S  S  S  S  S  S  S  S
|-(17)b18-17-------20b22-20--(20)-17-19-17-------20-17-------|
|------------20-17-------------------------20-17-------20-17-|
|------------------------------------------------------------|
|------------------------------------------------------------|
|------------------------------------------------------------|
|------------------------------------------------------------|


                                                 ~~~~
   |------6-------|  |------6-------|  |--3--|
   S  S  S  S  S  S  S  S  S  S  S  S  S  S  S  +Q.
|-22-17-------20-17-------19-17-----------------------|
|-------20-17-------20-17-------20-17-----------------|
|-------------------------------------19-17-----------|
|-------------------------------------------19-(19)---|
|-----------------------------------------------------|
|-----------------------------------------------------|


   |------6-------|  |------6-------|  |------6-------|  |------6-------|
   S  S  S  S  S  S  S  S  S  S  S  S  S  S  S  S  S  S  S  S  S  S  S  S
|--------------------------------------------------------------------------|
|--------------------------------------------------------------------------|
|-------------------------------------19-18-17-----------------------------|
|----------------------------19-18-17----------19-18-17----------19-18-17--|
|----------17-16-15-19-18-17----------------------------19-18-17-----------|
|-17-16-15-----------------------------------------------------------------|


   |------6-------|  |------6-------|  |------6-------|  |------6-------|
   S  S  S  S  S  S  S  S  S  S  S  S  S  S  S  S  S  S  S  S  S  S  S  S
|----------------------------------------------------------------22-21-20-|
|-------------------22-21-20----------------------------22-21-20----------|
|----------21-20-19----------21-20-19----------21-20-19-------------------|
|-21-20-19----------------------------21-20-19----------------------------|
|-------------------------------------------------------------------------|
|-------------------------------------------------------------------------|


   |------6-------|  |------6-------|  |---------------13:8----------------|
   S  S  S  S  S  S  S  S  S  S  S  S  S  S  S  S  S  S  S  S  S  S  S  S  S
|-23-22-20-23-22-20-23-22-20-23-22-20-23-22-20-23-22-20-21-19-17----------20-|
|----------------------------------------------------------------20-19-17----|
|----------------------------------------------------------------------------|
|----------------------------------------------------------------------------|
|----------------------------------------------------------------------------|
|----------------------------------------------------------------------------|


   |---------------13:8----------------|  |---------------13:8----------------|
   S  S  S  S  S  S  S  S  S  S  S  S  S  S  S  S  S  S  S  S  S  S  S  S  S  S
|-19-17----------20-19-17----------20-19-17-------------------------------------|
|-------20-19-17----------20-19-17----------20-19-17-20-19-17-------------------|
|-------------------------------------------------------------20-19-17-20-17----|
|----------------------------------------------------------------------------19-|
|-------------------------------------------------------------------------------|
|-------------------------------------------------------------------------------|


   ~~~                                 ~~~~
                            |----3-----|
   Q.    +E     S  S  S  S  E  E      +E
|------------------------------------------|
|------------------------------------------|
|-17----(17)\-----------17-19-21b24==(21)--|
|-----------------17-19--------------------|
|-------------/19--------------------------|
|------------------------------------------|


    ~~~~~~
                                   |-----3-----|
   +E      E  S  S  S  S  Q       +E   a  +E   E
|------------------20-22-24b27===(24)-24r(24)-23-|
|------------20-22-------------------------------|
|-(21)r\-/21-------------------------------------|
|------------------------------------------------|
|------------------------------------------------|
|------------------------------------------------|


            ~~                                        T     T
   |--3--|                                         |-----5-----|
   E  E  E  Q   +S   T  T  T  T  T  T  T  T  T  T  T  T  T  T  T
|-22-20-22---------------------------------------------------------|
|----------22--(22)----------15-15-------------15h17-20p17-20p17p==|
|-------------------------17-------17-------17---------------------|
|-------------------19-19-------------19-19------------------------|
|------------------------------------------------------------------|
|------------------------------------------------------------------|


                                          T                     ~~
                                       |-----5-----|
   S  S  S  T  T  S  T  T  T  T  T  T  T  T  T  T  T  T  T  S   Q
|------------------------------------------------------------------|
|-15-------------15-------------15h17h20-23p20p17p15---------------|
|----17-------17----17-------17----------------------17------------|
|-------19-19----------19-19----------------------------19---------|
|----------------------------------------------------------19\-----|
|--------------------------------------------------------------15--|


   |------6-------|  |------6-------|  |------6-------|  |------6-------|
   S  S  S  S  S  S  S  S  S  S  S  S  S  S  S  S  S  S  S  S  S  S  S  S
|-------------------------------------------------------------------------|
|-------------------------------------------------------------------------|
|-------------------------------------------------------------------------|
|----------------------------------------14-14-16-16-14----14-16-16-14-16-|
|----14-14-15-17-15----14-15-17-14-14-17----------------17----------------|
|-17----------------17----------------------------------------------------|


   |------6-------|  |------6-------|  |--------7--------|  |--------7--------|
   S  S  S  S  S  S  S  S  S  S  S  S  S  S  S  S  S  S  S  S  S  S  S  S  S  S
|-------------------------------------------------------------------------14-14-|
|----------------------------------------14-15-17-15-14-------15-15-14-17-------|
|----14-16-17-16-14----14-16-16-14-16-17----------------17-17-------------------|
|-17----------------17----------------------------------------------------------|
|-------------------------------------------------------------------------------|
|-------------------------------------------------------------------------------|


   |--------7--------|  |--------7--------|  |--------7--------|  |------6-------|
   S  S  S  S  S  S  S  S  S  S  S  S  S  S  S  S  S  S  S  S  S  S  S  S  S  S  S
|-15-17-15-14----14-15-17-15-14-17-19-17-15----15-17-19-17-15-19-22-19-17-19-22-17-|
|-------------17----------------------------19-------------------------------------|
|----------------------------------------------------------------------------------|
|----------------------------------------------------------------------------------|
|----------------------------------------------------------------------------------|
|----------------------------------------------------------------------------------|


   |------6-------|  |------6-------|  |---------------13:8----------------|
   S  S  S  S  S  S  S  S  S  S  S  S  S  S  S  S  S  S  S  S  S  S  S  S  S
|-19-22-19-17-19-22-19-17-19-22-19-17-19-23-19-17-19-23-19-17-19-23-19-17-19-|
|----------------------------------------------------------------------------|
|----------------------------------------------------------------------------|
|----------------------------------------------------------------------------|
|----------------------------------------------------------------------------|
|----------------------------------------------------------------------------|


   |------6-------|  |------6-------|  |------6-------|  |------6-------|
   S  S  S  S  S  S  S  S  S  S  S  S  S  S  S  S  S  S  S  S  S  S  S  S
|-24-19-17-19-24-19-17-19-24-19-17-19-24-19-17-19-24-19-17-19-24-19-17-19-|
|-------------------------------------------------------------------------|
|-------------------------------------------------------------------------|
|-------------------------------------------------------------------------|
|-------------------------------------------------------------------------|
|-------------------------------------------------------------------------|


   |------6-------|  |------6-------|  |------6-------|  |------6-------|
   S  S  S  S  S  S  S  S  S  S  S  S  S  S  S  S  S  S  S  S  S  S  S  S
|-22-19-18-19-22-19-18-19-22-19-18-19-22-19-18-19-22-19-18-19-22-19-17S16S|
|-------------------------------------------------------------------------|
|-------------------------------------------------------------------------|
|-------------------------------------------------------------------------|
|-------------------------------------------------------------------------|
|-------------------------------------------------------------------------|


   |---------------13:8----------------|  |--------7--------|  |---------7---------|
   S  S  S  S  S  S  S  S  S  S  S  S  S  S  S  S  S  S  S  S  S  S  S   S  S  S   S
|-15----15-16-19-16-15----15-16-19-16-15----15-16-19-16-15----16-19-16\-14-14-15-\12---|
|----17----------------17----------------17----------------17--------------------------|
|--------------------------------------------------------------------------------------|
|--------------------------------------------------------------------------------------|
|--------------------------------------------------------------------------------------|
|--------------------------------------------------------------------------------------|


   |--------7--------|  |--------7--------|  |--------7--------|  |--------7---------|
   S  S  S  S  S  S  S  S  S  S  S  S  S  S  S  S  S  S  S  S  S  S  S  S  S  S  S  +S
|----12-14-15-14-12----12-14-15-12-----------------------------------------------------------|
|-15----------------15-------------15-15-13----12-14-15-14-12----14-15-14-12-----------------|
|-------------------------------------------15----------------12-------------15-12-(12)b12.5-|
|--------------------------------------------------------------------------------------------|
|--------------------------------------------------------------------------------------------|
|--------------------------------------------------------------------------------------------|


   ~~~~~~~~
   Q   +E.   S   S     +S   S  S  S  S  S  S
|--------------------------------------------|
|---------------14b15-(14)-14p12-------------|
|----------(12)-14b15-(14)-14p12-14p12-------|
|-14--(14)-(12)------------------------14-12-|
|--------------------------------------------|
|--------------------------------------------|


                                                     ~~
                          |--3--|  |------6-------|
   S     +S   S  S  E     S  S  S  S  S  S  S  S  S  Q
|------------12----------12-------17-15-----------------|
|---------------12-15b17----15p12-------17-15-----------|
|-14b16-(14)----------------------------------17-16-15--|
|-------------------------------------------------------|
|-------------------------------------------------------|
|-------------------------------------------------------|


   |------6-------|  |------6-------|  |------6-------|  |------6-------|
   S  S  S  S  S  S  S  S  S  S  S  S  S  S  S  S  S  S  S  S  S  S  S  S
|-15p14p12----12-14-15p14p12-17p15p14----14-15-17p15p14-19p17p15----15-17-|
|----------15-------------------------17-------------------------19-------|
|-------------------------------------------------------------------------|
|-------------------------------------------------------------------------|
|-------------------------------------------------------------------------|
|-------------------------------------------------------------------------|


  Gtr III
   |------6-------|  |------6-------|  |------6-------|  |------6-------|
   S  S  S  S  S  S  S  S  S  S  S  S  S  S  S  S  S  S  S  S  S  S  S  S
|-19p17p15-20p19p17----17-19-20p19p17-22p20p19----19-20-22p20p19----19-20-|
|-------------------20-------------------------22----------------22-------|
|-------------------------------------------------------------------------|
|-------------------------------------------------------------------------|
|-------------------------------------------------------------------------|
|-------------------------------------------------------------------------|
|
| Gtr I
|  W
|-------------------------------------------------------------------------|
|-------------------------------------------------------------------------|
|-------------------------------------------------------------------------|
|-------------------------------------------------------------------------|
|-------------------------------------------------------------------------|
|-------------------------------------------------------------------------|


  E5                     G6
 7/4
              ~~~~
   H         +Q    +Q       H.
|-22b24=====(22)--(22)r\----------|
|---------------------------------|
|---------------------------------|
|---------------------------------|
|---------------------------------|
|---------------------------------|
|
|  H..                   E +H.
|------------------------0-(0)----|
|--5---------------------0-(0)----|
|--4---------------------4-(4)----|
|--2---------------------5-(5)----|
|--2---------------------5-(5)----|
|--0---------------------3-(3)----|


                                                        D.S.S. al Dbl. Coda
  F#11      Fmaj7+11     Esus2/B   Gsus2/D        F#sus2/C#  Fsus2/C   Csus2
  Gtr I
  H..       E +H.        H..        E  +H.         H..        E E  E E E E E
|-0---------0-(0)------|-7---------10-(10)------|--9----------8----8---3---3-||
|-0---------0-(0)------|-7---------10-(10)------|--9----------8----8---3---3-||
|-3---------2-(2)------|-9---------12-(12)------|-11---------10---10---5---5-||
|-4---------3-(3)------|-9---------12-(12)------|-11---------10---10---5---5-||
|-4---------3-(3)------|-7---------10-(10)------|--9----------8----8---3---3-||
|-2---------1-(1)------|-7---------10-(10)------|--9----------8----8---------||


    &&
    E5            N.C.               G5     E5
   4/4
      PM--|   PM  ~~~~~~~~   ~~~~~~
    E E E E E E E E   +Q   E E +E  E Q   4x W
||------------------|--------------------||-0----*|
||o-----------------|-------------------o||-0----*|
||------------------|--------------------||-x----*|
||------------------|--------------------||-2----*|
||o-2-------7---7---|------7-------7-5--o||-2----*|
||--0-0-0-0---0---6-|-(6)----5-(5)---3---||-0----*|

---------------------------------------------------------------------------

2. THIS DYING SOUL
Tuning - B,E,A,D,G,B,E

Intro
  Q=143
  N.C.        B5
 3/4         4/4
  Gtrs I, II
    ~    ~
  E Q  E Q    W          +W           +W             W
|-----------|----------|------------|------------|----------|
|-----------|----------|------------|------------|----------|
|-----------|----------|------------|------------|----------|
|-----------|----------|------------|------------|----------|
|-----------|----------|------------|------------|--[2]-----|
|-4----4----|-2--------|-(2)--------|-(2)--------|--(2)-----|
|---3----2--|-0--------|-(0)--------|-(0)--------|-([0])----|
                                                    +W


                \0.5/  \0.5/  \0.5/  \0.5/  \0.5/  \0.5/  \0.5/  \0.5/
  +W           +E     +E     +E     +E     +E     +E     +E     +E
|------------|---------------------------------------------------------|
|------------|---------------------------------------------------------|
|------------|---------------------------------------------------------|
|------------|---------------------------------------------------------|
|-(2)--------|-(2)----(2)----(2)----(2)----(2)----(2)----(2)----(2)----|
|------------|---------------------------------------------------------|
|------------|---------------------------------------------------------|


   \0.5/  \0.5/  \0.5/  \0.5/  \0.5/
  +E     +E     +E     +E     +H          W
|---------------------------------------|-------|
|---------------------------------------|-------|
|---------------------------------------|-------|
|---------------------------------------|-------|
|-(2)----(2)----(2)----(2)----(2)-------|-x\----|
|---------------------------------------|-x\----|
|---------------------------------------|-x\----|


    PM------------------|      PM------------------|
    S S S S E S S +S  S E Q    S S S S E S S +S  S E Q
||---------------------------|--------------------------|
||---------------------------|--------------------------|
||o--------------------------|--------------------------|
||---------------------------|--------------------------|
||o--------------------------|--------------------------|
||---------------------------|--------------------------|
||--0-0-0-0-0-0-0-(0)-0-0----|-0-0-0-0-0-0-0-(0)-0-0----|


                                                   N.C.
  PM------------------|      PM------------------|
  S S S S E S S +S  S E Q    S S S S E S S +S  S E Q
|--------------------------|---------------------------||
|--------------------------|---------------------------||
|--------------------------|-----------------------5--o||
|--------------------------|-----------------------4---||
|--------------------------|--------------------------o||
|--------------------------|---------------------------||
|-0-0-0-0-0-0-0-(0)-0-0----|-0-0-0-0-0-0-0-(0)-0-0-----||


    B5
    PM------------------|
    S S S S E S S +S  S E Q
||---------------------------|
||---------------------------|
||o--------------------------|
||---------------------------|
||o--------------------------|
||---------------------------|
||--0-0-0-0-0-0-0-(0)-0-0----|


                        N.C. B5
  PM------------------|      PM------------------|
  S S S S E S S +S  S E Q    S S S S E S S +S  S E Q
|--------------------------|----------------------------|
|--------------------------|----------------------------|
|-----------------------5--|----------------------------|
|-----------------------4--|----------------------------|
|--------------------------|----------------------------|
|--------------------------|----------------------------|
|-0-0-0-0-0-0-0-(0)-0-0----|-0-0-0-0-0-0-0-(0)-0-0------|


  1.                            2.
 7/8                           5/4
  PM----------------------------------------------------|
                                              |-3-| |-3-|
  S S S S E S S S S S S S S     S S S S E S S q q q E E E
|----------------------------||---------------------------||
|----------------------------||---------------------------||
|---------------------------o||---------------------------||
|----------------------------||---------------------------||
|---------------------------o||---------------------------||
|----------------------------||---------------3-4-5-------||
|-0-0-0-0-0-0-0-3-2-0-3-2-0--||-0-0-0-0-0-0-0-1-2-3-1-0-0-||


 Guitar Solo
  B5     C#5       D5C#5
 4/4
  Gtr III
   ~~~~~~                                 ~~~
                           |-----3-----|
   W                      +Q     +Q    Q +H
|----------------------|------------------------|
|-12b14================|=(12)r==(12)---9-(9)----|
|--x-------------------|------------------------|
|----------------------|------------------------|
|----------------------|------------------------|
|----------------------|------------------------|
|----------------------|------------------------|
|
| Gtrs I, II
|                PM
|  E     E E E E E E E     E  E      Q    H
|----------------------|------------------------|
|----------------------|------------------------|
|----------------------|------------------------|
|----------------------|------------------------|
|----------------------|------------------------|
|--2-----4---4---4-5-4-|------4-----------------|
|--0-----2---2---2-3-2-|------2-----------------|


  B5C#5                   D5     C#5
                                       ~~~
                 |------3------|
  E  E  E  E  a  Q    a Q    a Q       W
|----------------------------------|---------------|
|---\9-10-12-12s10---12s9---12s7---|-/18-----------|
|----------------------------------|---------------|
|----------------------------------|---------------|
|----------------------------------|---------------|
|----------------------------------|---------------|
|----------------------------------|---------------|
|
|                  PM
| E  E  E  E     E E      E      E     E E Q  H
|----------------------------------|---------------|
|----------------------------------|---------------|
|----------------------------------|---------------|
|----------------------------------|---------------|
|----------------------------------|---------------|
|-2--4-----4-------4------5------4-|-----4---------|
|-0--2-----2-------2------3------2-|-----2---------|


  B5      C#5                                          D5       C#5
              T                 T     T                 T
  |------6-------|  |------6-------|  |------6-------|  |------6-------|
  S  S  S  S  S  S  S  S  S  S  S  S  S  S  S  S  S  S  S  S  S  S  S  S
|---16h17h19h21p19p17p16h17h19h22p19h22p19p17p16h17h19h21p19p17p16h17h19h|
|------------------------------------------------------------------------|
|------------------------------------------------------------------------|
|------------------------------------------------------------------------|
|------------------------------------------------------------------------|
|------------------------------------------------------------------------|
|------------------------------------------------------------------------|
|
|                                              PM
| E        E        E        E        E        E        E        E
|------------------------------------------------------------------------|
|------------------------------------------------------------------------|
|------------------------------------------------------------------------|
|------------------------------------------------------------------------|
|------------------------------------------------------------------------|
|-2--------4-----------------4-----------------4--------5--------4-------|
|-0--------2-----------------2-----------------2--------3--------2-------|


   T     T                           T                   T     T
   |--3--|  |-------5-------|  |------5------|  |--3--|  |------6-------|
   S  S  S  S  S  S    +S   S  S  S  S    S  S  S  S  S  S  S  S  S  S  S
|-22p19h22p19p17p16---(16)-13h14h16h17p==16p14p13h14h16h17p16h17p16p14p13-|
|-------------------------------------------------------------------------|
|-------------------------------------------------------------------------|
|-------------------------------------------------------------------------|
|-------------------------------------------------------------------------|
|-------------------------------------------------------------------------|
|-------------------------------------------------------------------------|
|
|  E        E       Q                  H
|-------------------------------------------------------------------------|
|-------------------------------------------------------------------------|
|-------------------------------------------------------------------------|
|-------------------------------------------------------------------------|
|-------------------------------------------------------------------------|
|-----------4-------------------------------------------------------------|
|-----------2-------------------------------------------------------------|


  B5       C#5                                     D5       C#5
      T                 T     T                           T     T
   |------6-------|  |------6-------|  |----6----|  |------6------|
   S  S  S  S  S  S  S  S  S  S  S  S  S E S  S  S  S  S  S  S  S S
|-16h17p16p14p13h14h16h17p16h17p16p14p13-x-9h10h13h16p13h16p13p10p9h|
|-------------------------------------------------------------------|
|-------------------------------------------------------------------|
|-------------------------------------------------------------------|
|-------------------------------------------------------------------|
|-------------------------------------------------------------------|
|-------------------------------------------------------------------|
|
|                                          PM
|  E        E        E        E        E   E        E        E
|-------------------------------------------------------------------|
|-------------------------------------------------------------------|
|-------------------------------------------------------------------|
|-------------------------------------------------------------------|
|-------------------------------------------------------------------|
|--2--------4-----------------4------------4--------5--------4------|
|--0--------2-----------------2------------2--------3--------2------|


                                      T                T     T
   |------6-------|  |------6------|  |------6------|  |------6------|
   S  S  S  S  S  S  S S  S  S  S  S  S  S  S S  S  S  S  S  S  S  S S
|-10h13h17p13h17p13p10p9h10h13h19p13h19p13p10p9h10h13h21p13h21p13p10p9--||
|-----------------------------------------------------------------------||
|-----------------------------------------------------------------------||
|-----------------------------------------------------------------------||
|-----------------------------------------------------------------------||
|-----------------------------------------------------------------------||
|-----------------------------------------------------------------------||
|
|  E        E        Q                H
|-----------------------------------------------------------------------||
|-----------------------------------------------------------------------||
|-----------------------------------------------------------------------||
|-----------------------------------------------------------------------||
|-----------------------------------------------------------------------||
|-----------4-----------------------------------------------------------||
|-----------2-----------------------------------------------------------||


 Guitar Break
  N.C.(B5)
 3/4
  Gtr I
               ~~~~~~~~~            ~~
      |--3--|                                |--3--|
   E  S  S  S  E  E  E   E    E  E  Q    E   S  S  S
|--------------------------|-------------------------|
|-12h13p12----12-12-12-----|-12-13-12---12h=13p12----|
|----------14-----------14-|----------------------14-|
|--------------------------|-------------------------|
|--------------------------|-------------------------|
|--------------------------|-------------------------|
|--------------------------|-------------------------|
|
| Gtr II
|              ~~~~~~~~~            ~~
|     |--3--|                                |--3--|
|  E  S  S  S  E  E  E   E    E  E  Q    E   S  S  S
|--------------------------|-------------------------|
|--------------------------|-------------------------|
|--4h=5p=4-----4--4--4-----|--4--5--4----4h==5p=4----|
|-----------7------------7-|-----------------------7-|
|--------------------------|-------------------------|
|--------------------------|-------------------------|
|--------------------------|-------------------------|
|
| Gtr III
|  E  E        E  E +E   E    E  E  E E +E   E
|--------------------------|-------------------------|
|--------------------------|-------------------------|
|-----------------4-(4)--4-|--5--4----4-(4)--4-------|
|--------------------------|-------------------------|
|--0h=2--------2-----------|--------2----------------|
|--------------------------|-------------------------|
|--------------------------|-------------------------|


         ~~                  ~~~
   E  E  Q    E   E    E  E  Q.      +E
|-------------------|----------------------|
|-12s19-19---19--17-|-19-20-19------(19)\--|
|-------------------|----------------------|
|-------------------|----------------------|
|-------------------|----------------------|
|-------------------|----------------------|
|-------------------|----------------------|
|
|        ~~                  ~~~
|  E  E  Q    E   E    E  E  Q.      +E
|-------------------|----------------------|
|-------------------|----------------------|
|--4s11-11---11---9-|-11-12-11------(11)\--|
|-------------------|----------------------|
|-------------------|----------------------|
|-------------------|----------------------|
|-------------------|----------------------|
|
|  E  E  E E +E   E    E  E  E  E Q
|-------------------|----------------------|
|-------------------|----------------------|
|----------4-(4)--4-|--5--4----------------|
|-------------------|-----------5-4--------|
|--0h=2--2----------|--------2-------------|
|-------------------|----------------------|
|-------------------|----------------------|


  B5/E
               ~~~~~~~~~            ~~
      |--3--|
   E  S  S  S  E  E  E   E    E  E  Q     E   E
|--------------------------|--------------------|
|-12h13p12----12-12-12-----|-12-13-12---/19--20-|
|----------14-----------14-|--------------------|
|--------------------------|--------------------|
|--------------------------|--------------------|
|--------------------------|--------------------|
|--------------------------|--------------------|
|
|              ~~~~~~~~~            ~~
|     |--3--|
|  E  S  S  S  E  E  E   E    E  E  Q     E   E
|--------------------------|--------------------|
|--------------------------|------------/15--17-|
|--4h=5p=4-----4--4--4-----|--4--5--4-----------|
|-----------7------------7-|--------------------|
|--------------------------|--------------------|
|--------------------------|--------------------|
|--------------------------|--------------------|
|
|  Q           E  E +E   E    E  E  E E  +E   E
|--------------------------|--------------------|
|--------------------------|--------------------|
|-----------------4-(4)--4-|--5--4----4--(4)--4-|
|--------------------------|--------------------|
|--------------------------|--------------------|
|--0-----------0-----------|--------0-----------|
|--------------------------|--------------------|


  G                      B5/A
   ~~                     ~~~~~~~~~~~~
               |--3--|
   H       E   S  S  S    H       +E   +E
|----------------------|--------------------|
|-22------20--19h20p19-|--------------------|
|----------------------|-21------(21)-(21)\-|
|----------------------|--------------------|
|----------------------|--------------------|
|----------------------|--------------------|
|----------------------|--------------------|
|
|  ~~                     ~~~~~~~~~~~~
|              |--3--|
|  H       E   S  S  S    H       +E   +E
|----------------------|--------------------|
|-19------17--15h17p15-|--------------------|
|----------------------|--------------------|
|----------------------|-19------(19)-(19)\-|
|----------------------|--------------------|
|----------------------|--------------------|
|----------------------|--------------------|
|
|  Q  E E +E   E          Q  E E  +E    E
|----------------------|--------------------|
|----------------------|--------------------|
|-------4-(4)--4-------|-------4--(4)---4---|
|----------------------|--------------------|
|----------------------|--0--0--------------|
|--3--3----------------|--------------------|
|----------------------|--------------------|


  N.C.(B5)
               ~~~~~~~~~
      |--3--|
   E  S  S  S  E  E  E  E    S S  S S  S S  S S  S  S  S S
|-------------------------|--------------------------------|
|-12h13p12----12-12-12--0-|-12-0-13-0-12-0-10-0-12--0-13-0-|
|----------14-------------|--------------------------------|
|-------------------------|--------------------------------|
|-------------------------|--------------------------------|
|-------------------------|--------------------------------|
|-------------------------|--------------------------------|
|
|              ~~~~~~~~~
|     |--3--|
|  E  S  S  S  E  E  E  E    S S  S S  S S  S S  S  S  S S
|-------------------------|--------------------------------|
|-----------------------0-|--7-0--8-0--7-0--5-0--7--0--8-0-|
|--4h=5p=4-----4--4--4----|--------------------------------|
|-----------7-------------|--------------------------------|
|-------------------------|--------------------------------|
|-------------------------|--------------------------------|
|-------------------------|--------------------------------|
|
|  E  E        E  E +E  E    E    E    E    E   +E     E
|-------------------------|--------------------------------|
|-------------------------|--------------------------------|
|-----------------4-(4)-4-|--5----4---------4---(4)----4---|
|-------------------------|--------------------------------|
|--0h=2--------2----------|------------2-------------------|
|-------------------------|--------------------------------|
|-------------------------|--------------------------------|


               ~~~                        ~~
      |--3--|                    |--3--|
   E  S  S  S  E  E  E   E    E  S  S  S  Q   S  S  S  S
|--------------------------|--------------------------20-|
|-12h13p12----12s19-19-----|-19h20p19----19--19-20-22----|
|----------14-----------21-|----------21-----------------|
|--------------------------|-----------------------------|
|--------------------------|-----------------------------|
|--------------------------|-----------------------------|
|--------------------------|-----------------------------|
|
|              ~~~                        ~~
|     |--3--|                    |--3--|
|  E  S  S  S  E  E  E   E    E  S  S  S  Q   S  S  S  S
|--------------------------|--------------------------14-|
|--7h=8p=7-----7s12-12-----|-12h13p12----12--12-13-15----|
|-----------9-----------14-|----------14-----------------|
|--------------------------|-----------------------------|
|--------------------------|-----------------------------|
|--------------------------|-----------------------------|
|--------------------------|-----------------------------|
|
|  E  E        E  E +E   E    Q           Q   Q
|--------------------------|-----------------------------|
|--------------------------|-----------------------------|
|-----------------4-(4)--4-|-----------------------------|
|--------------------------|--5-----------5---5----------|
|--0h=2--------2-----------|-----------------------------|
|--------------------------|-----------------------------|
|--------------------------|-----------------------------|


  B5/F#
   |--3--|                                   |--3--|
   S  S  S  S  S  S  S  S  S  S   S  S  S    S  S  S  S  S  S  S  S  S  S   S  S  S
|-19h20p19----19-----------------19-20-22-|-----------------------------------------|
|----------22----22-20-19-20-22-----------|-19h20p19----19-----------------19-20-22-|
|-----------------------------------------|----------21----21-19-17-19-21-----------|
|-----------------------------------------|-----------------------------------------|
|-----------------------------------------|-----------------------------------------|
|-----------------------------------------|-----------------------------------------|
|-----------------------------------------|-----------------------------------------|
|
|  |--3--|                                   |--3--|
|  S  S  S  S  S  S  S  S  S  S   S  S  S    S  S  S  S  S  S  S  S  S  S   S  S  S
|-12h14p12----12-----------------12-14-15-|-----------------------------------------|
|----------15----15-13-12-13-15-----------|-12h13p12----12-----------------12-13-15-|
|-----------------------------------------|----------14----14-12-11-12-14-----------|
|-----------------------------------------|-----------------------------------------|
|-----------------------------------------|-----------------------------------------|
|-----------------------------------------|-----------------------------------------|
|-----------------------------------------|-----------------------------------------|
|
|  Q              E     E    +E      E       E        E     E     E    +E      E
|-----------------------------------------|-----------------------------------------|
|-----------------------------------------|-----------------------------------------|
|-----------------------4----(4)-----4----|--5--------4-----------4----(4)-----4----|
|-----------------------------------------|-----------------------------------------|
|-----------------------------------------|-----------------------------------------|
|--2--------------2-----------------------|-----------------2-----------------------|
|-----------------------------------------|-----------------------------------------|


  E5                                        N.C.
   |--3--|
   S  S  S  S  S  S  S  S  S  S   S  S  S    S  S  S  S  S  S  S  S  S  S  S  S
|-----------------------------------------|----------17-19-20----19-20-19-20-22-||
|-----------------------------------------|-17-19-20----------22----------------||
|-16h17p16----16-----------------16-17-19-|-------------------------------------||
|----------19----19-17-16-17-19-----------|-------------------------------------||
|-----------------------------------------|-------------------------------------||
|-----------------------------------------|-------------------------------------||
|-----------------------------------------|-------------------------------------||
|
|  |--3--|
|  S  S  S  S  S  S  S  S  S  S   S  S  S    S  S  S  S  S  S  S  S  S  S  S  S
|-----------------------------------------|----------------------------------17-||
|-----------------------------------------|----------17-19-20-17-19-20-19-20----||
|-----------------------------------------|-16-17-19----------------------------||
|-16h17p16----16-----------------16-17-19-|-------------------------------------||
|----------19----19-17-15-17-19-----------|-------------------------------------||
|-----------------------------------------|-------------------------------------||
|-----------------------------------------|-------------------------------------||
|
|  Q              E     E    +E      E       Q           Q           Q
|-----------------------------------------|-------------------------------------||
|-----------------------------------------|-------------------------------------||
|-----------------------4----(4)-----4----|-------------------------------------||
|-----------------------------------------|-------------------------------------||
|-----------------------------------------|-------------------------------------||
|--0--------------0-----------------------|-------------------------------------||
|-----------------------------------------|--3-----------1-----------0----------||


 Keyboard solo
  E5                         C#5
 5/4
  Gtr I
   ~~~~~~~~~~~~
   H       +E   +E   H       W
|-24------(24)-(24)\-------|-----------------|
|--------------------------|-----------------|
|--------------------------|-----------------|
|--------------------------|-----------------|
|--------------------------|-----------------|
|--------------------------|-----------------|
|--------------------------|-----------------|
|
| Gtr II
|  ~~~~~~~~~~~~
|  H       +E   +E   H       W
|-19------(19)-(19)\-------|-----------------|
|--------------------------|-----------------|
|--------------------------|-----------------|
|--------------------------|-----------------|
|--------------------------|-----------------|
|--------------------------|-----------------|
|--------------------------|-----------------|
|
| Gtr III
|                PM
|  Q.   Q        E   Q  Q    Q.   Q.   Q  Q
|--------------------0--0--|-----------------|
|--------------------0--0--|-----------------|
|--------------------4--4--|-----------------|
|--2----2------------2--2--|-----------------|
|--2----2--------2---------|-----------------|
|--0----0--------0---------|-----------------|
|--------------------------|-2----2----2--2--|


  C5                F#5
  W                 W
|-----------------|-------------------|
|-----------------|-------------------|
|-----------------|-------------------|
|-----------------|-------------------|
|-----------------|-------------------|
|-----------------|-------------------|
|-----------------|-------------------|
|
| W                 W
|-----------------|-------------------|
|-----------------|-------------------|
|-----------------|-------------------|
|-----------------|-------------------|
|-----------------|-------------------|
|-----------------|-------------------|
|-----------------|-------------------|
|
| Q.   Q  E Q  Q    Q.   Q  E Q  Q
|-----------------|-------------------|
|-----------------|-------------------|
|-----------------|-------------------|
|-----------------|-------------------|
|-3----3--3-3--3--|-------------------|
|-3----3--3-3--3--|-2----2--0-2--3----|
|-1----1--1-1--1--|-------------------|


  E5                C5/C#             C5                A5           G5F#F5
                                                       6/4
  Gtr III
          PM                PM                                       PM--|
                                                                     |-3-|
  Q.   Q  E Q  Q    Q.   Q  E Q  Q    Q.   Q  E Q  Q    Q.   Q.   Q  Q Q Q
|-----------0--0--|-----------------|-----------------|---------------------|
|-----------0--0--|-----------------|-----------------|---------------------|
|-----------4--4--|-----------------|-----------------|-2----2----2---------|
|-2----2----2--2--|-5----5----5--5--|-----------------|-2----2----2---------|
|-2----2--2-------|-4----4--4-4--4--|-3----3--3-3--3--|-0----0----0--5-4-3--|
|-0----0--0-------|-----------------|-3----3--3-3--3--|--------------3-2-1--|
|-----------------|-----------------|-1----1--1-1--1--|---------------------|


  E5                C#5               C5                F#5
 5/4
          PM
  Q.   Q  E Q  Q    Q.   Q.   Q  Q    Q.   Q  E Q  Q    Q.   Q  E Q  Q
|-----------0--0--|-----------------|-----------------|-------------------|
|-----------0--0--|-----------------|-----------------|-------------------|
|-----------4--4--|-----------------|-----------------|-------------------|
|-2----2----2--2--|-----------------|-----------------|-------------------|
|-2----2--2-------|-----------------|-3----3--3-3--3--|-------------------|
|-0----0--0-------|-----------------|-3----3--3-3--3--|-2----2--0-2--3----|
|-----------------|-2----2----2--2--|-1----1--1-1--1--|-------------------|


  E5                C5/C#             C5                A5
                                                       6/4
          PM                PM                                  PM
  Q.   Q  E Q  Q    Q.   Q  E Q  Q    Q.   Q  E Q  Q    Q.   Q  E Q  Q  Q
|-----------0--0--|-----------------|-----------------|--------------------||
|-----------0--0--|-----------------|-----------------|--------------------||
|-----------4--4--|-----------------|-----------0-----|-2----2----2--2--2--||
|-2----2----2--2--|-5----5----5--5--|-----------x-----|-2----2--2-2--2--2--||
|-2----2--2-------|-4----4--4-4--4--|-3----3--3-3--3--|-0----0--0-0--0--0--||
|-0----0--0-------|-----------------|-3----3--3-3--3--|--------------------||
|-----------------|-----------------|-1----1--1-1--1--|--------------------||


   Pre-Verse
    N.C.(B5)
   3/4
    Gtrs I, II
        PM~~~~~~       PM~~~~~~       PM~~~~~~       PM    ~
    E E E E +Q     E E E E +Q     E E E E +Q     E E E   E Q
||---------------|--------------|--------------|---------------|
||---------------|--------------|--------------|---------------|
||o--------------|--------------|--------------|---------------|
||---------------|--------------|--------------|---------------|
||o--------------|--------------|--------------|-------/10-9---|
||--5h7---7-(7)--|-8-7---7-(7)--|-5h7---7-(7)--|-8-7-----------|
||------0--------|-----0--------|-----0--------|-----0---------|


      PM~~~~~~       PM~~~~~~       PM~~~~~~       PM   ~
  E E E E +Q     E E E E +Q     E E E E +Q     E E E  E Q
|--------------|--------------|--------------|--------------||
|--------------|--------------|--------------|--------------||
|--------------|--------------|--------------|-------------o||
|--------------|--------------|--------------|--------------||
|--------------|--------------|--------------|-------------o||
|-5h7---7-(7)--|-8-7---7-(7)--|-5h7---7-(7)--|-8-7----------||
|-----0--------|-----0--------|-----0--------|-----0-/8-7---||


    N.C.(B5)
    Gtr IV
    E E E E +E  E   E E E E Q    E E E E +E  E   E E E E Q
||----------------|------------|---------------|-------------||
||----------------|------------|---------------|-------------||
||o-------4-(4)---|-5-4---4----|-------4-(4)---|-5-4--------o||
||----------------|------------|---------------|-------5-4---||
||o-0h2-2-------2-|-----2---2--|-0h2-2-------2-|-----2------o||
||----------------|------------|---------------|-------------||
||----------------|------------|---------------|-------------||
|
|   Gtr V
|   E E E E +E  E   E E E E Q    E E E E +E  E   E E E E Q
||--------7-(7)---|-8-7---7----|-------7-(7)---|-8-7---------||
||----------------|------------|---------------|-------8-7---||
||o-------4-(4)---|-5-4---4----|-------4-(4)---|-5-4--------o||
||----------------|------------|---------------|-------5-4---||
||o-0h2-2-------2-|-----2---2--|-0h2-2-------2-|-----2------o||
||----------------|------------|---------------|-------------||
||----------------|------------|---------------|-------------||


   Verse
    N.C.(B5)
    E E E E +E  E   E E E E Q    E E E E +E  E   E E E E Q   4x
||----------------|------------|---------------|-------------||
||----------------|------------|---------------|-------------||
||o-------4-(4)---|-5-4---4----|-------4-(4)---|-5-4--------o||
||----------------|------------|---------------|-------5-4---||
||o-0h2-2-------2-|-----2---2--|-0h2-2-------2-|-----2------o||
||----------------|------------|---------------|-------------||
||----------------|------------|---------------|-------------||
|
|   E E E E +E  E   E E E E Q    E E E E +E  E   E E E E Q   4x
||--------7-(7)---|-8-7---7----|-------7-(7)---|-8-7---------||
||----------------|------------|---------------|-------8-7---||
||o-------4-(4)---|-5-4---4----|-------4-(4)---|-5-4--------o||
||----------------|------------|---------------|-------5-4---||
||o-0h2-2-------2-|-----2---2--|-0h2-2-------2-|-----2------o||
||----------------|------------|---------------|-------------||
||----------------|------------|---------------|-------------||


  B5
  Gtr I
   E  E E E Q     H.         H.                     H.
|--------------|----------|----------------------|------------------|
|--------------|----------|----------------------|------------------|
|--------------|----------|----------------------|------------------|
|--4--4---4----|----------|----------------------|------------------|
|--2--2---2----|----------|----------------------|------------------|
|--2--2---2----|----------|----------------------|------------------|
|--0--0---0----|----------|----------------------|------------------|
|
| Gtr II
|                            \2.5/  \2.5/           \2.5/
|  H.            +H.        +E     +E     +H       +Q       +H
|--------------|----------|----------------------|------------------|
|--------------|----------|----------------------|------------------|
|--------------|----------|----------------------|------------------|
|--------------|----------|----------------------|------------------|
|-[2]----------|-(2)------|-(2)----(2)----(2)----|-(2)-----([2])----|
|--------------|----------|----------------------|------------------|
|--------------|----------|----------------------|------------------|


                                            C5  B5  G5F#5
                                        PM        PM
   E  E E E Q     H.         E  E E E E E    E  E E E Q
|--------------|----------|---------------|--------------|
|--------------|----------|---------------|--------------|
|--------------|----------|---------------|--------------|
|--4--4---4----|----------|--4--4---4-----|--------------|
|--2--2---2----|----------|--2--2---2-----|---------5-4--|
|--2--2---2----|----------|--2--2---2-----|--3--2---3-2--|
|--0--0---0----|----------|--0--0---0---0-|--1--0-0------|
|
| +H.            +H.        +H.             +H.
|--------------|----------|---------------|--------------|
|--------------|----------|---------------|--------------|
|--------------|----------|---------------|--------------|
|--------------|----------|---------------|--------------|
|-(2)----------|-(2)------|-(2)-----------|-(2)----------|
|--------------|----------|---------------|--------------|
|--------------|----------|---------------|--------------|


    N.C.(B5)
    Gtrs I, II
        PM~~~~~~       PM~~~~~~       PM~~~~~~       PM    ~
    E E E E +Q     E E E E +Q     E E E E +Q     E E E   E Q
||---------------|--------------|--------------|--------------|
||---------------|--------------|--------------|--------------|
||o--------------|--------------|--------------|--------------|
||---------------|--------------|--------------|--------------|
||o--------------|--------------|--------------|-------/10-9--|
||--5h7---7-(7)--|-8-7---7-(7)--|-5h7---7-(7)--|-8-7----------|
||------0--------|-----0--------|-----0--------|-----0--------|


      PM~~~~~~       PM~~~~~~       PM~~~~~~       PM   ~
  E E E E +Q     E E E E +Q     E E E E +Q     E E E  E Q
|--------------|--------------|--------------|--------------||
|--------------|--------------|--------------|--------------||
|--------------|--------------|--------------|-------------o||
|--------------|--------------|--------------|--------------||
|--------------|--------------|--------------|-------------o||
|-5h7---7-(7)--|-8-7---7-(7)--|-5h7---7-(7)--|-8-7----------||
|-----0--------|-----0--------|-----0--------|-----0-/8-7---||


 Pre-Chorus
  N.C.(B5)
  E E E E +E  E   E E E E +E  E   E E E E +E  E   E E E E Q
|---------------|---------------|---------------|------------|
|---------------|---------------|---------------|------------|
|-------4-(4)-4-|-5-4---4-(4)-4-|-------4-(4)-4-|-5-4--------|
|---------------|---------------|---------------|-------5-4--|
|-0h2-2---------|-----2---------|-0h2-2---------|-----2------|
|---------------|---------------|---------------|------------|
|---------------|---------------|---------------|------------|


  B5/E                           G              G
  Q  E E +E  E   E E E E +E  E   Q  E E +E  E   Q  E E +E  E
|--------------|---------------|--------------|--------------|
|--------------|---------------|--------------|--------------|
|------4-(4)-4-|-5-4---4-(4)-4-|------4-(4)-4-|------4-(4)-4-|
|--------------|---------------|--------------|--------------|
|--------------|---------------|--------------|-0--0---------|
|-0--0---------|-----0---------|-3--3---------|--------------|
|--------------|---------------|--------------|--------------|


  N.C.(B5)                                        G
  E E E E +E  E   E E E E +E  E   E E E E +E  E   Q  E E +E  E
|---------------|---------------|---------------|--------------|
|---------------|---------------|---------------|--------------|
|-------4-(4)-4-|-5-4---4-(4)-4-|-------4-(4)-4-|------4-(4)-4-|
|---------------|---------------|---------------|--------------|
|-0h2-2---------|-----2---------|-0h2-2---------|--------------|
|---------------|---------------|---------------|-3--3---------|
|---------------|---------------|---------------|--------------|


  B5/F#                           E5             B5/D
  E E E E +E  E   E E E E +E  E   Q  E E +E  E   Q  E E +E  E
|---------------|---------------|--------------|--------------||
|---------------|---------------|--------------|--------------||
|-------4-(4)-4-|-5-4---4-(4)-4-|------4-(4)-4-|------4-(4)-4-||
|---------------|---------------|--------------|--------------||
|---------------|---------------|--------------|--------------||
|-0h2-2---------|-----2---------|-0--0---------|--------------||
|---------------|---------------|--------------|-3--3---------||


 Chorus
  N.C.(B5)
  Gtr I
               ~~~~~~~~~            ~~
      |--3--|                                |--3--|
   E  S  S  S  E  E  E   E    E  E  Q    E   S  S  S
|--------------------------|-------------------------|
|-12h13p12----12-12-12-----|-12-13-12---12h=13p12----|
|----------14-----------14-|----------------------14-|
|--------------------------|-------------------------|
|--------------------------|-------------------------|
|--------------------------|-------------------------|
|--------------------------|-------------------------|
|
| Gtr II
|              ~~~~~~~~~            ~~
|     |--3--|                                |--3--|
|  E  S  S  S  E  E  E   E    E  E  Q    E   S  S  S
|--------------------------|-------------------------|
|--------------------------|-------------------------|
|--4h=5p=4-----4--4--4-----|--4--5--4----4h==5p=4----|
|-----------7------------7-|-----------------------7-|
|--------------------------|-------------------------|
|--------------------------|-------------------------|
|--------------------------|-------------------------|
|
| Gtr III
|  E  E        E  E +E   E    E  E  E E +E   E
|--------------------------|-------------------------|
|--------------------------|-------------------------|
|-----------------4-(4)--4-|--5--4----4-(4)--4-------|
|--------------------------|-------------------------|
|--0h=2--------2-----------|--------2----------------|
|--------------------------|-------------------------|
|--------------------------|-------------------------|


         ~~                  ~~~
   E  E  Q    E   E    E  E  Q.      +E
|-------------------|---------------------|
|-12s19-19---19--17-|-19-20-19------(19)\-|
|-------------------|---------------------|
|-------------------|---------------------|
|-------------------|---------------------|
|-------------------|---------------------|
|-------------------|---------------------|
|
|        ~~                  ~~~
|  E  E  Q    E   E    E  E  Q.      +E
|-------------------|---------------------|
|-------------------|---------------------|
|--4s11-11---11---9-|-11-12-11------(11)\-|
|-------------------|---------------------|
|-------------------|---------------------|
|-------------------|---------------------|
|-------------------|---------------------|
|
|  E  E  E E +E   E    E  E  E  E Q
|-------------------|---------------------|
|-------------------|---------------------|
|----------4-(4)--4-|--5--4---------------|
|-------------------|-----------5-4-------|
|--0h=2--2----------|--------2------------|
|-------------------|---------------------|
|-------------------|---------------------|


  B5/E
               ~~~~~~~~~            ~~
      |--3--|
   E  S  S  S  E  E  E   E    E  E  Q     E   E
|--------------------------|--------------------|
|-12h13p12----12-12-12-----|-12-13-12---/19--20-|
|----------14-----------14-|--------------------|
|--------------------------|--------------------|
|--------------------------|--------------------|
|--------------------------|--------------------|
|--------------------------|--------------------|
|
|              ~~~~~~~~~            ~~
|     |--3--|
|  E  S  S  S  E  E  E   E    E  E  Q     E   E
|--------------------------|--------------------|
|--------------------------|------------/15--17-|
|--4h=5p=4-----4--4--4-----|--4--5--4-----------|
|-----------7------------7-|--------------------|
|--------------------------|--------------------|
|--------------------------|--------------------|
|--------------------------|--------------------|
|
|  Q           E  E +E   E    E  E  E E  +E   E
|--------------------------|--------------------|
|--------------------------|--------------------|
|-----------------4-(4)--4-|--5--4----4--(4)--4-|
|--------------------------|--------------------|
|--------------------------|--------------------|
|--0-----------0-----------|--------0-----------|
|--------------------------|--------------------|


  G                      B5/A
   ~~                     ~~~~~~~~~~~~
               |--3--|
   H       E   S  S  S    H       +E   +E
|----------------------|--------------------|
|-22------20--19h20p19-|--------------------|
|----------------------|-21------(21)-(21)\-|
|----------------------|--------------------|
|----------------------|--------------------|
|----------------------|--------------------|
|----------------------|--------------------|
|
|  ~~                     ~~~~~~~~~~~~
|              |--3--|
|  H       E   S  S  S    H       +E   +E
|----------------------|--------------------|
|-19------17--15h17p15-|--------------------|
|----------------------|--------------------|
|----------------------|-19------(19)-(19)\-|
|----------------------|--------------------|
|----------------------|--------------------|
|----------------------|--------------------|
|
|  Q  E E +E   E          Q  E E  +E    E
|----------------------|--------------------|
|----------------------|--------------------|
|-------4-(4)--4-------|-------4--(4)---4---|
|----------------------|--------------------|
|----------------------|--0--0--------------|
|--3--3----------------|--------------------|
|----------------------|--------------------|


  N.C.(B5)
               ~~~~~~~~~
      |--3--|
   E  S  S  S  E  E  E  E    S S  S S  S S  S S  S  S  S S
|-------------------------|--------------------------------|
|-12h13p12----12-12-12--0-|-12-0-13-0-12-0-10-0-12--0-13-0-|
|----------14-------------|--------------------------------|
|-------------------------|--------------------------------|
|-------------------------|--------------------------------|
|-------------------------|--------------------------------|
|-------------------------|--------------------------------|
|
|              ~~~~~~~~~
|     |--3--|
|  E  S  S  S  E  E  E  E    S S  S S  S S  S S  S  S  S S
|-------------------------|--------------------------------|
|-----------------------0-|--7-0--8-0--7-0--5-0--7--0--8-0-|
|--4h=5p=4-----4--4--4----|--------------------------------|
|-----------7-------------|--------------------------------|
|-------------------------|--------------------------------|
|-------------------------|--------------------------------|
|-------------------------|--------------------------------|
|
|  E  E        E  E +E  E    E    E    E    E   +E     E
|-------------------------|--------------------------------|
|-------------------------|--------------------------------|
|-----------------4-(4)-4-|--5----4---------4---(4)----4---|
|-------------------------|--------------------------------|
|--0h=2--------2----------|------------2-------------------|
|-------------------------|--------------------------------|
|-------------------------|--------------------------------|


                             G
               ~~~                        ~~
      |--3--|                    |--3--|
   E  S  S  S  E  E  E   E    E  S  S  S  Q    S   S  S  S
|--------------------------|----------------------------20-|
|-12h13p12----12s19-19-----|-19h20p19----19---19--20-22----|
|----------14-----------21-|----------21-------------------|
|--------------------------|-------------------------------|
|--------------------------|-------------------------------|
|--------------------------|-------------------------------|
|--------------------------|-------------------------------|
|
|              ~~~                        ~~
|     |--3--|                    |--3--|
|  E  S  S  S  E  E  E   E    E  S  S  S  Q    S   S  S  S
|--------------------------|----------------------------17-|
|--7h=8p=7-----7s12-12-----|-12h13p12----12----------------|
|-----------9-----------14-|----------14------16--17-19----|
|--------------------------|-------------------------------|
|--------------------------|-------------------------------|
|--------------------------|-------------------------------|
|--------------------------|-------------------------------|
|
|  E  E        E  E +E   E    Q           E E +E      E
|--------------------------|-------------------------------|
|--------------------------|-------------------------------|
|-----------------4-(4)--4-|----------------4-(4)-----4----|
|--------------------------|-------------------------------|
|--0h=2--------2-----------|-------------------------------|
|--------------------------|--3-----------3----------------|
|--------------------------|-------------------------------|


  B5/F#
               ~~                  ~~
      |--3--|
   E  S  S  S  Q    E   E    E  E  Q    E   E
|-19h20p19----19---19-----|-19-20-19---20--22-|
|----------22----------22-|-------------------|
|-------------------------|-------------------|
|-------------------------|-------------------|
|-------------------------|-------------------|
|-------------------------|-------------------|
|-------------------------|-------------------|
|
|              ~~                  ~~
|     |--3--|
|  E  S  S  S  Q    E   E    E  E  Q    E   E
|-15-17p15----15---15-----|-15-17-15---17--19-|
|----------19----------19-|-------------------|
|-------------------------|-------------------|
|-------------------------|-------------------|
|-------------------------|-------------------|
|-------------------------|-------------------|
|-------------------------|-------------------|
|
|  E  E        E E +E   E    E  E  E E +E   E
|-------------------------|-------------------|
|-------------------------|-------------------|
|----------------4-(4)--4-|--5--4----4-(4)--4-|
|-------------------------|-------------------|
|-------------------------|-------------------|
|--0h=2--------2----------|--------2----------|
|-------------------------|-------------------|


  E5                              B5/D
                                   ~~~~~~~~~~~~
                 |--3--|
   E     +E   E  S  S  S  E   E    H       +E   +E
|-22b24r(22)-20-19h20p19-----19-|--------------------||
|------------------------22-----|-22------(22)-(22)\-||
|-------------------------------|--------------------||
|-------------------------------|--------------------||
|-------------------------------|--------------------||
|-------------------------------|--------------------||
|-------------------------------|--------------------||
|
|                                  ~~~~~~~~~~~~
|                |--3--|
|  E     +E   E  S  S  S  E   E    H       +E   +E
|-19b20r(19)-17-15h17p15-14--15-|-14------(14)-(14)\-||
|-------------------------------|--------------------||
|-------------------------------|--------------------||
|-------------------------------|--------------------||
|-------------------------------|--------------------||
|-------------------------------|--------------------||
|-------------------------------|--------------------||
|
|  Q          E  E       +E   E    Q  E E  +E    E
|-------------------------------|--------------------||
|-------------------------------|--------------------||
|----------------4-------(4)--4-|-------4--(4)---4---||
|-------------------------------|--------------------||
|-------------------------------|--------------------||
|--0----------0-----------------|--------------------||
|-------------------------------|--3--3--------------||


                                      Verse
  N.C.                                 N.C.(B5)
 4/4
  Gtrs I, II
                                       PM--------------------|
  |----6----| |----6-----------------------------------------|
  S S S S S S S S S S S S S E S Q      S S S S E S S +S  S E Q
|----------------------------------||---------------------------|
|----------------------------------||---------------------------|
|----------------------------------||o--------------------------|
|-5-4-2-------4-2-0----------------||---------------------------|
|-------5-4-2-------4-2-0----------||o--------------------------|
|-------------------------3-2------||---------------------------|
|----------------------------------||--0-0-0-0-0-0-0-(0)-0-0----|


                        N.C. N.C.(B5)
  PM------------------|      PM------------------|
  S S S S E S S +S  S E Q    S S S S E S S +S  S E Q
|--------------------------|--------------------------|
|--------------------------|--------------------------|
|-----------------------5--|--------------------------|
|-----------------------4--|--------------------------|
|--------------------------|--------------------------|
|--------------------------|--------------------------|
|-0-0-0-0-0-0-0-(0)-0-0----|-0-0-0-0-0-0-0-(0)-0-0----|


 7/8

  PM-------------------------
  S S S S E S S S S S S S S
|---------------------------|
|---------------------------|
|---------------------------|
|---------------------------|
|---------------------------|
|---------------------------|
|-0-0-0-0-0-0-0-3-2-0-3-2-0-|


                                                   N.C.
 4/4
 ---------------------|      PM------------------|
  S S S S E S S +S  S E Q    S S S S E S S +S  S E Q
|--------------------------|----------------------------|
|--------------------------|----------------------------|
|--------------------------|-----------------------5----|
|--------------------------|-----------------------4----|
|--------------------------|----------------------------|
|--------------------------|----------------------------|
|-0-0-0-0-0-0-0-(0)-0-0----|-0-0-0-0-0-0-0-(0)-0-0------|


                             1.
  N.C.(B5)                                 C5C#D5
  PM------------------|      PM---------------------
                                           |-3-|
  S S S S E S S +S  S E Q    S S S S E S S q q q
|--------------------------|----------------------||
|--------------------------|----------------------||
|--------------------------|---------------------o||
|--------------------------|----------------------||
|--------------------------|---------------------o||
|--------------------------|---------------3-4-5--||
|-0-0-0-0-0-0-0-(0)-0-0----|-0-0-0-0-0-0-0-1-2-3--||


  2.
  N.C.(B5)      C5C#D5N.C.
 5/4
 -------------------------|
                |-3-| |-3-|
  S S S S E S S q q q E E E
|---------------------------||
|---------------------------||
|---------------------------||
|---------------------------||
|---------------------------||
|---------------3-4-5-------||
|-0-0-0-0-0-0-0-1-2-3-2-3-3-||


 Bridge
  B5C#5       D5C#5       N.C.        B5C#5       D5C#5           B5
 4/4
            PM                                  PM
  E E E E E E E E   E E E E E E E E   E E E E E E E E   E E E E E E +Q
|-----------------|-----------------|-----------------|------------------|
|-----------------|-----------------|-----------------|------------------|
|-----------------|-----------------|-----------------|------------------|
|-----------------|-----------------|-----------------|------------------|
|-----------------|-------x-x---x---|-----------------|------------------|
|-2-4---4---4-5-4-|---4---x-x---x---|-2-4---4---4-5-4-|---4---x-4-2-(2)--|
|-0-2---2---2-3-2-|---2---x-x---x---|-0-2---2---2-3-2-|---2---x-2-0-(0)--|


    C#5       D5C#5       N.C.
            PM
  E E E E E E E E   E E E E E E E E
|-----------------|-----------------|
|-----------------|-----------------|
|-----------------|-----------------|
|-----------------|-----------------|
|-----------------|-------x-x---x---|
|-2-4---4---4-5-4-|---4---x-x---x---|
|-0-2---2---2-3-2-|---2---x-x---x---|


  B5C#5       D5C#5       N.C.
            PM
  E E E E E E E E   E E E E  E   E   E   E
|-----------------|--------------------------||
|-----------------|---------<5>-<5>-<5>-<5>--||
|-----------------|--------------------------||
|-----------------|--------------------------||
|-----------------|--------------------------||
|-2-4---4---4-5-4-|---4---x------------------||
|-0-2---2---2-3-2-|---2---x------------------||


 Pre-Verse
  N.C.(B5)
 3/4
      PM~~~~~~       PM~~~~~~       PM~~~~~~       PM    ~
  E E E E +Q     E E E E +Q     E E E E +Q     E E E   E Q
|--------------|--------------|--------------|--------------|
|--------------|--------------|--------------|--------------|
|--------------|--------------|--------------|--------------|
|--------------|--------------|--------------|--------------|
|--------------|--------------|--------------|-------/10-9--|
|-5h7---7-(7)--|-8-7---7-(7)--|-5h7---7-(7)--|-8-7----------|
|-----0--------|-----0--------|-----0--------|-----0--------|


      PM~~~~~~       PM~~~~~~       PM~~~~~~       PM   ~
  E E E E +Q     E E E E +Q     E E E E +Q     E E E  E Q
|--------------|--------------|--------------|-------------||
|--------------|--------------|--------------|-------------||
|--------------|--------------|--------------|-------------||
|--------------|--------------|--------------|-------------||
|--------------|--------------|--------------|-------------||
|-5h7---7-(7)--|-8-7---7-(7)--|-5h7---7-(7)--|-8-7---------||
|-----0--------|-----0--------|-----0--------|-----0-/8-7--||


 Verse
  N.C.(C#5)
 4/4
  PM------------------|
  S S S S E S S +S  S E Q
|--------------------------|
|--------------------------|
|--------------------------|
|--------------------------|
|--------------------------|
|--------------------------|
|-2-2-2-2-2-2-2-(2)-2-2----|


                        N.C. N.C.(C#5)
  PM------------------|      PM------------------|
  S S S S E S S +S  S E Q    S S S S E S S +S  S E Q
|--------------------------|---------------------------|
|--------------------------|---------------------------|
|-----------------------7--|---------------------------|
|-----------------------6--|---------------------------|
|--------------------------|---------------------------|
|--------------------------|---------------------------|
|-2-2-2-2-2-2-2-(2)-2-2----|-2-2-2-2-2-2-2-(2)-2-2-----|


 7/8
  PM-------------------------
  S S S S E S S S S S S S S
|---------------------------|
|---------------------------|
|---------------------------|
|---------------------------|
|---------------------------|
|---------------------------|
|-2-2-2-2-2-2-2-5-4-2-5-4-2-|


                                                   N.C.
 4/4
 ---------------------|      PM------------------|
  S S S S E S S +S  S E Q    S S S S E S S +S  S E Q
|--------------------------|---------------------------|
|--------------------------|---------------------------|
|--------------------------|-----------------------7---|
|--------------------------|-----------------------6---|
|--------------------------|---------------------------|
|--------------------------|---------------------------|
|-2-2-2-2-2-2-2-(2)-2-2----|-2-2-2-2-2-2-2-(2)-2-2-----|


  N.C.(C#5)                                D5D#E5N.C.
                            5/4
  PM------------------|      PM----------------------|
                                           |-3-| |-3-|
  S S S S E S S +S  S E Q    S S S S E S S q q q E E E
|--------------------------|---------------------------||
|--------------------------|---------------------------||
|--------------------------|---------------------------||
|--------------------------|---------------------------||
|--------------------------|---------------------------||
|--------------------------|---------------5-6-7-------||
|-2-2-2-2-2-2-2-(2)-2-2----|-2-2-2-2-2-2-2-3-4-5-3-2-2-||


 Bridge
  C#Eb5       E5D#5     N.C.      C#D#5       E5D#5       N.C.
 4/4
            PM                              PM
  E E E E E E E E   E E Q  H      E E E E E E E E   E E E E E E E E
|-----------------|-------------|-----------------|------------------|
|-----------------|-------------|-----------------|------------------|
|-----------------|-------------|-----------------|------------------|
|-----------------|-------------|-----------------|------------------|
|-----------------|-------------|-----------------|---------4-6------|
|-4-6---6---6-7-6-|---6---------|-4-6---6---6-7-6-|---6---x-----7-6--|
|-2-4---4---4-5-4-|---4---------|-2-4---4---4-5-4-|---4---x----------|


  C#D#5       E5D#5     N.C.      C#D#5       E5D#5       N.C.
            PM                              PM
  E E E E E E E E   E E Q  H      E E E E E E E E   E E E E E E  E E
|-----------------|-------------|-----------------|-------------------|
|-----------------|-------------|-----------------|-------------------|
|-----------------|-------------|-----------------|-------------------|
|-----------------|-------------|-----------------|-------------------|
|-----------------|-------------|-----------------|---------4---------|
|-4-6---6---6-7-6-|---6---------|-4-6---6---6-7-6-|---6---------/7-6--|
|-2-4---4---4-5-4-|---4---------|-2-4---4---4-5-4-|---4-------4-------|


  N.C.(B5)
 3/4
      PM~~~~~~       PM~~~~~~       PM~~~~~~       PM    ~
  E E E E +Q     E E E E +Q     E E E E +Q     E E E   E Q
|--------------|--------------|--------------|--------------|
|--------------|--------------|--------------|--------------|
|--------------|--------------|--------------|--------------|
|--------------|--------------|--------------|--------------|
|--------------|--------------|--------------|-------/10-9--|
|-5h7---7-(7)--|-8-7---7-(7)--|-5h7---7-(7)--|-8-7----------|
|-----0--------|-----0--------|-----0--------|-----0--------|


      PM~~~~~~       PM~~~~~~       PM~~~~~~       PM   ~
  E E E E +Q     E E E E +Q     E E E E +Q     E E E  E Q
|--------------|--------------|--------------|-------------||
|--------------|--------------|--------------|-------------||
|--------------|--------------|--------------|-------------||
|--------------|--------------|--------------|-------------||
|--------------|--------------|--------------|-------------||
|-5h7---7-(7)--|-8-7---7-(7)--|-5h7---7-(7)--|-8-7---------||
|-----0--------|-----0--------|-----0--------|-----0-/8-7--||


 Pre-Chorus
  N.C.(B5)
                                                           ~
  E E E E +E  E   E E E E +E  E   E E E E +E  E   E E E  E Q
|---------------|---------------|---------------|-------------|
|---------------|---------------|---------------|-------------|
|-------4-(4)-4-|-5-4---4-(4)-4-|-------4-(4)-4-|-5-4---------|
|---------------|---------------|---------------|-------/5-4--|
|-0h2-2---------|-----2---------|-0h2-2---------|-----2-------|
|---------------|---------------|---------------|-------------|
|---------------|---------------|---------------|-------------|


  E5                             G              B5/A
  Q  E E +E  E   E E E E +E  E   Q  E E +E  E   Q  E E +E  E
|--------------|---------------|--------------|--------------|
|--------------|---------------|--------------|--------------|
|------4-(4)-4-|-5-4---4-(4)-4-|------4-(4)-4-|------4-(4)-4-|
|--------------|---------------|--------------|--------------|
|--------------|---------------|--------------|-0--0---------|
|-0--0---------|-----0---------|-3--3---------|--------------|
|--------------|---------------|--------------|--------------|


  N.C.(B5)                                        G
  E E E E +E  E   E E E E +E  E   E E E E +E  E   Q  E E +E  E
|---------------|---------------|---------------|--------------|
|---------------|---------------|---------------|--------------|
|-------4-(4)-4-|-5-4---4-(4)-4-|-------4-(4)-4-|------4-(4)-4-|
|---------------|---------------|---------------|--------------|
|-0h2-2---------|-----2---------|-0h2-2---------|--------------|
|---------------|---------------|---------------|-3--3---------|
|---------------|---------------|---------------|--------------|


  B5/F#                           E5             B5/D
  E E E E +E  E   E E E E +E  E   Q  E E +E  E   Q  E E +E  E
|---------------|---------------|--------------|--------------||
|---------------|---------------|--------------|--------------||
|-------4-(4)-4-|-5-4---4-(4)-4-|------4-(4)-4-|------4-(4)-4-||
|---------------|---------------|--------------|--------------||
|---------------|---------------|--------------|--------------||
|-0h2-2---------|-----2---------|-0--0---------|--------------||
|---------------|---------------|--------------|-3--3---------||


 Chorus
  N.C.(B5)
  Gtr I
               ~~~~~~~~~            ~~
      |--3--|                                |--3--|
   E  S  S  S  E  E  E   E    E  E  Q    E   S  S  S
|--------------------------|-------------------------|
|-12h13p12----12-12-12-----|-12-13-12---12h=13p12----|
|----------14-----------14-|----------------------14-|
|--------------------------|-------------------------|
|--------------------------|-------------------------|
|--------------------------|-------------------------|
|--------------------------|-------------------------|
|
| Gtr II
|              ~~~~~~~~~            ~~
|     |--3--|                                |--3--|
|  E  S  S  S  E  E  E   E    E  E  Q    E   S  S  S
|--------------------------|-------------------------|
|--------------------------|-------------------------|
|--4h=5p=4-----4--4--4-----|--4--5--4----4h==5p=4----|
|-----------7------------7-|-----------------------7-|
|--------------------------|-------------------------|
|--------------------------|-------------------------|
|--------------------------|-------------------------|
|
| Gtr III
|  E  E        E  E +E   E    E  E  E E +E   E
|--------------------------|-------------------------|
|--------------------------|-------------------------|
|-----------------4-(4)--4-|--5--4----4-(4)--4-------|
|--------------------------|-------------------------|
|--0h=2--------2-----------|--------2----------------|
|--------------------------|-------------------------|
|--------------------------|-------------------------|


         ~~                  ~~~
   E  E  Q    E   E    E  E  Q.      +E
|-------------------|---------------------|
|-12s19-19---19--17-|-19-20-19------(19)\-|
|-------------------|---------------------|
|-------------------|---------------------|
|-------------------|---------------------|
|-------------------|---------------------|
|-------------------|---------------------|
|
|        ~~                  ~~~
|  E  E  Q    E   E    E  E  Q.      +E
|-------------------|---------------------|
|-------------------|---------------------|
|--4s11-11---11---9-|-11-12-11------(11)\-|
|-------------------|---------------------|
|-------------------|---------------------|
|-------------------|---------------------|
|-------------------|---------------------|
|
|  E  E  E E +E   E    E  E  E  E Q
|-------------------|---------------------|
|-------------------|---------------------|
|----------4-(4)--4-|--5--4---------------|
|-------------------|-----------5-4-------|
|--0h=2--2----------|--------2------------|
|-------------------|---------------------|
|-------------------|---------------------|


  E5
               ~~~~~~~~~            ~~
      |--3--|
   E  S  S  S  E  E  E   E    E  E  Q     E   E
|--------------------------|--------------------|
|-12h13p12----12-12-12-----|-12-13-12---/19--20-|
|----------14-----------14-|--------------------|
|--------------------------|--------------------|
|--------------------------|--------------------|
|--------------------------|--------------------|
|--------------------------|--------------------|
|
|              ~~~~~~~~~            ~~
|     |--3--|
|  E  S  S  S  E  E  E   E    E  E  Q     E   E
|--------------------------|--------------------|
|--------------------------|------------/15--17-|
|--4h=5p=4-----4--4--4-----|--4--5--4-----------|
|-----------7------------7-|--------------------|
|--------------------------|--------------------|
|--------------------------|--------------------|
|--------------------------|--------------------|
|
|  Q           E  E +E   E    E  E  E E  +E   E
|--------------------------|--------------------|
|--------------------------|--------------------|
|-----------------4-(4)--4-|--5--4----4--(4)--4-|
|--------------------------|--------------------|
|--------------------------|--------------------|
|--0-----------0-----------|--------0-----------|
|--------------------------|--------------------|


  G                      B5/A
   ~~                     ~~~~~~~~~~~~
               |--3--|
   H       E   S  S  S    H       +E   +E
|----------------------|--------------------|
|-22------20--19h20p19-|--------------------|
|----------------------|-21------(21)-(21)\-|
|----------------------|--------------------|
|----------------------|--------------------|
|----------------------|--------------------|
|----------------------|--------------------|
|
|  ~~                     ~~~~~~~~~~~~
|              |--3--|
|  H       E   S  S  S    H       +E   +E
|----------------------|--------------------|
|-19------17--15h17p15-|--------------------|
|----------------------|--------------------|
|----------------------|-19------(19)-(19)\-|
|----------------------|--------------------|
|----------------------|--------------------|
|----------------------|--------------------|
|
|  Q  E E +E   E          Q  E E  +E    E
|----------------------|--------------------|
|----------------------|--------------------|
|-------4-(4)--4-------|-------4--(4)---4---|
|----------------------|--------------------|
|----------------------|--0--0--------------|
|--3--3----------------|--------------------|
|----------------------|--------------------|


  N.C.(B5)
               ~~~~~~~~~
      |--3--|
   E  S  S  S  E  E  E  E    S S  S S  S S  S S  S  S  S S
|-------------------------|--------------------------------|
|-12h13p12----12-12-12--0-|-12-0-13-0-12-0-10-0-12--0-13-0-|
|----------14-------------|--------------------------------|
|-------------------------|--------------------------------|
|-------------------------|--------------------------------|
|-------------------------|--------------------------------|
|-------------------------|--------------------------------|
|
|              ~~~~~~~~~
|     |--3--|
|  E  S  S  S  E  E  E  E    S S  S S  S S  S S  S  S  S S
|-------------------------|--------------------------------|
|-----------------------0-|--7-0--8-0--7-0--5-0--7--0--8-0-|
|--4h=5p=4-----4--4--4----|--------------------------------|
|-----------7-------------|--------------------------------|
|-------------------------|--------------------------------|
|-------------------------|--------------------------------|
|-------------------------|--------------------------------|
|
|  E  E        E  E +E  E    E    E    E    E   +E     E
|-------------------------|--------------------------------|
|-------------------------|--------------------------------|
|-----------------4-(4)-4-|--5----4---------4---(4)----4---|
|-------------------------|--------------------------------|
|--0h=2--------2----------|------------2-------------------|
|-------------------------|--------------------------------|
|-------------------------|--------------------------------|


               ~~~                        ~~
      |--3--|                    |--3--|
   E  S  S  S  E  E  E   E    E  S  S  S  Q   S  S  S  S
|--------------------------|--------------------------20-|
|-12h13p12----12s19-19-----|-19h20p19----19--19-20-22----|
|----------14-----------21-|----------21-----------------|
|--------------------------|-----------------------------|
|--------------------------|-----------------------------|
|--------------------------|-----------------------------|
|--------------------------|-----------------------------|
|
|              ~~~                        ~~
|     |--3--|                    |--3--|
|  E  S  S  S  E  E  E   E    E  S  S  S  Q   S  S  S  S
|--------------------------|--------------------------14-|
|--7h=8p=7-----7s12-12-----|-12h13p12----12--12-13-15----|
|-----------9-----------14-|----------14-----------------|
|--------------------------|-----------------------------|
|--------------------------|-----------------------------|
|--------------------------|-----------------------------|
|--------------------------|-----------------------------|
|
|  E  E        E  E +E   E    Q           Q   Q
|--------------------------|-----------------------------|
|--------------------------|-----------------------------|
|-----------------4-(4)--4-|-----------------------------|
|--------------------------|--5-----------5---5----------|
|--0h=2--------2-----------|-----------------------------|
|--------------------------|-----------------------------|
|--------------------------|-----------------------------|


  B5/F#
   |--3--|                                   |--3--|
   S  S  S  S  S  S  S  S  S  S   S  S  S    S  S  S  S  S  S  S  S  S  S   S  S  S
|-19h20p19----19-----------------19-20-22-|-----------------------------------------|
|----------22----22-20-19-20-22-----------|-19h20p19----19-----------------19-20-22-|
|-----------------------------------------|----------21----21-19-17-19-21-----------|
|-----------------------------------------|-----------------------------------------|
|-----------------------------------------|-----------------------------------------|
|-----------------------------------------|-----------------------------------------|
|-----------------------------------------|-----------------------------------------|
|
|  |--3--|                                   |--3--|
|  S  S  S  S  S  S  S  S  S  S   S  S  S    S  S  S  S  S  S  S  S  S  S   S  S  S
|-12h14p12----12-----------------12-14-15-|-----------------------------------------|
|----------15----15-13-12-13-15-----------|-12h13p12----12-----------------12-13-15-|
|-----------------------------------------|----------14----14-12-11-12-14-----------|
|-----------------------------------------|-----------------------------------------|
|-----------------------------------------|-----------------------------------------|
|-----------------------------------------|-----------------------------------------|
|-----------------------------------------|-----------------------------------------|
|
|  E        E     E     E    +E      E       E        E     E     E    +E      E
|-----------------------------------------|-----------------------------------------|
|-----------------------------------------|-----------------------------------------|
|-----------------------4----(4)-----4----|--5--------4-----------4----(4)-----4----|
|-----------------------------------------|-----------------------------------------|
|-----------------------------------------|-----------------------------------------|
|--0h=======2-----2-----------------------|-----------------2-----------------------|
|-----------------------------------------|-----------------------------------------|


  E5                                        N.C.
   |--3--|
   S  S  S  S  S  S  S  S  S  S   S  S  S    S  S  S  S  S  S  S  S  S  S  S  S
|-----------------------------------------|----------17-19-20----19-20-19-20-22-||
|-----------------------------------------|-17-19-20----------22----------------||
|-16h17p16----16-----------------16-17-19-|-------------------------------------||
|----------19----19-17-16-17-19-----------|-------------------------------------||
|-----------------------------------------|-------------------------------------||
|-----------------------------------------|-------------------------------------||
|-----------------------------------------|-------------------------------------||
|
|  |--3--|
|  S  S  S  S  S  S  S  S  S  S   S  S  S    S  S  S  S  S  S  S  S  S  S  S  S
|-----------------------------------------|----------------------------------17-||
|-----------------------------------------|----------17-19-20-17-19-20-19-20----||
|-----------------------------------------|-16-17-19----------------------------||
|-16h17p16----16-----------------16-17-19-|-------------------------------------||
|----------19----19-17-15-17-19-----------|-------------------------------------||
|-----------------------------------------|-------------------------------------||
|-----------------------------------------|-------------------------------------||
|
|  Q              E     E    +E      E       Q           Q           Q
|-----------------------------------------|-------------------------------------||
|-----------------------------------------|-------------------------------------||
|-----------------------4----(4)-----4----|-------------------------------------||
|-----------------------------------------|-------------------------------------||
|-----------------------------------------|-------------------------------------||
|--0--------------0-----------------------|-------------------------------------||
|-----------------------------------------|--3-----------1-----------0----------||


 Interlude
  E5                         C#5
 5/4
  Gtrs I, II
                 PM
   Q.   Q        E   Q  Q    Q.   Q.   Q  Q
|--------------------0--0--|-----------------|
|--------------------0--0--|-----------------|
|--------------------4--4--|-----------------|
|--2----2------------2--2--|-----------------|
|--2----2--------2---------|-----------------|
|--0----0--------0---------|-----------------|
|--------------------------|-2----2----2--2--|
|
| Gtr III
|  ~~~
|  H       +E   +E   H       W
|-24------(24)-(24)\-------|-----------------|
|-24------(24)-(24)\-------|-----------------|
|--------------------------|-----------------|
|--------------------------|-----------------|
|--------------------------|-----------------|
|--------------------------|-----------------|
|--------------------------|-----------------|


  C5                   F#5  G5   A5
 6/4                  4/4
  Q.   Q  E Q  Q  Q    Q.   Q.   E E
|--------------------|-----------------|
|--------------------|-----------------|
|--------------------|-----------------|
|--------------------|-----------4-4---|
|-3----3--3-3--3--3--|-----------2-2---|
|-3----3--3-3--3--3--|-2----3----------|
|-1----1--1-1--1--1--|-----------------|
|
| W                    W
|--------------------|-----------------|
|--------------------|-----------------|
|--------------------|-----------------|
|--------------------|-----------------|
|--------------------|-----------------|
|--------------------|-----------------|
|--------------------|-----------------|


  E5                N.C.
 5/4
          PM                PM
  Q.   Q  E Q  Q    Q.   Q  E Q  Q
|-----------0--0--|-----------------|
|-----------0--0--|-----------------|
|-----------4--4--|-----------------|
|-2----2----2--2--|-5----5----5--5--|
|-2----2--2-------|-4----4--4-4--4--|
|-0----0--0-------|-----------------|
|-----------------|-----------------|


  C5                   N.C.
 6/4
                       ~~~~~~~~     PM--|
                                    |-3-|
  Q.   Q  E Q  Q  Q    Q.   Q.   Q  Q Q Q
|--------------------|---------------------||
|--------------------|---------------------||
|--------------------|---------------------||
|--------------------|---------------------||
|-3----3--3-3--3--3--|---------------------||
|-3----3--3-3--3--3--|-5----3----2--3-2-3--||
|-1----1--1-1--1--1--|---------------------||


   Bridge
    E5                C#5               C5                   N.C.
   5/4                                 6/4                  4/4
            PM
    Q.   Q  E Q  Q    Q.   Q.   Q  Q    Q.   Q  E Q  Q  Q    Q.   Q.   Q
||------------0--0--|-----------------|--------------------|---------------|
||------------0--0--|-----------------|--------------------|---------------|
||o-----------4--4--|-----------------|--------------------|---------------|
||--2----2----2--2--|-----------------|--------------------|---------------|
||o-2----2--2-------|-----------------|-3----3--3-3--3--3--|-----------2---|
||--0----0--0-------|-----------------|-3----3--3-3--3--3--|-2----3--------|
||------------------|-2----2----2--2--|-1----1--1-1--1--1--|---------------|


                                                           1.
  E5                N.C.              C5                   N.C.
 5/4                                 6/4                  4/4
          PM                PM                             ~~~~~~~~
  Q.   Q  E Q  Q    Q.   Q  E Q  Q    Q.   Q  E Q  Q  Q    Q.   Q.   Q
|-----------0--0--|-----------------|--------------------|-----------------||
|-----------0--0--|-----------------|--------------------|-----------------||
|-----------4--4--|-----------------|--------------------|----------------o||
|-2----2----2--2--|-5----5----5--5--|--------------------|-----------------||
|-2----2--2-------|-4----4--4-4--4--|-3----3--3-3--3--3--|----------------o||
|-0----0--0-------|-----------------|-3----3--3-3--3--3--|-5----3----2-----||
|-----------------|-----------------|-1----1--1-1--1--1--|-----------------||


  2.
  N.C.
  ~~~~~~~~~~~~              ~~~~~
  Q.   Q.   Q    +E  E +Q   Q  Q
|--------------|------------------|
|--------------|------------------|
|--------------|------------------|
|--------------|------------------|
|--------------|------------------|
|-5----3----2--|-(2)-0-(0)--------|
|--------------|------------3--1--|


    Q=96
    N.C.(B5)
   6/4
    S S S S E. S S S S S S S S S E. S S S S S
||----------------------------------------------||
||----------------------------------------------||
||o--------------------------------------------o||
||----------------------------------------------||
||o--------------------------------------------o||
||------2-2--------2-2-------2-2--------2-2-----||
||--1p0-0-0----1p0-0-0---1p0-0-0----1p0-0-0-----||


    Q.=128
   12/8
    E E E E Q  E E E E E E   E E E E Q  E E E E E E
||-------------------------|-------------------------||
||-------------------------|-------------------------||
||o------------------------|------------------------o||
||-------------------------|-------------------------||
||o------------------------|------------------------o||
||------2-2----------2-2---|-----2-2----------2-2----||
||--1p0-0-0------1p0-0-0---|-1p0-0-0------1p0-0-0----||


    Q=96
    N.C.
   4/4
            PM                                  PM
    S S S S S S S S S S S S S S S S  3x S S S S S S S S S S S S S S S S
||-----------------------------------||----------------------------------|
||-----------------------------------||----------------------------------|
||o---------------------------------o||----------------------------------|
||-----------------------------------||----------------------------------|
||o---------------------------------o||-----------------4----------------|
||------4-2---5-2---4-2--------------||-----4-2---5-2-----4-5-2-4--------|
||--0-2-----3-----3-----3-2-0-2-3-2--||-0-2-----3-----3-----------2-0-3--|


  Q.=128
 6/4
  E E E E Q  E E E E E E   E E E E Q  E E E E E E
|------------------------|------------------------|
|------------------------|------------------------|
|------------------------|------------------------|
|------------------------|------------------------|
|------------------------|------------------------|
|-----2-2----------2-2---|-----2-2----------2-2---|
|-1p0-0-0------1p0-0-0---|-1p0-0-0------1p0-0-0---|


  Q=96
  N.C.
 4/4
          PM                                PM
  S S S S S S S S S S S S S S S S   S S S S S S S S S S S S S S S S
|---------------------------------|---------------------------------|
|---------------------------------|---------------------------------|
|---------------------------------|---------------------------------|
|---------------------------------|---------------------------------|
|---------------------------------|-----------------4---------------|
|-----4-2---5-2---4-2-------------|-----4-2---5-2-----4-5-2-4-------|
|-0-2-----3-----3-----3-2-0-2-3-2-|-0-2-----3-----3-----------2-0-3-|


          PM                                PM
  S S S S S S S S S S S S S S S S   S S S S S S S S S S S S S S S S
|---------------------------------|---------------------------------|
|---------------------------------|---------------------------------|
|---------------------------------|---------------------------------|
|---------------------------------|---------------------------------|
|-----4-2---5-2---4-2-------------|-----4-2---5-2---4-2-------------|
|-0-2-----3-----3-----3-2-0-2-3-2-|-0-2-----3-----3-----3-2-0-2-3-2-|
|---------------------------------|---------------------------------|


              PM
  S  S  S  S  S  S  S  S  S  S  S  S S  S  S  S
|-----------------------------------------------|
|-----------------------------------------------|
|-----------------------------------------------|
|-----------------------------------------------|
|------16-14----17-14----16-14------------------|
|-0-14-------15-------15-------15-14-0-14-15-14-|
|-----------------------------------------------|


              PM
  S  S  S  S  S  S  S  S  S  S  S  S  S  S  S  S
|------------------------------------------------||
|------------------------------------------------||
|------------------------------------------------||
|------------------------16----------------------||
|------16-14----17-14-------16-17-14-16-------14-||
|-0-14-------15-------15----------------14-12----||
|------------------------------------------------||


   Verse
    Q=192
    N.C.(E5)
    PM-------------------------------------
    E E E E E S S E E   E E E E E E E S S
||--------------------|-------------------|
||--------------------|-------------------|
||o-------------------|-------------------|
||--------------------|-------------------|
||o-------------------|-------------------|
||--3-0-0-0-0-6-6-0-0-|-0-0-3-0-0-0-0-8-7-|
||--------------------|-------------------|


                       6/4
 ---------------------------------------------------|
  E S S E E E E S S E   E E E S S E E E E S S E S S E
|---------------------|--------------------------------|
|---------------------|--------------------------------|
|---------------------|--------------------------------|
|---------------------|--------------------------------|
|---------------------|--------------------------------|
|-0-3-2-0-0-0-0-8-7-0-|-0-0-0-3-2-0-0-0-0-5-5-0-3-3-0--|
|---------------------|--------------------------------|


 4/4
  PM-------------------------------------
  E E E E E S S E E   E E S S E E E E E
|-------------------|-------------------|
|-------------------|-------------------|
|-------------------|-------------------|
|-------------------|-------------------|
|-------------------|-------------------|
|-3-0-0-0-0-6-6-0-0-|-0-0-3-3-0-0-0-0-0-|
|-------------------|-------------------|


                     6/4
 -------------------------------------------------|
  E S S E E E E E E   E E E S S E E E E S S E S S E
|-------------------|---------------------------------|
|-------------------|---------------------------------|
|-------------------|---------------------------------|
|-------------------|---------------------------------|
|-------------------|---------------------------------|
|-0-3-2-0-0-5-0-7-0-|-0-0-0-3-2-0-0-0-0-5-5-0-3-3-0---|
|-------------------|---------------------------------|


 4/4
  E E E E +E  E E E   +E  E E E E E E E
|-------------------|--------------------||
|-------------------|--------------------||
|-------------------|-------------------o||
|-------------------|--------------------||
|-4-2---5-(5)-2---4-|-(4)-2-------------o||
|-----3---------3---|-------3-2-0-2-3-2--||
|-------------------|--------------------||


  E E E E +E  E E E   +E  E E E E E E E
|-------------------|-------------------||
|-------------------|-------------------||
|-------------------|-------------------||
|-------------------|-------------------||
|-4-2---5-(5)-2---4-|-(4)-2-------------||
|-----3---------3---|-------3-2-0-2-3-2-||
|-------------------|-------------------||


   Chorus
    A5B5    A5B5  C5        F#G5  A5  C5
    E E E E E E E  E   E  E E E E E E  E
||-------------------|-------------------|
||-------------------|-------------------|
||o------------------|-------------------|
||-------------------|-------------------|
||o-7s9---9s7s9-9s10-|---10-4s5-5s7-7s10-|
||--5s7---7s5s7-7s=8-|----8-2s3-3s5-5s=8-|
||-------------------|-------------------|


  A5B5    A5B5  C5        F#G5  A5G5F#5
  E E E E E E E  E   E  E E E E E E E
|------------------|-------------------||
|------------------|-------------------||
|------------------|------------------o||
|------------------|-------------------||
|-7s9---9s7s9-9s10-|---10-4s5-5s7-5s4-o||
|-5s7---7s5s7-7s=8-|----8-2s3-3s5-3s2--||
|------------------|-------------------||


 Interlude
  Q=96
  N.C.
          PM                                PM
  S S S S S S S S S S S S S S S S   S S S S S S S S S S S S S S S S
|---------------------------------|---------------------------------|
|---------------------------------|---------------------------------|
|---------------------------------|---------------------------------|
|---------------------------------|---------------------------------|
|-----4-2---5-2---4-2-------------|-----4-2---5-2---4-2-------------|
|-0-2-----3-----3-----3-2-0-2-3-2-|-0-2-----3-----3-----3-2-0-2-3-2-|
|---------------------------------|---------------------------------|


              PM
  S  S  S  S  S  S  S  S  S  S  S  S S  S  S  S
|-----------------------------------------------|
|-----------------------------------------------|
|-----------------------------------------------|
|-----------------------------------------------|
|------16-14----17-14----16-14------------------|
|-0-14-------15-------15-------15-14-0-14-15-14-|
|-----------------------------------------------|


              PM
  S  S  S  S  S  S  S  S  S  S  S  S  S  S  S  S
|------------------------------------------------||
|------------------------------------------------||
|------------------------------------------------||
|------------------------16----------------------||
|------16-14----17-14-------16-17-14-16-------14-||
|-0-14-------15-------15----------------14-12----||
|------------------------------------------------||


   Verse
    Q=192
    N.C.(E5)
                         9/8
    PM-----------------------------------------
    S S E E E E S S E E   E E S S E E E E E E
||----------------------|---------------------|
||----------------------|---------------------|
||o---------------------|---------------------|
||----------------------|---------------------|
||o---------------------|---------------------|
||--3-2-0-7-0-0-8-7-0-0-|-0-0-3-2-0-0-0-0-8-0-|
||----------------------|---------------------|


 4/4                 11/8
 -----------------------------------------------|
  S S E E E E E E E   E E S S E E E E S S E S S E
|-------------------|-------------------------------|
|-------------------|-------------------------------|
|-------------------|-------------------------------|
|-------------------|-------------------------------|
|-------------------|-------------------------------|
|-3-2-0-0-5-0-8-0-0-|-0-0-3-2-0-0-0-0-8-7-0-3-2-0---|
|-------------------|-------------------------------|


 4/4                   9/8
  PM-----------------------------------------
  S S E E E E S S E E   E E S S E E E E E E
|---------------------|---------------------|
|---------------------|---------------------|
|---------------------|---------------------|
|---------------------|---------------------|
|---------------------|---------------------|
|-3-2-0-7-0-0-8-7-0-0-|-0-0-3-2-0-0-0-0-8-0-|
|---------------------|---------------------|


 4/4                 11/8
 -----------------------------------------------|
  S S E E E E E E E   E E S S E E E E S S E S S E
|-------------------|------------------------------|
|-------------------|------------------------------|
|-------------------|------------------------------|
|-------------------|------------------------------|
|-------------------|------------------------------|
|-3-2-0-0-5-0-8-0-0-|-0-0-3-2-0-0-0-0-8-7-0-3-2-0--|
|-------------------|------------------------------|


  N.C.
 4/4
  E E E E +E  E E E   +E  E E E E E E E
|-------------------|--------------------||
|-------------------|--------------------||
|-------------------|-------------------o||
|-------------------|--------------------||
|-4-2---5-(5)-2---4-|-(4)-2-------------o||
|-----3---------3---|-------3-2-0-2-3-2--||
|-------------------|--------------------||


  E E E E +E  E E E   +E  E E E E E E E
|-------------------|-------------------||
|-------------------|-------------------||
|-------------------|-------------------||
|-------------------|-------------------||
|-4-2---5-(5)-2---4-|-(4)-2-------------||
|-----3---------3---|-------3-2-0-2-3-2-||
|-------------------|-------------------||


   Chorus
    A5B5    A5B5  C5        F#G5  A5  C5
    E E E E E E E  E   E  E E E E E E  E
||-------------------|-------------------|
||-------------------|-------------------|
||o------------------|-------------------|
||-------------------|-------------------|
||o-7s9---9s7s9-9s10-|---10-4s5-5s7-7s10-|
||--5s7---7s5s7-7s=8-|----8-2s3-3s5-5s=8-|
||-------------------|-------------------|


  A5B5    A5B5  C5        F#G5  A5G5F#5
  E E E E E E E  E   E  E E E E E E E
|------------------|-------------------||
|------------------|-------------------||
|------------------|------------------o||
|------------------|-------------------||
|-7s9---9s7s9-9s10-|---10-4s5-5s7-5s4-o||
|-5s7---7s5s7-7s=8-|----8-2s3-3s5-3s2--||
|------------------|-------------------||


 Interlude
  Q=96
  N.C.
          PM                                PM              PM--------|
                                                            |-3-| |-3-|
  S S S S S S S S S S S S S S S S   S S S S S S S S S S S S S S S S S S
|---------------------------------|--------------------------------------|
|---------------------------------|--------------------------------------|
|---------------------------------|--------------------------------------|
|---------------------------------|--------------------------------------|
|---------------------------------|--------------------------------------|
|-----4-2---5-2---4-2-------------|-----4-2---5-2---4-2------------------|
|-0-2-----3-----3-----3-2-0-2-3-2-|-0-2-----3-----3-----3-2-0-0-2-3-2-0--|


          PM                                PM
  S S S S S S S S S S S S S S S S   S S S S S S S S S S S S S S S S
|---------------------------------|---------------------------------|
|---------------------------------|---------------------------------|
|---------------------------------|---------------------------------|
|---------------------------------|---------------------------------|
|---------------------------------|-----------------4---------------|
|-----4-2---5-2---4-2-------------|-----4-2---5-2-----4-5-2-4-------|
|-0-2-----3-----3-----3-2-0-2-3-2-|-0-2-----3-----2-----------2-0-3-|


    Q=132
    E5F#5       G5F#5       E5F#5       A#5
   11/8
    PM------------------------|   PM--------|
    S S S S S S S S S S S S S S S S S S S S S S
||----------------------------------------------|
||----------------------------------------------|
||o---------------------------------------------|
||----------------------------------------------|
||o-2-4---4---4-5-4---4---4-2-4---4---4-8---8---|
||--0-2---2---2-3-2---2---2-0-2---2---2-6---6---|
||----------------------------------------------|


  E5F#5       G5F#5       E5F#5       C5
  PM------------------------|   PM---------|
  S S S S S S S S S S S S S S S S S S  S S  S S
|-------------------------------------------------|
|-------------------------------------------------|
|-------------------------------------------------|
|-------------------------------------------------|
|-2-4---4---4-5-4---4---4-2-4---4---4-10---10-----|
|-0-2---2---2-3-2---2---2-0-2---2---2--8----8-----|
|-------------------------------------------------|


  Q=272
  N.C.
 4/4
  PM-----------------------------------------------------
  E E E E E E E E   E E E E E E E E   E E E E E E E E
|-----------------|-----------------|------------------||
|-----------------|-----------------|------------------||
|-----------------|-----------------|-----------------o||
|-----------------|-----------------|------------------||
|-----------------|-----------------|-----------------o||
|-5-4-2-5-4-2-5-4-|-2-5-4-2-5-4-2-5-|-4-2-5-4-2-5-4-2--||
|-----------------|-----------------|------------------||


 ---------------------------------------------------|
  E E E E E E E E   E E E E E E E E   E E E E E E E E
|-----------------|-----------------|--------------------|
|-----------------|-----------------|--------------------|
|-----------------|-----------------|--------------------|
|-----------------|-----------------|--------------------|
|-----------------|-----------------|--------------------|
|-5-4-2-5-4-2-5-4-|-2-5-4-2-5-4-2-5-|-4-2-5-4-2-5-4-2----|
|-----------------|-----------------|--------------------|


    Q=132
    E5F#5       G5F#5       E5F#5       A#5
   11/8
    PM------------------------|   PM--------|
    S S S S S S S S S S S S S S S S S S S S S S
||----------------------------------------------|
||----------------------------------------------|
||o---------------------------------------------|
||----------------------------------------------|
||o-2-4---4---4-5-4---4---4-2-4---4---4-8---8---|
||--0-2---2---2-3-2---2---2-0-2---2---2-6---6---|
||----------------------------------------------|


  E5F#5       G5F#5       E5F#5       C5
  PM------------------------|   PM---------|
  S S S S S S S S S S S S S S S S S S  S S  S S
|-------------------------------------------------|
|-------------------------------------------------|
|-------------------------------------------------|
|-------------------------------------------------|
|-2-4---4---4-5-4---4---4-2-4---4---4-10---10-----|
|-0-2---2---2-3-2---2---2-0-2---2---2--8----8-----|
|-------------------------------------------------|


  Q=272
  N.C.
 4/4
  PM-----------------------------------------------------
  E E E E E E E E   E E E E E E E E   E E E E E E E E
|-----------------|-----------------|------------------||
|-----------------|-----------------|------------------||
|-----------------|-----------------|-----------------o||
|-----------------|-----------------|------------------||
|-----------------|---------4-2-----|-4-2-----4-2-----o||
|-5-4-2-5-4-2-5-4-|-2-5-4-2-----3-2-|-----3-2-----3-2--||
|-----------------|-----------------|------------------||


 ---------------------------------------------------|
  E E E E E E E E   E E E E E E E E   E E E E E E E E
|-----------------|-----------------|--------------------|
|-----------------|-----------------|--------------------|
|-----------------|-----------------|--------------------|
|-----------------|-----------------|--------------------|
|-----------------|---------4-2-----|-4-2-----4-2--------|
|-5-4-2-5-4-2-5-4-|-2-5-4-2-----3-2-|-----3-2-----3-2----|
|-----------------|-----------------|--------------------|


  Q=132
  E5F#5       G5F#5       E5F#5       A#5
 11/8
  PM------------------------|   PM--------|
  S S S S S S S S S S S S S S S S S S S S S S
|---------------------------------------------|
|---------------------------------------------|
|---------------------------------------------|
|---------------------------------------------|
|-2-4---4---4-5-4---4---4-2-4---4---4-8---8---|
|-0-2---2---2-3-2---2---2-0-2---2---2-6---6---|
|---------------------------------------------|


  E5F#5       G5F#5       E5F#5       C5
  PM------------------------|   PM---------|
  S S S S S S S S S S S S S S S S S S  S S  S S
|-----------------------------------------------|
|-----------------------------------------------|
|-----------------------------------------------|
|-----------------------------------------------|
|-2-4---4---4-5-4---4---4-2-4---4---4-10---10---|
|-0-2---2---2-3-2---2---2-0-2---2---2--8----8---|
|-----------------------------------------------|


  E5F#5           G5F#5           E5F#5           A#5
  S S +S  S +S  S S S +S  S +S  S S S +S  S +S  S S +S  E
|---------------------------------------------------------|
|---------------------------------------------------------|
|---------------------------------------------------------|
|---------------------------------------------------------|
|-2-4-(4)-4-(4)-4-5-4-(4)-4-(4)-4-2-4-(4)-4-(4)-4-8-(8)-8-|
|-0-2-(2)-2-(2)-2-3-2-(2)-2-(2)-2-0-2-(2)-2-(2)-2-6-(6)-6-|
|---------------------------------------------------------|


  E5F#5           G5F#5           E5F#5           C5
  S S +S  S +S  S S S +S  S +S  S S S +S  S +S  S  S  +S   E
|------------------------------------------------------------||
|------------------------------------------------------------||
|------------------------------------------------------------||
|------------------------------------------------------------||
|-2-4-(4)-4-(4)-4-5-4-(4)-4-(4)-4-2-4-(4)-4-(4)-4-10-(10)-10-||
|-0-2-(2)-2-(2)-2-3-2-(2)-2-(2)-2-0-2-(2)-2-(2)-2--8--(8)--8-||
|------------------------------------------------------------||


   Keyboard solo
    Q=172
    N.C.
   4/4                                          5/4
                        |-3-|                          |-3-|
    Q  Q  Q  Q    Q  Q  E E E Q    Q  Q  Q  Q    Q  Q  E E E Q  Q    4x
||--------------|----------------|-------------|---------------------||
||--------------|----------------|-------------|---------------------||
||o-------------|----------------|-------------|--------------------o||
||--------------|----------------|-------------|---------------------||
||o----4--5-----|----------------|----4--5-----|----4---------------o||
||--------------|----5--4-2------|-------------|-------4-2------5----||
||--2--------3--|-2---------0-2--|-2--------3--|-2---------0-2--3----||


  Q=148
 7/16
          PM--|           PM--|           PM--|           PM--|
  S S S S S S S   S S S S S S S   S S S S S S S   S S S S S S S
|---------------|---------------|---------------|----------------||
|---------------|---------------|---------------|----------------||
|-6-4-----------|-6-4-----------|-6-4-----------|-6-4------------||
|-----6-4-------|-----6-4-------|-----6-4-------|-----6-4--------||
|---------7-5-4-|---------7-5-4-|---------7-5-4-|---------7-5-4--||
|---------------|---------------|---------------|----------------||
|---------------|---------------|---------------|----------------||


 Guitar Solo
  Q=134
  N.C.(Eb5)
 6/4
  Gtr III
  |------6------|  |-------6--------| |------6-------| |------6------|  |-----6------|  |-----6------|
  S S  S S S    S  S  S  S S S      S S S     S S S  S S S  S S S    S  S  S  S S S  S  S  S  S S S  S
|------------------------------------------------------------------------------------------------------|
|-8h9h11p8h9h==11p=8h=9h11p8h9h====11p8h9h===11p8h9h11p8h9h11p8h9h==11p=8h=9h11p8h9h11p=8h=9h11p8h9h11-|
|------------------------------------------------------------------------------------------------------|
|------------------------------------------------------------------------------------------------------|
|------------------------------------------------------------------------------------------------------|
|------------------------------------------------------------------------------------------------------|
|------------------------------------------------------------------------------------------------------|
|
| Gtrs I, II
| E.         S    +E       S   +E          S    E      E.         S    +E       E      +E       E
|------------------------------------------------------------------------------------------------------|
|------------------------------------------------------------------------------------------------------|
|------------------------------------------------------------------------------------------------------|
|------------------------------------------------------------------------------------------------------|
|------------------------------------------------------------------------------------------------------|
|-----------------------------------------/4-----------3-----------------------------------------------|
|-4----------5----(5)------4---(4)--------------------------------4----(4)------2------(2)------5------|


 7/4
              T                             T                          T                 
        T                       T                        T
  |------------------6-------------------|  |------------------6------------------|  
 |-----------9------------|
  S  S  S  S  S    S  S   S S  S  S      S  S  S      S  S S  S  S  S  S  S  S    S  S   S S  S  S  S  S   S S  S  S  S  S  S  S  S S    S  S  S  S
|----------------------------------------------------------------------------------------------------------------------------------------------------|
|-9h11h12h14h16p==14p12p=11p9h11h12h====14h16p14p====12p11p9h11h12h14h16p14p12p==11p=9h=11h12h14h16p14p12p=11p9h11h12h14h16p14p12p11p9h==11h12h14h16-|
|----------------------------------------------------------------------------------------------------------------------------------------------------|
|----------------------------------------------------------------------------------------------------------------------------------------------------|
|----------------------------------------------------------------------------------------------------------------------------------------------------|
|----------------------------------------------------------------------------------------------------------------------------------------------------|
|----------------------------------------------------------------------------------------------------------------------------------------------------|
|
| E.            S    +E        S    +E            E.             E.            S    +E         E       +E        E        E            E
|----------------------------------------------------------------------------------------------------------------------------------------------------|
|----------------------------------------------------------------------------------------------------------------------------------------------------|
|----------------------------------------------------------------------------------------------------------------------------------------------------|
|----------------------------------------------------------------------------------------------------------------------------------------------------|
|------------------------------------------------------------------------------------------------------------------------/7------------6-------------|
|------------------------------------------------/7--------------6-----------------------------------------------------------------------------------|
|-4-------------5----(5)-------4----(4)----------------------------------------4----(4)--------2-------(2)-------4-----------------------------------|


 6/4
   T     T        T
   |------------7------------|  |---------7----------| |--------7---------| |------7-------|  |------7-------|  |----6-----|
   S  S  S  T  T  T  T  S    S  S  S S  S   S S      S S S    S  S   S S  S S S S  S S S   S  S  S S S   S S S  S  S S S S S
|----------------------------------------------------------------------------------------------------------------------------|
|-16p14p12h16p14h16p14p12p==11p=9s=8h9h11p==9p8------------------------------------------------------------------------------|
|---------------------------------------------------11p9p8h===9h11p==9p8-----------------------------------------------------|
|------------------------------------------------------------------------11p9p8h9h11p9p8h==9p=8s=6h8h9p==8p6h8p=6p=5h6h8p6p5-|
|----------------------------------------------------------------------------------------------------------------------------|
|----------------------------------------------------------------------------------------------------------------------------|
|----------------------------------------------------------------------------------------------------------------------------|
|
|  E.                     S    +E         S     +E          S      E        E.           S   +E        E       +E      E
|--------------------------------------------------------------------------|
|--------------------------------------------------------------------------|
|--------------------------------------------------------------------------|
|--------------------------------------------------------------------------|
|--------------------------------------------------------------------------|
|---------------------------/4---------------3-----------------------------|
|--4------5----(5)------4-----(4)------4---(4)-------2-------(2)-----5-----|


 7/4
  |-----6-----|  |------6-------| |------6------| |-----6-----|  |----6-----|  |----6-----|  |----6----|
  S S S S S   S  S  S S S S     S S S     S S S S S S S S S   S  S  S S S S S  S  S S S S S  S S S S S S
|--------------------------------------------------------------------------|
|--------------------------------------------------------------------------|
|--------------------------------------------------------------------------|
|--------------------------------------------------------------------------|
|-6p4p2h4h6p==4h=6p=4p---------------------------6--6-6-6-6-6--6-6-6-6-6-6-|
|----------------------6p4p====3h4h6p====4h6p4p3---------------------------|
|----------------------------------------------5p4p2h4h5p==4h=5p=4p2h4-4-4-|
|
| E.        S   +E      S   +E         E.         E.        S   +E      E     +E      E      E     E
|--------------------------------------------------------------------------|
|--------------------------------------------------------------------------|
|--------------------------------------------------------------------------|
|--------------------------------------------------------------------------|
|-------------------------------------------------------------/7-----6-----|
|-------------------------------/7----------6------------------------------|
|-4---------5---(5)-----4---(4)-------4---(4)-----2-----(2)-----4----------|


 6/4
   ~~~                                    ~~~~
   H.                  T  T T T  E       +Q.        E
|--------------------------------------------------11-|
|-------------------------------14b16---(14)----------|
|-----------------------------x-----------------------|
|---------------------------x-------------------------|
|-[6]---------------------x---------------------------|
|----------------------x------------------------------|
|-----------------------------------------------------|
|
|  E. S +E  S +E   S E E.             S  +E  E +E   E
|-----------------------------------------------------|
|-----------------------------------------------------|
|-----------------------------------------------------|
|-----------------------------------------------------|
|-----------------------------------------------------|
|-----------------/4---3------------------------------|
|--4--5-(5)-4-(4)---------------------4--(4)-2-(2)--5-|


 7/4
                                                                                       ~~
   E     S  E         S  S  T   T  S  S   S  S  S   S  S  S  S   S  S  S  S   S  S  S  Q
--11-11-12-11h=12p11-----11-12-15--11-12----11-----------------------------|
|-14b16----14b16-----14------------------14-----12-14-11-12-----11---------|
|------------------------------------------------------------13----13-12---|
|--------------------------------------------------------------------------|
|--------------------------------------------------------------------------|
|--------------------------------------------------------------------------|
|--------------------------------------------------------------------------|
|
|  E.       S    +E      S +E         E.        E.        S +E      E    +E      E     E E
|--------------------------------------------------------------------------|
|--------------------------------------------------------------------------|
|--------------------------------------------------------------------------|
|--------------------------------------------------------------------------|
|---------------------------------------------------------------------/7-6-|
|------------------------------------/7---------6--------------------------|
|--4--------5----(5)-----4-(4)------------4-(4)-----2----(2)-----4---------|


 6/4
   |--------6--------|  |---------6---------|  |--------6--------|  |--------6--------|  |--------6---------|  |-------6-------|
   S   S  S  S  S    S  S   S  S  S  S      S  S  S     S  S  S  S  S   S  S  S  S    S  S   S  S  S  S  T  T  S   S  S  S  S  S
|------------------------------------------------------------------11--12-11----11---12-11---------------------------------11-12--|
|-16--14-12-14-16---14-12---------------------------------11-12-14-----------14-------------14-12-11----11-12-----11-12-14--------|
|--------------------------15-13-12-13-----15-13-12----13--------------------------------------------13-------13------------------|
|---------------------------------------------------------------------------------------------------------------------------------|
|---------------------------------------------------------------------------------------------------------------------------------|
|---------------------------------------------------------------------------------------------------------------------------------|
|---------------------------------------------------------------------------------------------------------------------------------|
|
|  E.             S    +E         S    +E            S     E        E.             S    +E         E          +E         E
|--------------------------------------------------------------------------|
|--------------------------------------------------------------------------|
|--------------------------------------------------------------------------|
|--------------------------------------------------------------------------|
|--------------------------------------------------------------------------|
|------------------------------------------/4--------------3---------------|
|--4------5----(5)--------4----(4)--------4----(4)-----2-------(2)----5----|


 7/4
                                                                                                                                     ~~~~~
   |--------6--------|  |---------6---------|  |--------6---------|  |--------6--------|  |-------6-------|  |-------6-------|
   S   S  S  S  S    S  S   S  S  S  S      S  S  S      S  S  S  S  S   S  S  S  S    S  S   S  S  S  S  S  S   S  S  S  S  S      +Q
|-15--16-15-12-15---16-15--12---------------------------------12-15-18--16-15-16-18---16-15-----15-16-18-16-15--15-15-18-19-21b23==(21)r--|
|-----------------------------16-14-12-----14-16-14-----12-16--------------------------------17-------------------------------------------|
|-----------------------------------------------------------------------------------------------------------------------------------------|
|-----------------------------------------------------------------------------------------------------------------------------------------|
|-----------------------------------------------------------------------------------------------------------------------------------------|
|-----------------------------------------------------------------------------------------------------------------------------------------|
|-----------------------------------------------------------------------------------------------------------------------------------------|
|
|  E.             S    +E         S    +E            E.              E.             S    +E         E       +E         E             E   E
|-------------------------------------------------------------------------||
|-------------------------------------------------------------------------||
|-------------------------------------------------------------------------||
|-------------------------------------------------------------------------||
|-----------------------------------------------------------------/7---6--||
|---------/7---------------6----------------------------------------------||
|--4------------5----(5)--------4----(4)------4----(4)------2----(2)--4---||


  N.C.
 7/16
  Gtrs I, II
          PM--|           PM--|           PM--|
  S S S S S S S   S S S S S S S   S S S S S S S
|---------------|---------------|---------------|
|---------------|---------------|---------------|
|-8-6-----------|-8-6-----------|-8-6-----------|
|-----8-6-------|-----8-6-------|-----8-6-------|
|---------9-7-6-|---------9-7-6-|---------9-7-6-|
|---------------|---------------|---------------|
|---------------|---------------|---------------|


                 3/4
          PM--|
  S S S S S S S   S S S S S E. Q
|---------------|-------------------||
|---------------|-------------------||
|-8-6-----------|-------------------||
|-----8-6-------|-----6-8-----------||
|---------9-7-6-|-7-9-----6---------||
|---------------|-------------------||
|---------------|-------------------||


 Keyboard/Guitar unison
  Q=192
  N.C.
 4/4
  Gtr III
  S S S S S S S S S S S S S S S S   S S S S S S S S S S S S S S S S
|---------------------------------|----------------------------------|
|---------------------------------|----------------------------------|
|---------------------------------|-------5-7-9-7-5------------------|
|-----------------------4-5-7-5-4-|-5-7-9-----------9-7-5-9-7-5---5--|
|-------2-3-5-3-2-3-5-7-----------|-----------------------------9----|
|-2-3-5---------------------------|----------------------------------|
|---------------------------------|----------------------------------|


  S S S S S S S S S S S S S S S S   S S S S S S S S S S S S S S S S
|---------------------------------|---------------------------------|
|---------------------------------|---------------------------------|
|---------------------------------|---------------------------------|
|-------4-5-7-5-4-----------------|---------------------------------|
|-3-5-7-----------7-5-3-7-5-3---3-|-------2-3-5-3-2-----------------|
|-----------------------------7---|-2-3-5-----------5-3-2-5-3-2---2-|
|---------------------------------|-----------------------------5---|


  S S S S S S S S S S S S S S S S   S S S S S S S S  S  S  S  S  S  S  S  S
|---------------------------------|-------------------------------------------|
|---------------------------------|-------------------------10-12-13-12-10----|
|---------------------------------|-------5-7-9-7-5-/9-11-12------------------|
|-----------------------4-5-7-5-4-|-5-7-9-------------------------------------|
|-------2-3-5-3-2-3-5-7-----------|-------------------------------------------|
|-2-3-5---------------------------|-------------------------------------------|
|---------------------------------|-------------------------------------------|


   S S S  S S S  S S  S S S S S S S S   S S S S S S S S S S S S S S S S
|-------------------------------------|---------------------------------|
|-------------------------------------|---------------------------------|
|-11-9-7-11-9-7----7------------------|---------------------------------|
|---------------10---10-9-7-5-7-9-7-5-|-4-7-5-4-------------------------|
|-------------------------------------|---------7-5-3-7-5-3---5-3-------|
|-------------------------------------|---------------------7-----7-5-3-|
|-------------------------------------|---------------------------------|


 7/8
  S S S S S S S S S S S S S S   S S S S S S S S S S S S S S
|-----------------------------|-----------------------------|
|-----------------------------|-----------------------------|
|-----------------------------|-----------------------------|
|-----------------------------|-----------------------------|
|-------2-3-5-3-2-------------|-----------------------------|
|-2-3-5-----------5-3-2-5-3-2-|-------5-7-8-7-5-------------|
|-----------------------------|-5-7-8-----------8-7-5-8-7-5-|


  S S S S S S S S S S S S S S
|------------------------------|
|------------------------------|
|------------------------------|
|------------------------------|
|------------------------------|
|-------3-5-7-5-3--------------|
|-3-5-7-----------7-5-3-7-5-3--|


 6/4
  S S S S S S S S S S S S S S S S S S S S S S S S
|-------------------------------------------------|
|-------------------------------------------------|
|-------------------------------------------------|
|---------------------------------------5-7-9-7-5-|
|-----------------------3-5-7-5-3-5-7-9-----------|
|-------2-3-5-3-2-3-5-7---------------------------|
|-1-3-5-------------------------------------------|


 7/8
  S  S S S  S S S S  S S S  S S S
|-----------------------------------|
|-----------------------------------|
|-----------------------------------|
|-9-10-9-7--------------------7-9---|
|----------10-9-7-9-10-7-9-10-------|
|-----------------------------------|
|-----------------------------------|


   S  S  S S  S  S S  S  S S  S  S S  S    S  S  S  S  S  S  S  S  S  S  S  S  S  S
|---------------------------------------|----------------------------------|
|---------------------------------------|----------------------------------|
|---------------------------------------|----------------------------------|
|-10-12-10-9-------------9-10---12-14-12|-10-------------------------10-12-|
|------------12-10-9-12-10-9-10-12------|----14-12-10-14-12-10-12-14-------|
|---------------------------------------|----------------------------------|
|---------------------------------------|----------------------------------|


 4/4
                                       ~~
   S  S  S  S  S  S  S  S  S  S  S  S  Q
|------------------------------------------|
|------------------------------------------|
|------------------------------------------|
|-16-17-16-14------------------------------|
|-------------17-15-14-17-15-14------------|
|-------------------------------17-15-14---|
|------------------------------------------|


   S  S S  S  S S  S  S  S  S S  S  S S  S  S
|---------------------------------------------|
|---------------------------------------------|
|---------------------------------------------|
|---------------9-10-12-12-10-9---------------|
|-12-10-9-10-12-----------------12-10-9-10-12-|
|---------------------------------------------|
|---------------------------------------------|


   S  S  S  S  S  S  S  S  S  S  S  S  S  S  S  S
|-------------------------------------------------|
|-------------------------------------------------|
|-------------------------------------------------|
|----------------------10-12-10-------------------|
|-14-12-10----10-12-14----------14-12-10----10-12-|
|----------14----------------------------14-------|
|-------------------------------------------------|


   S  S  S  S  S  S  S  S  S  S  S  S  S  S  S  S
|-------------------------------------------------|
|-------------------------------------------------|
|-------------------------------------------------|
|-------------------------------------------------|
|-14-12-10----10-12-14-12-10----10-12-14-12-10----|
|----------14----------------14----------------14-|
|-------------------------------------------------|


                                       ~~
   S  S  S  S  S  S  S  S  S  S  S  S  Q
|-----------------------------------------|
|-----------------------------------------|
|-----------------------------------------|
|----------10-12-10-----------------------|
|-10-12-14----------14-12-10----10-12-14--|
|----------------------------14-----------|
|-----------------------------------------|


   S  S  S  S  S  S  S  S  S  S  S  S  E  S  S
|----------------------------------------------|
|-------------------12-13-15-13-12-------------|
|-16-14-12----12-14----------------14-12-12-14-|
|----------16----------------------------------|
|----------------------------------------------|
|----------------------------------------------|
|----------------------------------------------|


   S  S  S  S  S  S  S  S  S  S  S  S  S  S  S  S
|--------------------------------------------------|
|-------------------12-13-15-13-12-----------------|
|-16-14-12----12-14----------------14-12-11-12-14--|
|----------16--------------------------------------|
|--------------------------------------------------|
|--------------------------------------------------|
|--------------------------------------------------|


   S  S  S  S  S  S  S  S  S  S  S  S  S  S  S  S
|-------------------------------------------------|
|-------------------------------------------------|
|-16-14-12----12-14-16-14-12----12-14-16-14-12----|
|----------16----------------16----------------16-|
|-------------------------------------------------|
|-------------------------------------------------|
|-------------------------------------------------|


                                       ~~
   S  S  S  S  S  S  S  S  S  S  S  S  Q
|-----------------------------------------|
|-------12-13-15-13-12--------------------|
|-12-14----------------14-12----12-14-16--|
|----------------------------16-----------|
|-----------------------------------------|
|-----------------------------------------|
|-----------------------------------------|


  S S  S S S  S S S S  S  S S  S  S  S S
|----------------------------------------|
|----------------------------------------|
|---------------------------9-11-12-11-9-|
|--------7-9-10-9-7-9-10-12--------------|
|-7-9-10---------------------------------|
|----------------------------------------|
|----------------------------------------|


 5/4
   S  S  S  S  S  S  S  S  S  S  S  S  S  S  S  S  S  S  S  S
|----------------------------------14-15-17-15-14----------20-|
|----------12-13-15-13-12-13-15-17----------------20-22-24----|
|-11-12-14----------------------------------------------------|
|-------------------------------------------------------------|
|-------------------------------------------------------------|
|-------------------------------------------------------------|
|-------------------------------------------------------------|


 4/4
   S  S  S  S  S  S  S  S  S  S  S  S  S  S  S  S
|-22-24-22-20-------------------------------------|
|-------------24-22-20-24-22-20-19-22-20-19----19-|
|-------------------------------------------21----|
|-------------------------------------------------|
|-------------------------------------------------|
|-------------------------------------------------|
|-------------------------------------------------|


   S  S  S  S  S  S  S  S  S  S  S  S  S  S  S  S
|-15-17-15-14--------------------------------------|
|-------------17-15-13-17-15-13-12-15-13-12----12--|
|-------------------------------------------14-----|
|--------------------------------------------------|
|--------------------------------------------------|
|--------------------------------------------------|
|--------------------------------------------------|


   S  S  S  S  S  S  S  S  S  S  S  S  S  S  S  S
|-------------------------------------------------|
|-13-15-13-12-------------------------------------|
|-------------14-12-11-14-12-11----12-11----------|
|-------------------------------14-------14-12-14-|
|-------------------------------------------------|
|-------------------------------------------------|
|-------------------------------------------------|


   S  S  S S  S  S S  S  S S  S  S S  S  S S
|--------------------------------------------|
|--------------------------------------------|
|-11-12-11-9---------------------------------|
|------------12-10-9-12-10-9----10-9---------|
|----------------------------12------12-10-9-|
|--------------------------------------------|
|--------------------------------------------|


  S S  S S S  S S S S  S  S S  S  S  S S
|----------------------------------------|
|----------------------------------------|
|---------------------------9-11-12-11-9-|
|--------7-9-10-9-7-9-10-12--------------|
|-7-9-10---------------------------------|
|----------------------------------------|
|----------------------------------------|


 5/4
   S  S  S  S  S  S  S  S  S  S  S  S  S  S  S  S  S  S  S  S
|----------------------------------14-15-17-15-14----------20-|
|----------12-13-15-13-12-13-15-17----------------20-22-24----|
|-11-12-14----------------------------------------------------|
|-------------------------------------------------------------|
|-------------------------------------------------------------|
|-------------------------------------------------------------|
|-------------------------------------------------------------|


 7/8
   S  S  S  S  S  S  S  S  S  S  S  S  S  S    S  S  S  S  S  S  S  S  S  S  S  S  S  S
|-22-24-22-20----------------------------19-|-20-22-20-19------------------|
|-------------24-22-20-24-22-20-19-20-22----|-------------22-20-19-22-20-19|
|------------------------------|-------------------------------21----------|
|------------------------------|-------------------------------------------|
|------------------------------|-------------------------------------------|
|------------------------------|-------------------------------------------|
|------------------------------|-------------------------------------------|


   S  S  S  S  S  S  S  S  S  S  S  S  S  S
|-19-20-19-17--------------------------------|
|-------------20-19-17-20-19-17----17-19-20--|
|-------------------------------19-----------|
|--------------------------------------------|
|--------------------------------------------|
|--------------------------------------------|
|--------------------------------------------|


   S  S  S  S  S  S  S  S  S  S  S  S  S  S    S  S  S  S  S  S  S  S  S  S  S  S  S  S
|-17-19-17-15------------------|-15-17-15-14-------------------------------|
|-------------19-17-15-19-17-15----15-17-19-|17-15-13-17-15-13----13-15-17-|
|-------------------------------17----------|------------------16----------|
|-------------------------------------------|------------------------------|
|-------------------------------------------|------------------------------|
|-------------------------------------------|------------------------------|
|-------------------------------------------|------------------------------|


 4/4
   S  S  S  S  S  S  S  S  S  S  S  S  E  S  S
|-14-15-14-12----------------------------------|
|-------------15-13-12-15-13-12----12----------|
|-------------------------------14----14-14-14-|
|----------------------------------------------|
|----------------------------------------------|
|----------------------------------------------|
|----------------------------------------------|


   S  S  S  S  S  S S  S  S S  S  S S  S  S  S
|----------------------------------------------|
|-12-13-12-10----------------------------------|
|-------------12-11-9-12-11-9----11-9----------|
|-----------------------------12------12-10-12-|
|----------------------------------------------|
|----------------------------------------------|
|----------------------------------------------|


  S  S S S  S S S  S S S  S S S  S S  S
|---------------------------------------|
|---------------------------------------|
|-9-11-9-7------------------------------|
|----------10-9-7-10-9-7----9-7---------|
|------------------------10-----10-9-10-|
|---------------------------------------|
|---------------------------------------|


  S S S S S S S S S S S S S S S S   S S S S S S S S S S S S S S S S
|---------------------------------|---------------------------------|
|---------------------------------|---------------------------------|
|---------------------------------|---------------------------------|
|-7-9-7-5-------------------------|---------------------------------|
|---------9-7-5-9-7-5---7-5-------|---------------------------------|
|---------------------8-----8-5-7-|-7-8-7-5---------------2---------|
|---------------------------------|---------8-7-5-8-7-5-3---5-3-1-3-|


                                  G
  S S S S S S S S S S S S S S S S
|---------------------------------|
|---------------------------------|
|---------------------------------|
|---------------------------------|
|---------------------------------|
|-2-3-2-----------2-3-2-----------|
|-------5-3-1-3-5-------5-3-1-0-1-|


  Q=172
  N.C.(B5)
 trs I, II                                         Gtr I
  PM------------------|      PM------------------|
  S S S S E S S +S  S E Q    S S S S E S S +S  S E Q
|--------------------------|----------------------------*|
|--------------------------|----------------------------*|
|--------------------------|----------------------------*|
|--------------------------|-----------------------5----*|
|--------------------------|-----------------------4----*|
|--------------------------|----------------------------*|
|-0-0-0-0-0-0-0-(0)-0-0----|-0-0-0-0-0-0-0-(0)-0-0------*|

-----------------------------------------------------------------------

3. ENDLESS SACRIFICE
Tuning - D,G,C,F,A,D

D ---------------------------------------------------------------------------|
A ---------------------------------------------------------------------------|
F -------------0-----------------0-----------------------------0-------------|
C -------2--4-----4--2--------2-----2-----2-----4--------2--4-----4--2-------|
G ----2-----------------2--3-----------4-----2--------2-----------------2--3-|
D -0-----------------------------------------------0-------------------------|

D --------------------------------------------------------------------------|
A --------------------------------------------------------------------------|
F ----0-----------------------------------------0-----------------0---------|
C -2-----2--------0--------0--------------2--4-----4--2--------2-----2------|
G -------------2-----2--------3--2-----2-----------------2--3-----------3/5-|
D ----------3-----------2-----------0---------------------------------------|

D ---------------------------------------------------------------------------|
A ---------------------------------------------------------------------------|
F ----0-----------------0-----------------0-----------------------2----------|
C -4-----4--------2--4-----4--2--------2-----2--------0--------1-----1-------|
G -------------2-----------------2--3--------------2-----2--2-----------3--2-|
D ----------0-----------------------------------3----------------------------|
                                      keep playing this until chorus

D ---------------------------------------------------------------------------|
A ----------0--1--0--------------0-----------0--------------0--1--0----------|
F -------2-----------2--------5-----5-----5-----5--------2-----------2-------|
C ----2-----------------2--4-----------3--------------2-----------------2--0-|
G -0-----------------------------------------------0-------------------------|
D ---------------------------------------------------------------------------|

D ----1p0-----------------0-------------------------------------------------|
A ---------3--------0--------0-----------0--1--0--------------0-------------|
F -2----------------------------------2-----------2--------5-----5--------0-|
C ---------------2-----2-----------2-----------------2--4-------------------|
G ------------------------------0--------------------------------------5----|
D ------------4-----------------------------------------------------3-------|

D --------------------------------------------------------------------------|
A -------------0--1--0------------------------------------------------------|
F ----------2-----------2--------------------------------0--------2--0--2---|
C -------2-----------------------0-----------0--------2-----2--0------------|
G -5--0-----------------------0-----0-----3-----3--3------------------------|
D -------------------------2-----------1------------------------------------|
      .        .     .        .        .              .        .     .
D --------------------------------------------------------------------------|
A ---------------------<5>---------------------------------------------<5>--|
D --------------------------------------------------------------------------|
C -2----5/7-2----5/7-------2----5/7-2----4/5\4--4--2----5/7-2----5/7--------|
G -2----5/7-2----5/7-------2----5/7-2----2/3\2--4--2----5/7-2----5/7--------|
D -0--0-3/5-0--0-3/5-0-----0--0-3/5-0--0--------2--0--0-3/5-0--0-3/5-0------|
      .        . . . . . . . .     .        .     .        .        .
D --------------------------------------------------------------------------|
A --------------------------------------------------<5>---------------------|
F --------------------------------------------------------------------------|
C -2----5/7-2--5-5-5-5-7-7-7-7--2----5/7-2----5/7-------2----5/7-2----4/5\4-|
G -2----5/7-2--3-3-3-3-5-5-5-5--2----5/7-2----5/7-------2----5/7-2----2/3\2-|
D -0--0-3/5-0-------------------0--0-3/5-0--0-3/5-0-----0--0-3/5-0--0-------|
         .        .     .        .       . . . . . . . .
D --------------------------------------------------------------------------|
A ------------------------<5>-----------------------------------------------|
F --------------------------------------------------------------------------|
C -4--2----5/7-2----5/7------------5/7-2-5-5-5-5-7-7-7-7--2-----------2-----|
G -4--2----5/7-2----5/7-------2----5/7-2-3-3-3-3-5-5-5-5--2-----------0-----|
D -2--0--0-3/5-0--0-3/5-0-----0--0-3/5-0------------------0-----2-----------|

D --------------------------------------------------------------------------|
A --------------------------------------------------------------------------|
F --------------------------------------------------------------------------|
C -----5----------------------2---------5-----------------------------------|
G -0-2-3----6-----2-----------0-----0-2-3-----6-----------------------------|
D ----------------0-----2---------------------------------------------------|
        Then just keep playing the verse and the chorus one more time
        The verse gets heavier but they are the same notes simply with
        distortion.
   . . . . .   . . .  . . . . .  . . .    . . . . .   . . .  . . . . .  . .
D --------------------------------------------------------------------------|
A --------------------------------------------------------------------------|
F -----------5--------------------------------------5-----------------------|
C -----------4-------------------------1------------4-----------------------|
G -------------------------------------1------------------------------------|
D -3-2-0-0-0---3-2-0--3-2-0-0-0--3-2-0----3-2-0-0-0---3-2-0--3-2-0-0-0--3-2-|
   .   . . . . .   . . .  . . . . .  . . .   . . . . .   . . .  . . . . .
D --------------------------------------------------------------------------|
A --------------------------------------------------------------------------|
F ---------------5-------------------------------------5--------------------|
C ---1-----------4-------------------------1-----------4--------------------|
G ---1-------------------------------------1--------------------------------|
D -0---3-2-0-0-0---3-2-0--3-2-0-0-0--3-2-0---3-2-0-0-0---3-2-0--3-2-0-0-0---|
   . . .
D --------------------------------------------------------------------------|
A --------------------------------------------------------------------------|
F --------------------------------------------------------------------------|
C -------1------------------------------------------------------------------|
G -------1------------------------------------------------------------------|
D -3-2-0--------------------------------------------------------------------|
           Keep playing this until you hear a change

D --------------------------------------------------------------------------|
A --------------------------------------------------------------------------|
F --------------------------------------------------------------------------|
C ----------------5-----------5-----3----------------5-------------5-4-3----|
G ----------------3-----------3-----1----------------3-------------3-2-1----|
D -2-2-3-2-2--2-2---2-2-3-2-2---2-2---2-2-3-2-2--2-2---2-2-3-2-2-2----------|
           Now the first fun part
   . . . . . . . . . . . . . . .  . . . . . . . . . . . .
D --------------------------------------------------------------------------|
A --------------------------------------------------4---5-------------------|
F ----------------------------------9-------7-----4---4---------------------|
C --------------------------------7---7-5-4---------------------------------|
G ---7-------5-----3---5-6-7---3--------------5-6-------------2----7--------|
D -5---5-3-2---2-1---1-------3----------------------------0-1----5---5-3-2--|

                                                         . . . . . . . . .
D --------------------------------------------------------------------------|
A ------------------------------------------4---5---------------------------|
F --------------------------9-------7-----4---4-----------------------------|
C ------------------------7---7-5-4--------------------------5-4-----7------|
G -5-----3---5-6-7---3----------------5-6-------------2--0-2-----0-3---0-5--|
D ---2-1---1-------3------------------------------0-1-----------------------|
   . . . . .     . . . . . . . . . .  . . . .
D --------------------------------------------------------------------------|
A --------------------------------------------------------------------------|
F -----------11\-----7-5-----9-----11-9--------12\--------------------------|
C -9-7-------------4-------5-----7--------9-10---------5-4-----7-----9-7----|
G -----0-7-9-----0-------0-----0--------0----------0-2-----0-3---0-5-----0--|
D --------------------------------------------------------------------------|

D ---------------------------------------------------------------------------|
A ---------------------------------------------------------------------------|
F -----11\-----7-5-----9-----11-9--------12\-----5-6-------8-----9--------11-|
C -----------4-------5-----7--------9-10-------4---------7-----8-------10----|
G -7-9-----0-------0-----0--------0----------3---------6-----7-------9-------|
D ---------------------------------------------------5-------------8---------|

D --------------------------------------------------------------------------|
A ----------13----9-----11----13-------15-----------------------------------|
F -------12---------7------11----11-------15-17----------------14-----------|
C ----11--------------6-------------10----------14-15-16-12-------12-13-14--|
G -10-------------------------------------------------------13--------------|
D --------------------------------------------------------------------------|

D --------------------------------------------------------------------------|
A --------------------------------------------------------------------------|
F -------10-------------9-8-------------------------------------------------|
C -10-------11-------10-----9----------------------10-------------10------8-|
G ----11-------12-10----------10---9-9-10-9-9--9-9-----9-9-10-9-9----9-9----|
D --------------------------------------------------------------------------|

D --------------------------------------------------------------------------|
A --------------------------------------------------------------------------|
F --------------------------------------------------------------------------|
C -----------------10------------10-9-8------------------------5------------|
G -9-9-10-9-9--9-9----9-9-10-9-9--------4--4---5--4--4---4--4--3--4--4--5---|
D --------------------------------------2--2---3--2--2---2--2-----2--2--3---|

D --------------------------------------------------------------------------|
A --------------------------------------------------------------------------|
F --------------------------------------------------------------------------|
C ---------5------3-------------------------5-----------------5--4--3-------|
G -4-4-4---3------1--4--4---5--4--4---4--4--3--4--4--5--4--4--3--2--1-------|
D -2-2-2------2-2----2--2---3--2--2---2--2-----2--2--3--2--2----------------|
                  .....ok now here's the guitar solo

D --------------------------------------------------------------------------|
A -----11-12-15-11-12-----11-12-15-11-12-----11-12-15-11-12-----11-12-15-11-|
F --------------------------------------------------------------------------|
C --14-----------------14-----------------14-----------------14-------------|
G --------------------------------------------------------------------------|
D --------------------------------------------------------------------------|

D -------------------12----12-12-15----12-----------------------------------|
A -12----11-12-15-15----15----------15----15-15-12-13----12-----------------|
F ----------------------------------------------------14----12-14-11-12-----|
C ----14----------------------------------------------------------------14--|
G --------------------------------------------------------------------------|
D --------------------------------------------------------------------------|

D --------------------------------------------------------------------------|
A --------------------------------------------------------------------------|
F -12-----------------------------------------------------------------------|
C ----12-14-10-12----10----------------------------------------12-14-16-17--|
G ----------------14----12-14-10-12-10-9-9------------12-14-15--------------|
D -------------------------------------------12-14-15-----------------------|

D ----------------------17-19-20-22-24----24-22-19-18-22-19-18-19-18-17-16--|
A ----------15-17-19-20-----------------------------------------------------|
F -14-16-17-----------------------------------------------------------------|
C --------------------------------------------------------------------------|
G---------------------------------------------------------------------------|
D --------------------------------------------------------------------------|

D -15-16-17-18-19-18-17-16-15-16-17-18-19-18-17-16-15-----------------------|
A ----------------------------------------------------17-16-15--------------|
F -------------------------------------------------------------17-16-15-----|
C  -------------------------------------------------------------------------|
G --------------------------------------------------------------------------|
D --------------------------------------------------------------------------|
                I'm not too sure about this next crazy fast bit....
                Afterwards it goes like this.
D -----------14----------------------16/18--18-16-15-------15-16--18/20-----|
A -15/17--------17-14----14--------------------------19-17------------------|
F --------------------17----17-15-14----------------------------------------|
C --------------------------------------------------------------------------|
G --------------------------------------------------------------------------|
D --------------------------------------------------------------------------|

D -22-20-18-0-22-20-18-0-22-20-18-0-22-20-18-0--24---24/26\24---------------|
A --------------------------------------------------------------------------|
F --------------------------------------------------------------------------|
C --------------------------------------------------------------------------|
G --------------------------------------------------------------------------|
D --------------------------------------------------------------------------|
      I don't know about the next solo it was impossible to work out..
      Keyboard/Guitar solo

D --------------------------------------------------------------------------|
A -12----10-12-13-10-12-13-12----10-12-10----------12----10-12-13-10-12-13--|
F ----12----------------------12----------12-11-9-----12--------------------|
C --------------------------------------------------------------------------|
G --------------------------------------------------------------------------|
D --------------------------------------------------------------------------|

D --------------------------------------------------------------------------|
A -12----10-12-10----------11----10-11-13-10-11-13-11----10-11-10-----------|
F ----12----------12-11-9-----12----------------------12----------12-11-9---|
C --------------------------------------------------------------------------|
G --------------------------------------------------------------------------|
D --------------------------------------------------------------------------|

D --------------------------------------------------------------------------|
A -11----10-11-13-10-11-13-11----10-11-10-----------14----12-14-15-12-14-15-|
F ----12----------------------12----------12-11-9------14-------------------|
C --------------------------------------------------------------------------|
G --------------------------------------------------------------------------|
D --------------------------------------------------------------------------|

D -12-------12-14----12-14-12-----------------------------------------------|
A ----14-15-------15----------15-14-15-14-12-14-12----12--------------------|
F -------------------------------------------------14----14-13-14-13-11-----|
C --------------------------------------------------------------------------|
G --------------------------------------------------------------------------|
D --------------------------------------------------------------------------|

D -------------------------12-------12-13----12-13-12-----------------------|
A -13----12-13-15-12-13-15----13-15-------15----------15-13-15-13-12-13-12--|
F ----14--------------------------------------------------------------------|
C --------------------------------------------------------------------------|
G --------------------------------------------------------------------------|
D --------------------------------------------------------------------------|

D --------------------------------------------------------------------------|
A ----12-----------------------------------------------------------------17-|
F -14----14-13-14-13-----------------------------16-19-17-16----16-17-19----|
C -------------------15-14-----17-16----16-17-19-------------19-------------|
G -----------------------------------19-------------------------------------|
D --------------------------------------------------------------------------|

D ----------------------19-23-20-19-17--------------------------------------|
A -20-19-17----17-19-20----------------20-19-17-16--------------------------|
F ----------19-------------------------------------17-16h17p16h17p16h17p16--|
C --------------------------------------------------------------------------|
G --------------------------------------------------------------------------|
D --------------------------------------------------------------------------|

D --------------------------------------------------------------------------|
A --------------------------------------------------------------------------|
F --------------------------------------------------------------------------|
C -0--2----2----0--2----2-------0--2---2---2--------------------------0--2--|
G -0--2----2----0--2----2-------0--2---2---2--------2-3-5-2-3---2-----0--2--|
D ------0----0-------0-----0--6------0---0----2-3-5-----------5---3-5-------|

D --------------------------------------------------------------------------|
A --------------------------------------------------------------------------|
F --------------------------------------------------------------------------|
C ---2----0--2----2------0--2----2------------------------------------------|
G ---2----0--2----2------0--2----2------5-3-2---3-2-----2-------------------|
D -0----0-------0---0--6------0----0-0--------5-----5-3---5-3-2-5-3-2-0-----|

D --------------------------------------------------------------------------|
A --------------------------------------------------------------------------|
F --------------------------------------------------------------------------|
C ------------------------------------7-------------------------------------|
G -10-9-7-10--10-9-7-10-9-7-9-10-9-10---10-9-7-10--10-9-7-10-9-7-9-10-9-10--|
D --------------------------------------------------------------------------|

D --------------------------------------------------------------------------|
A --------------------------------------------------------------------------|
F --------------------------------------7-----------------------------------|
C -7-10-9-7-10--10-9-7-10-9-7-9-10-9-10---10-9-7-10--10-9-7-9h10p9-7--------|
G -------------------------------------------------------------------10-9-7-|
D --------------------------------------------------------------------------|

D --------------------------------------------------------------------------|
A --------------------------------------------------------------------------|
F --------------------------------------------------------------------------|
C ---------------------------------------7----------------------------------|
G 6-9-10-9-7-10--10-9-7-10-9-7-9-10-9-10---10-9-7-10--10-9-7-10-9-7-9-10-9--|
D --------------------------------------------------------------------------|

D --------------------------------------------------------------------------|
A --------------------------------------------------------------------------|
F ----------------------------------------7-------------------9h11p9\8h9p8--|
C ---7-10-9-7-10--10-9-7-10-9-7-9-10-9-10---10-9-7-10--10-9-7---------------|
G 10------------------------------------------------------------------------|
D --------------------------------------------------------------------------|

D --------------------------------------------------------------------------|
A --------------------------------------------------------------------------|
F ----8-------------------------5-------------------------------------------|
C -10---10-9--2-----------------5---------5------9--------------------------|
G ------------2--------3--------0-----0-2-3------6--------------------------|
D ------------0--------2----------------------------------------------------|

----------------------------------------------------------------------------

4. HONOR THY FATHER
Tuning - C,F,Bb,Eb,G,C

Intro
  Q=188
  N.C.
 4/4        9/8
  Gtr I
  W          W
|----------|------|
|----------|------|
|----------|------|
|----------|------|
|----------|------|
|----------|------|


  E5                        N.C.
 4/4
  Gtrs I, II
                            PM------------|
  E E E E E E E E   E E E E S S S S S S S S
|-----------------|-------------------------|
|-----------------|-------------------------|
|-----------------|-------------------------|
|-----------------|-------------------------|
|-2---2---2---2---|-2---2-------------------|
|-0---0---0---0---|-0---0---5-6-5-3-5-6-5-3-|


  E5                        N.C.
                            PM------------|
  E E E E E E E E   E E E E S S S S S S S S
|-----------------|---------------------------|
|-----------------|---------------------------|
|-----------------|---------------------------|
|-----------------|---------------------------|
|-2---2---2---2---|-2---2---------------------|
|-0---0---0---0---|-0---0---3-5-3-2-3-5-3-2---|


  E5                        N.C.
                            PM--------------|
  E E E E E E E E   E E E E S  S S S S  S S S
|-----------------|---------------------------|
|-----------------|---------------------------|
|-----------------|---------------------------|
|-----------------|---------------------------|
|-2---2---2---2---|-2---2---------------------|
|-0---0---0---0---|-0---0---8-10-8-7-8-10-8-7-|


  E5                        N.C.
                            PM--------------|
  E E E E E E E E   E E E E S  S S S S  S S S
|-----------------|----------------------------|
|-----------------|----------------------------|
|-----------------|----------------------------|
|-----------------|----------------------------|
|-2---2---2---2---|-2---2---9-10-9-7-9-10-9-7--|
|-0---0---0---0---|-0---0----------------------|


  E5                          Bb5     E5                          G5
 6/8
  PM----------------------------------------------------------------|
  E E E E E E   E E E E E E   E E E E E E   E E E E E E   E E E E E E
|-------------|-------------|-------------|-------------|-------------|
|-------------|-------------|-------------|-------------|-------------|
|-------------|-------------|-------------|-------------|-------------|
|-------------|-------------|-------------|-------------|-------------|
|-2---2---2---|-2---2---2---|-8-8-8-8-2---|-2---2---2---|-2---2---5-5-|
|-0---0---0---|-0---0---0---|-6-6-6-6-0---|-0---0---0---|-0---0---3-3-|


  G5  E5                          Cb5
  PM---------------------------------------
  E E E E E E   E E E E E E   E E E E E E
|-------------|-------------|-------------|
|-------------|-------------|-------------|
|-------------|-------------|-------------|
|-------------|-------------|-----4-4-4-4-|
|-5-5-2---2---|-2---2---2---|-2---3-3-3-3-|
|-3-3-0---0---|-0---0---0---|-0-----------|


  E5                          Dsus2
                             3/8
 -------------------------|
  E E E E E E   E E E E E E   E E E
|-------------|-------------|---------|
|-------------|-------------|---------|
|-------------|-------------|-9-9-9---|
|-------------|-------------|-7-7-7---|
|-2---2---2---|-2---2---2---|-5-5-5---|
|-0---0---0---|-0---0---0---|---------|


    E5                        Bb5       E5                        Gsus2
 4/4
  E E E E E E E E   E E E E E E E E   E E E E E E E E   E E E E E E E E
|-----------------|-----------------|-----------------|-----------------|
|-----------------|-----------------|-----------------|-----------------|
|-9---------------|-----------------|-----------------|-----------------|
|-7---------------|-----------------|-----------------|-----------7-7-7-|
|-5-2---2---2---2-|---2---2---8-8-8-|-8-2---2---2---2-|---2---2---5-5-5-|
|---0---0---0---0-|---0---0---6-6-6-|-6-0---0---0---0-|---0---0---3-3-3-|


    E5                        Cb5       E5                        Dsus2
  E E E E E E E E   E E E E E E E E   E E E E E E E E   E E E E E E E E
|-----------------|-----------------|-----------------|-----------------||
|-----------------|-----------------|-----------------|-----------------||
|-----------------|-----------5-5-5-|-5---------------|-----------9-9-9-||
|-7---------------|-----------4-4-4-|-4---------------|-----------7-7-7-||
|-5-2---2---2---2-|---2---2---3-3-3-|-3-2---2---2---2-|---2---2---5-5-5-||
|-3-0---0---0---0-|---0---0---------|---0---0---0---0-|---0---0---------||


    E5                                F#G5
   4/4
        PM    PM    PM      PM
    E E E  E  E  E  E  E    E  E  E E E E E E
||------------------------|-------------------|
||o--------5-----5-----5--|----5--------------|
||---------4-----4-----4--|----4--------------|
||---------2-----2-----2--|----2--------------|
||o-2-2---(2)-2-(2)-2-(2)-|-2-(2)-2-2-4s5-5-5-|
||--0-0-0-----0-----0-----|-0-----0-0-2s3-3-3-|


  E5                                G5Bb5
      PM    PM    PM      PM
  E E E  E  E  E  E  E    E  E  E E E E E E
|-----------------------|--------------------|
|--------5-----5-----5--|----5---------------|
|--------4-----4-----4--|----4---------------|
|--------2-----2-----2--|----2---------------|
|-2-2---(2)-2-(2)-2-(2)-|-2-(2)-2-2-5s8-8-8--|
|-0-0-0-----0-----0-----|-0-----0-0-3s6-6-6--|


  E5                                F#G5
      PM    PM    PM      PM
  E E E  E  E  E  E  E    E  E  E E E E E E
|-----------------------|-------------------|
|--------5-----5-----5--|----5--------------|
|--------4-----4-----4--|----4--------------|
|--------2-----2-----2--|----2--------------|
|-2-2---(2)-2-(2)-2-(2)-|-2-(2)-2-2-4s5-5-5-|
|-0-0-0-----0-----0-----|-0-----0-0-2s3-3-3-|


  E5                N.C.                F5
      PM    PM    PM       ~
  E E E  E  E  E  E  E   E E +E   E E E E E
|----------------------|-----------------------||
|--------5-----5-------|--------------------o--||
|--------4-----4-------|-----------------------||
|--------2-----2-------|-----------------------||
|-2-2---(2)-2-(2)-2----|-5----------2---3-3-o--||
|-0-0-0-----0-----0-/7-|---7-(7)-3---3-1-1-----||


  N.C.
  PM------------------------------------------------------------------|
  E E E E E E E E   E E E E E E E E   E E E E E E E E   E E E E E E E E
|-----------------|-----------------|-----------------|-----------------|
|-----------------|-----------------|-----------------|-----------------|
|-----------------|-----------------|-----------------|-----------------|
|-----------------|-----------------|-----------------|-----------------|
|-7-5-7-------7-5-|-7-------------5-|-7-5-7-----------|-----------------|
|-------0-3-0-----|---0-7-0-8-7-8---|-------0-3-0-8-7-|-8-0-3-0-7-5-7-8-|


  PM----------------------------------------------------------|
  E E E E E E E E   E E E E E E E E   E E E E E E E E   E E E E E E E E
|-----------------|-----------------|-----------------|-----------------||
|-----------------|-----------------|-----------------|-----------------||
|-----------------|-----------------|-----------------|-----------------||
|-----------------|-----------------|-----------------|-----------------||
|-7-5-7-------7-5-|-7-------------5-|-7-5-7-----------|-----------------||
|-------0-3-0-----|---0-7-0-8-7-8---|-------0-3-0-8-7-|-8-0-3-0-7-5-7-8-||


  E5                                F#G5
      PM    PM    PM      PM
  E E E  E  E  E  E  E    E  E  E E E E E E
|-----------------------|-------------------|
|--------5-----5-----5--|----5--------------|
|--------4-----4-----4--|----4--------------|
|--------2-----2-----2--|----2--------------|
|-2-2---(2)-2-(2)-2-(2)-|-2-(2)-2-2-4s5-5-5-|
|-0-0-0-----0-----0-----|-0-----0-0-2s3-3-3-|


  E5                                G5Bb5
      PM    PM    PM      PM
  E E E  E  E  E  E  E    E  E  E E E E E E
|-----------------------|-------------------|
|--------5-----5-----5--|----5--------------|
|--------4-----4-----4--|----4--------------|
|--------2-----2-----2--|----2--------------|
|-2-2---(2)-2-(2)-2-(2)-|-2-(2)-2-2-5s8-8-8-|
|-0-0-0-----0-----0-----|-0-----0-0-3s6-6-6-|


  E5                                F#G5
      PM    PM    PM      PM
  E E E  E  E  E  E  E    E  E  E E E E E E
|-----------------------|-------------------|
|--------5-----5-----5--|----5--------------|
|--------4-----4-----4--|----4--------------|
|--------2-----2-----2--|----2--------------|
|-2-2---(2)-2-(2)-2-(2)-|-2-(2)-2-2-4s5-5-5-|
|-0-0-0-----0-----0-----|-0-----0-0-2s3-3-3-|


  E5                N.C.
      PM    PM    PM       ~
  E E E  E  E  E  E  E   E E +E   E E E E E
|----------------------|----------------------||
|--------5-----5-------|----------------------||
|--------4-----4-------|----------------------||
|--------2-----2-------|----------------------||
|-2-2---(2)-2-(2)-2----|-5----------2---3-3---||
|-0-0-0-----0-----0-/7-|---7-(7)-3---3-1-1----||


  PM------------------------------------------------------------------|
  E E E E E E E E   E E E E E E E E   E E E E E E E E   E E E E E E E E
|-----------------|-----------------|-----------------|-----------------|
|-----------------|-----------------|-----------------|-----------------|
|-----------------|-----------------|-----------------|-----------------|
|-----------------|-----------------|-----------------|-----------------|
|-7-5-7-------7-5-|-7-------------5-|-7-5-7-----------|-----------------|
|-------0-3-0-----|---0-7-0-8-7-8---|-------0-3-0-8-7-|-8-0-3-0-7-5-7-8-|


  PM------------------------------|
  E E E E E E E E   E E E E E E E E   E E E E E E E E   E E E E E E E E
|-----------------|-----------------|-----------------|-----------------|
|-----------------|-----------------|-----------------|-----------------|
|-----------------|-----------------|-----------------|-----------------|
|-----------------|-----------------|-----------------|-----------------|
|-7-5-7-------7-5-|-7-------------5-|-7-5-7-----------|-----------------|
|-------0-3-0-----|---0-7-0-8-7-8---|-------0-3-0-8-7-|-8-0-3-0-7-5-7-8-|


                    Verse 1
  N.C.               N.C.(E5)
 7/4
                     Gtr III
  W                  Q  E E E E E  E E E E E Q
|----------------||-----------------------------|
|----------------||o----------------------------|
|----------------||-----------------------------|
|----------------||-----9---7h9---10---9---7h9--|
|----------------||o-7----7-----7----7---7------|
|----------------||-----------------------------|


 8/4
  Q  E E E E E  E E E E E E E E E
|----------------------------------|
|----------------------------------|
|----------------------------------|
|----9---7h9---10---9---7h9---7h9--|
|-7----7-----7----7---7-----7------|
|----------------------------------|


 7/4                          8/4
  Q  E E E E E  E E E E E Q    Q  E E E E E  E E  E E E E E E E
|----------------------------|-----------------------------------||
|----------------------------|----------------------------------o||
|----------------------------|-----------------------------------||
|----9---7h9---10---9---7h9--|----9---7h9---12---10---7h9---7h9--||
|-7----7-----7----7---7------|-7----7-----7----7----7-----7-----o||
|----------------------------|-----------------------------------||


    N.C.(E5)
    Gtrs I, II
    Q  E E E E E E E E E E E E E E   Q  E E  E E E E E E  E E +E  E E E
||---------------------------------|--------------------------------------||
||o--------------------------------|-------------------------------------o||
||---------------------------------|--------------------------------------||
||---------------------------------|--------------------------------------||
||o--------------------------------|-------------------------------------o||
||--0--7p0-8-7-0-5p0-7p0-2p0-3p0-5-|-0--7p0-10-8-0-5p0-7h12-0-(0)-2p0-3---||


   Verse 2
    E5
   7/4                       8/4
    PM--|        PM--|        PM--|        PM--|    PM|
    E E E E Q.   E E E H      E E E E Q.   E E E Q  E E Q    4x
||--------------------------|--------------------------------||
||o-------------------------|-------------------------------o||
||--------------------------|--------------------------------||
||--------------------------|--------------------------------||
||o-2-2-2--------2-2-2------|-2-2-2--------2-2-2----2-2-----o||
||--0-0-0--------0-0-0------|-0-0-0--------0-0-0----0-0------||


 Chorus
  Csus2
 7/4                   8/4
  Gtr I
  H    Q.   Q.   H      H    Q.   Q.   Q   H
|-----------3---------|-----------3-------------------------------|
|------3---------3----|------3---------3--------------------------|
|-5-------------------|-5------------------5----------------------|
|-5-------------------|-5-----------------------------------------|
|-3-------------------|-3-----------------------------------------|
|---------------------|-------------------------------------------|
|
| Gtr II
| H    Q.   Q.   H      H    Q.   Q.   Q   S  S  S  S  S  S  S  S
|-----------3---------|-----------3-------------------------------|
|------3---------3----|------3---------3--13-15-13-12-------------|
|-5-------------------|-5-----------------------------12-14-12-11-|
|-5-------------------|-5-----------------------------------------|
|-3-------------------|-3-----------------------------------------|
|---------------------|-------------------------------------------|


  N.C.(E5)
 7/4
  Gtrs I, II
  Q  Q  Q  E E +E  E +E   E  +E   E
|--------------------------------------|
|--------------------------------------|
|-------9--9-------------11-(11)-11----|
|-------x--x--------------x-------x----|
|-------7--7--------------9--(9)--9----|
|-0--0-------0-(0)-0-(0)---------------|
|
| W
|--------------------------------------|
|--------------------------------------|
|--------------------------------------|
|--------------------------------------|
|--------------------------------------|
|--------------------------------------|


                                          Csus2
 8/4                                     7/4
  Q  Q   Q   E E +E  E +E   Q   +E   Q    H    Q.   Q.   H
|---------------------------------------|-----------3---------|
|---------------------------------------|------3---------3----|
|-------12--12-------------14--(14)s16--|-5-------------------|
|--------x---x--------------x-----------|-5-------------------|
|-------10--10-------------12--(12)s14--|-3-------------------|
|-0--0---------0-(0)-0-(0)--------------|---------------------|


                    D5/A   G5   A5   F#5  C5       F5
 8/4
  H    Q.   Q.   Q  H      Q.   Q.   Q  E E +Q   E Q.
|-----------3------------|-------------------------------||
|------3---------3-------|-------------------------------||
|-5----------------------|-------------------------------||
|-5-----------------7----|----------------5-(5)----------||
|-3-----------------5----|-5----7----4--x-3-(3)--x-3-----||
|-------------------5----|-3----5----2--x--------x-1-----||


   Bridge
    N.C.        G5F#5 A5   F#5   G5  N.C.        G5F#5 C5 F#G5F#G5
    PM~  PM~  PM    PM   PM          PM~  PM~  PM    PM
    E Q  E Q  E E E E Q  E E +E  E   E Q  E Q  E E E E Q  E E E E
||---------------------------------|-------------------------------|
||o--------------------------------|-------------------------------|
||---------------------------------|-------------------------------|
||---------------------------------|-------------------5-----------|
||o-------------5s4---7----4-(4)s5-|-------------5s4---3--4-5-4-5--|
||--0-7--0-6--0-3s2-0-5--0-2-(2)s3-|-0-7--0-6--0-3s2-0----2-3-2-3--|


  N.C.        G5F#5 A5   F#5   G5  N.C.        G5F#5 C5 F#G5F#G5
  PM~  PM~  PM    PM   PM          PM~  PM~  PM    PM
  E Q  E Q  E E E E Q  E E +E  E   E Q  E Q  E E E E Q  E E E E
|--------------------------------|-------------------------------||
|--------------------------------|------------------------------o||
|--------------------------------|-------------------------------||
|--------------------------------|-------------------5-----------||
|-------------5s4---7----4-(4)s5-|-------------5s4---3--4-5-4-5-o||
|-0-7--0-6--0-3s2-0-5--0-2-(2)s3-|-0-7--0-6--0-3s2-0----2-3-2-3--||


   Interlude
    E5                                F#G5
   4/4
        PM    PM    PM      PM
    E E E  E  E  E  E  E    E  E  E E E E E E
||------------------------|-------------------|
||o--------5-----5-----5--|----5--------------|
||---------4-----4-----4--|----4--------------|
||---------2-----2-----2--|----2--------------|
||o-2-2---(2)-2-(2)-2-(2)-|-2-(2)-2-2-4s5-5-5-|
||--0-0-0-----0-----0-----|-0-----0-0-2s3-3-3-|


  E5                                G5Bb5
      PM    PM    PM      PM
  E E E  E  E  E  E  E    E  E  E E E E E E
|-----------------------|--------------------|
|--------5-----5-----5--|----5---------------|
|--------4-----4-----4--|----4---------------|
|--------2-----2-----2--|----2---------------|
|-2-2---(2)-2-(2)-2-(2)-|-2-(2)-2-2-5s8-8-8--|
|-0-0-0-----0-----0-----|-0-----0-0-3s6-6-6--|


  E5                                F#G5
      PM    PM    PM      PM
  E E E  E  E  E  E  E    E  E  E E E E E E
|-----------------------|-------------------|
|--------5-----5-----5--|----5--------------|
|--------4-----4-----4--|----4--------------|
|--------2-----2-----2--|----2--------------|
|-2-2---(2)-2-(2)-2-(2)-|-2-(2)-2-2-4s5-5-5-|
|-0-0-0-----0-----0-----|-0-----0-0-2s3-3-3-|


  E5                N.C.                F5
      PM    PM    PM       ~
  E E E  E  E  E  E  E   E E +E   E E E E E
|----------------------|-----------------------||
|--------5-----5-------|--------------------o--||
|--------4-----4-------|-----------------------||
|--------2-----2-------|-----------------------||
|-2-2---(2)-2-(2)-2----|-5----------2---3-3-o--||
|-0-0-0-----0-----0-/7-|---7-(7)-3---3-1-1-----||


                                Verse 3
  N.C.(E5)
 7/4
  Gtr I                          Gtrs I, II
       PM    PM   PM  PM              PM    PM   PM  PM
  Q  E E E E E  E E E E E Q      Q  E E E E E  E E E E E Q
|----------------------------||-----------------------------|
|----------------------------||o----------------------------|
|----------------------------||-----------------------------|
|----9---7h9---10---9---7h9--||-----9---7h9---10---9---7h9--|
|-7--7-7-7---7--7-7-7-7-7----||o-7--7-7-7---7--7-7-7-7-7----|
|----------------------------||-----------------------------|


 8/4
       PM    PM   PM  PM    PM
  Q  E E E E E  E E E E E E E E E
|----------------------------------|
|----------------------------------|
|----------------------------------|
|----9---7h9---10---9---7h9---7h9--|
|-7--7-7-7---7--7-7-7-7-7---7-7----|
|----------------------------------|


 7/4                          8/4
       PM    PM   PM  PM            PM    PM   PM   PM    PM
  Q  E E E E E  E E E E E Q    Q  E E E E E  E E  E E E E E E E
|----------------------------|-----------------------------------||
|----------------------------|----------------------------------o||
|----------------------------|-----------------------------------||
|----9---7h9---10---9---7h9--|----9---7h9---12---10---7h9---7h9--||
|-7--7-7-7---7--7-7-7-7-7----|-7--7-7-7---7--7-7--7-7-7---7-7---o||
|----------------------------|-----------------------------------||


    N.C.(E5)
    Q  E E E E E E E E E E E E E E   Q  E E  E E E E E E  E E +E  E E E
||---------------------------------|--------------------------------------||
||o--------------------------------|-------------------------------------o||
||---------------------------------|--------------------------------------||
||---------------------------------|--------------------------------------||
||o--------------------------------|-------------------------------------o||
||--0--7p0-8-7-0-5p0-7p0-2p0-3p0-5-|-0--7p0-10-8-0-5p0-7h12-0-(0)-2p0-3---||


   Verse 4
    E5                           Cmaj7
   7/4                          8/4
         PM    PM   PM  PM            PM    PM   PM  PM    PM
    Q  E E E E E  E E E E E Q    Q  E E E E E  E E E E E E E E E
||-----------------------------|----------------------------------|
||o----------------------------|----------------------------------|
||-----------------------------|----------------------------------|
||-----9---7h9---10---9---7h9--|----9---7h9---10---9---7h9---7h9--|
||o-7--7-7-7---7--7-7-7-7-7----|----------------------------------|
||-----------------------------|-8----8-----8----8---8-----8------|


  D6                           B5
 7/4                          8/4
       PM    PM   PM  PM            PM    PM  PM  PM    PM
  Q  E E E E E  E E E E E Q    Q  E E E E E E E E E E E E E E
|----------------------------|---------------------------------||
|----------------------------|--------------------------------o||
|----------------------------|---------------------------------||
|----9---7h9---10---9---7h9--|----4---2h4---5---4---2h4---2h4--||
|-5--5-5-5---5--5-5-5-5-5----|-2--2-2-2---2-2-2-2-2-2---2-2---o||
|----------------------------|---------------------------------||


 Chorus
  N.C.(C)
 7/4
  E  E E  E E E  E E +E   E E  E E  E
|-------------------------------------|
|-------------------------------------|
|-------------------------------------|
|-----------7--------------------7----|
|---10-9-10---9-10-------10-9-10---10-|
|-8----------------8-(8)--------------|


 8/4
                                   PM-----------------|
  E  E E  E  E E  E E +E   E  E E  S  S  S S  S  S  S S
|--------------------------------------------------------|
|--------------------------------------------------------|
|--------------------------------------------------------|
|-----------12------------------9-10-12-10-9-------------|
|---10-9-10----9-10-------10-12--------------10-12-10-9--|
|-8-----------------8-(8)--------------------------------|


  N.C.(E5)
 7/4
  E E E E  E E E E +E  E E E  E a E
|-----------------------------------|
|-----------------------------------|
|-----------------------------------|
|---9-7-9-10-7-9-------9-7-9-10-7h9-|
|-7--------------7-(7)--------------|
|-----------------------------------|


 8/4
                             PM------------|
  E E E E  E E E E E  E  E E S S S S S S S S
|--------------------------------------------|
|--------------------------------------------|
|---------11---------------------------------|
|---9-7-9----7-9-----12-10-9-7-9-7-5---------|
|-7--------------7-------------------7-9-7-5-|
|--------------------------------------------|


  N.C.(C)
 7/4
  E  E E  E E E  E E +E   E E  E E  E
|-------------------------------------|
|-------------------------------------|
|-------------------------------------|
|-----------7--------------------7----|
|---10-9-10---9-10-------10-9-10---10-|
|-8----------------8-(8)--------------|


 8/4
                                PM------------|
  E  E E  E  E E  E E +E  E E E S S S S S S S S
|------------------------------------------------|
|------------------------------------------------|
|------------------------------------------------|
|-----------12------------5-4--------------------|
|---10-9-10----9-10-----------5-3-5-3-2----------|
|-8-----------------8-(8)---------------3-5-3-2--|


  G5   A5   F#5  C5       F5
  Gtr II                        G
                           ~~~
  Q.   Q.   Q  E E +Q   E  Q.
|-------------------------------|
|-------------------------------|
|-------------------------------|
|----------------5-(5)----------|
|-5----7----4--x-3-(3)--x-[8]---|
|-3----5----2--x--------x-------|
|
| Gtr I
| Q.   Q.   Q  E E +Q   E  Q.
|-------------------------------|
|-------------------------------|
|-------------------------------|
|----------------5-(5)----------|
|-5----7----4--x-3-(3)--x--3----|
|-3----5----2--x--------x--1----|


   Bridge
    N.C.        G5F#5 A5   F#5   G5  N.C.        G5F#5 C5 F#G5F#G5
 trs I, II
    PM~  PM~  PM    PM   PM          PM~  PM~  PM    PM
    E Q  E Q  E E E E Q  E E +E  E   E Q  E Q  E E E E Q  E E E E
||---------------------------------|------------------------------|
||o--------------------------------|------------------------------|
||---------------------------------|------------------------------|
||---------------------------------|-------------------5----------|
||o-------------5s4---7----4-(4)s5-|-------------5s4---3--4-5-4-5-|
||--0-7--0-6--0-3s2-0-5--0-2-(2)s3-|-0-7--0-6--0-3s2-0----2-3-2-3-|
|
|   W                                W
||---------------------------------|------------------------------|
||o--------------------------------|------------------------------|
||---------------------------------|------------------------------|
||---------------------------------|------------------------------|
||o--------------------------------|------------------------------|
||---------------------------------|------------------------------|


  N.C.        G5F#5 A5   F#5   G5  N.C.        G5F#5 C5 F#G5F#G5
  PM~  PM~  PM    PM   PM          PM~  PM~  PM    PM
  E Q  E Q  E E E E Q  E E +E  E   E Q  E Q  E E E E Q  E E E E
|--------------------------------|-------------------------------||
|--------------------------------|------------------------------o||
|--------------------------------|-------------------------------||
|--------------------------------|-------------------5-----------||
|-------------5s4---7----4-(4)s5-|-------------5s4---3--4-5-4-5-o||
|-0-7--0-6--0-3s2-0-5--0-2-(2)s3-|-0-7--0-6--0-3s2-0----2-3-2-3--||


  H=90
  N.C.(A5)
 7/8              5/8          7/8              9/8
  PM---------------|      PM-----------------|       PM|
  E E E E  E E E   E  E E E E   E E E E  E E E   E E E E  E  E E  E  E
|----------------|------------|----------------|------------------------|
|----------------|------------|----------------|------------------------|
|----------------|------7-----|----------------|---7-----10------12-----|
|-----7-9-10-----|---10-------|-----7-9-10-----|-5-----7----10------12--|
|-0-7--------7-0-|-7----------|-0-7--------7-0-|-----5---------8--------|
|----------------|--------0-3-|----------------|------------------------|


 7/8              5/8          4/4
  PM---------------|      PM-----------------------------------------|
  E E E E  E E E   E  E E E E   S S S  S S S S  S  S S  S  S  S S  S  S
|----------------|------------|-----------------------------------------|
|----------------|------------|-----------------------------------------|
|----------------|------7-----|------------------------------10-9-10-12-|
|-----7-9-10-----|---10-------|-------------------10-9-10-12------------|
|-0-7--------7-0-|-7----------|----------8-7-8-10-----------------------|
|----------------|--------0-3-|-8-7-8-10--------------------------------|


   S  S  S  S  S  S  S  S  S  S  S  S  S  S  S  S
|-------------13-12-13-15-------------15-13-15-17---|
|-13-12-13-15-------------15-13-15-17---------------|
|---------------------------------------------------|
|---------------------------------------------------|
|---------------------------------------------------|
|---------------------------------------------------|


                                                                 ~~~~~~~~~
   S S  S S  S S  S S  S S  S S  S S  S S    S S  S S  S S  S S  Q   +Q
|-----------------------------------------|--------------------------------||
|-17p0-16p0-13p0-16p0-13p0-12p0-13p0-12p0-|-10p0-12p0-13p0-10p0-12--(12)---||
|-----------------------------------------|--------------------------------||
|-----------------------------------------|--------------------------------||
|-----------------------------------------|--------------------------------||
|-----------------------------------------|--------------------------------||


              Breakdown
  Slower H=104
               N.C.(Em)
              6/4
               PM----------------------------------------------|
  W            E E E E E E E E E E E E   E E E E E E E E E E E E
|----------||--------------------------|-------------------------|
|----------||o-------------------------|-------------------------|
|----------||--------------------------|-------------------------|
|----------||--------------------------|-------------------------|
|----------||o-------------2-2---2---2-|-------2-2---2---2---2---|
|----------||--3-2-0-3-2-0-0-0---0---0-|-3-2-0-0-0---0---0---0---|


                            B5  C5   A5  B5  F#5 A5
  PM---------------------------------------------|
  E E E E E E E E E E E E   E E  E E E E E E E E E E  4x
|-------------------------|---------------------------||
|-------------------------|--------------------------o||
|-------------------------|---------------------------||
|-------------------------|---------------------------||
|-------------2-2---2---2-|-9---10---7---9---4---7---o||
|-3-2-0-3-2-0-0-0---0---0-|-7----8---5---7---2---5----||


      N.C.(Em)
      E E E E E E E E E E E E
|-||--------------------------|
|-||o-------------------------|
|-||--------------------------|
|-||--------------------------|
|-||o-------------2-2---2---2-|
|-||--3-2-0-3-2-0-0-0---0---0-|


  E E E E E E E E E E E E   E E E E E E E E E E E E
|-------------------------|-------------------------|
|-------------------------|-------------------------|
|-------------------------|-------------------------|
|-------------------------|-------------------------|
|-------2-2---2---2---2---|-------------2-2---2---2-|
|-3-2-0-0-0---0---0---0---|-3-2-0-3-2-0-0-0---0---0-|


  B5  C5   A5  B5  F#5 A5
  E E  E E E E E E E E E E
|----------------------------||
|---------------------------o||
|----------------------------||
|----------------------------||
|-9---10---7---9---4---7----o||
|-7----8---5---7---2---5-----||


    N.C.(Em)
    E E E E E E E E E E E E   E E E E E E E E E E E E
||--------------------------|-------------------------|
||o-------------------------|-------------------------|
||--------------------------|-------------------------|
||--------------------------|-------------------------|
||o-------------2-2---2---2-|-------2-2---2---2---2---|
||--3-2-0-3-2-0-0-0---0---0-|-3-2-0-0-0---0---0---0---|


  E E E E E E E E E E E E   E E E E E E E E E E E E
|-------------------------|--------------------------||
|-------------------------|-------------------------o||
|-------------------------|--------------------------||
|-------------------------|--------------------------||
|-------------2-2---2---2-|-------------------------o||
|-3-2-0-3-2-0-0-0---0---0-|-7p0-8p0-5p0-7p0-2p0-5p0--||


    N.C.(Gm)
    PM----------------------------------------------|
    E E E E E E E E E E E E   E E E E E E E E E E E E
||--------------------------|-------------------------|
||o-------------------------|-------------------------|
||--------------------------|-------------------------|
||--------------------------|-------------------------|
||o-------------5-5---5---5-|-------5-5---5---5---5---|
||--6-5-3-6-5-3-3-3---3---3-|-6-5-3-3-3---3---3---3---|


  PM--------------------|
  E E E E E E E E E E E E   Q  Q  Q  Q  Q  Q
|-------------------------|--------------------||
|-------------------------|-------------------o||
|-------------------------|--------------------||
|-------------------------|--------------------||
|-------------5-5---5---5-|-5--6-----5--------o||
|-6-5-3-6-5-3-3-3---3---3-|-------8-----5--8---||


  N.C.(Em)
  E E E E E E E E E Q  E   E E E E  E E  E E  E E  E E
|------------------------|-----------------------------|
|------------------------|-----------------------------|
|------------------------|-----------------------------|
|------------------------|-----------------------------|
|---------------5h7------|-----------------------------|
|-3-2-0-3-2-0-0-----0--0-|-8-7-0-0-14p0-15p0-14p0-12p0-|


  E E E E E E E  E  E Q  E    E E  E E E E  E E E E E E
|--------------------------|----------------------------|
|--------------------------|----------------------------|
|--------------------------|----------------------------|
|--------------------------|----------------------------|
|---------------10h12------|----------------------------|
|-8-7-0-8-7-0-0-------0--0-|-10p0-12p0-8p0-10p0-7p0-8p0-|


  E E E E E E E E  E Q  E    E E E E  E E  E E  E E  E E
|-------------------------|------------------------------|
|-------------------------|------------------------------|
|-------------------------|------------------------------|
|-------------------------|------------------------------|
|---------------9h10------|------------------------------|
|-7-5-0-7-5-0-0------0--0-|-10-8-0-0-17p0-19p0-17p0-15p0-|


   E  E E  E  E E E  E  E Q  E    E E  E E  E E  E E  E E  E E
|------------------------------|-------------------------------||
|------------------------------|-------------------------------||
|------------------------------|-------------------------------||
|------------------------------|-------------------------------||
|-------------------14h15------|-------------------------------||
|-12-10-0-12-10-0-0-------0--0-|-14p0-15p0-12p0-14p0-10p0-12p0-||


   Keyboard interlude
    Slower H=98
    G5
    Gtr IV
                                |--3--|
     E  E  E  E  E  E  E  E  E  S  S  S  E  E
||-----------10-------------10----------------|
||o-11p10----------10-11h13----11h13p11-10----|
||--------12----12-------------------------12-|
||--------------------------------------------|
||o-------------------------------------------|
||--------------------------------------------|
|
|   Gtrs I, II
|    PM---------------------------------|
|    E  E  E  E  E  E  E  E  E  E        E  E
||--------------------------------------------|
||o-------------------------------------------|
||--------------------------------------------|
||--------------------------------------------|
||o--5--5-----5-----5--5-----5-----------5----|
||---3--3-----3-----3--3-----3-----------3----|


  Gb5                            G5
 5/4                            6/4
                                                             |--3--|
   E  E  E E  E  E  E  E  E  E    E  E  E  E  E  E  E  E  E  S  S  S  E  E
|----------9-------------------|----------10-------------10----------------|
|-11p10---------10-11h13----10-|-11p10----------10-11h13----11h13p11-10----|
|-------12---12----------12----|-------12----12-------------------------12-|
|------------------------------|-------------------------------------------|
|------------------------------|-------------------------------------------|
|------------------------------|-------------------------------------------|
|
|  PM----------------------------------------------------------------|
|  E  E  E E  E  E  E  E  E  E    E  E  E  E  E  E  E  E  E  E        E  E
|------------------------------|-------------------------------------------|
|------------------------------|-------------------------------------------|
|------------------------------|-------------------------------------------|
|------------------------------|-------------------------------------------|
|--4--4----4-----4--4-----4----|--5--5-----5-----5--5-----5-----------5----|
|--3--3----3-----3--3-----3----|--3--3-----3-----3--3-----3-----------3----|


  Gb5                          A5
   E  E  E E  E  E  E  E  E  E  E  E
|----------9-------------------------||
|-11p10---------10-11h13-10h11----10-||
|-------12---12----------------12----||
|------------------------------------||
|------------------------------------||
|------------------------------------||
|
|  PM--------------------------|
|  E  E  E E  E  E  E  E  E  E  E  E
|------------------------------------||
|------------------------------------||
|------------------------------------||
|------------------------------------||
|--4--4----4-----4--4-----4-----7----||
|--3--3----3-----3--3-----3-----5----||


  Bb5                                         Bbb5
                                             5/4
                              |--3--|
   E  E  E  E  E  E  E  E  E  S  S  S  E  E    E  E  E  E  E  E  E  E  E  E
|---------13-------------13----------------|----------12-------------------|
|14p13----------13-14h16----14h16p14-13----|-14p13----------13-14h16----13-|
|-------15----15-------------------------15|--------15----15----------15---|
|------------------------------------------|-------------------------------|
|------------------------------------------|-------------------------------|
|------------------------------------------|-------------------------------|
|
| PM---------------------------------|        PM------------------------|
| E  E  E  E  E  E  E  E  E  E        E  E    E  E  E  E  E  E  E  E  E  E
|------------------------------------------|-------------------------------|
|------------------------------------------|-------------------------------|
|------------------------------------------|-------------------------------|
|------------------------------------------|-------------------------------|
|-8--8-----8-----8--8-----8-----------8----|--7--7-----7-----7--7-----7----|
|-6--6-----6-----6--6-----6-----------6----|--6--6-----6-----6--6-----6----|


  Bb5
 6/4
                              |--3--|
   E  E  E  E  E  E  E  E  E  S  S  S  E  E
|----------13-------------13----------------|
|-14p13----------13-14h16----14h16p14-13----|
|-------15----15-------------------------15-|
|-------------------------------------------|
|-------------------------------------------|
|-------------------------------------------|
|
|  PM---------------------------------|
|  E  E  E  E  E  E  E  E  E  E        E  E
|-------------------------------------------|
|-------------------------------------------|
|-------------------------------------------|
|-------------------------------------------|
|--8--8-----8-----8--8-----8-----------8----|
|--6--6-----6-----6--6-----6-----------6----|


  Bbb5
   E  E  E  E  E  E  E  E  E  E  E  E
|----------12--------------------------||
|-14p13----------13-14h16-13h14----13-o||
|-------15----15----------------15-----||
|--------------------------------------||
|-------------------------------------o||
|--------------------------------------||
|
|  PM---------------------------|
|  E  E  E  E  E  E  E  E  E  E  E  E
|--------------------------------------||
|-------------------------------------o||
|--------------------------------------||
|--------------------------------------||
|--7--7-----7-----7--7-----7-----7----o||
|--6--6-----6-----6--6-----6-----6-----||


  G5                                          Gbb5
                                             5/4
                              |--3--|
  E  E  E  E  E  E  E  E  E  S  S  S  E  E    E  E  E  E  E  E  E  E  E  E
|---------10-------------10----------------|-----------9-------------------|
|11p10----------10-11h13----11h13p11-10----|-11p10----------10-11h13----10-|
|------12----12-------------------------12-|-------12----12----------12----|
|------------------------------------------|-------------------------------|
|------------------------------------------|-------------------------------|
|------------------------------------------|-------------------------------|
|
| Gtr V
|                             |--3--|
| E  E  E  E  E  E  E  E  E  S  S  S  E  E    E  E  E  E  E  E  E  E  E  E
|---------15-------------15----------------|----------15-------------------|
|15p13----------13-15h18----15h18p15s13----|-14p13----------13-14h16----13-|
|------15----15-------------------------15-|-------15----15----------15----|
|------------------------------------------|-------------------------------|
|------------------------------------------|-------------------------------|
|------------------------------------------|-------------------------------|
|
| Gtrs I, II
| PM---------------------------------|        PM----------------------------
| E  E  E  E  E  E  E  E  E  E        E  E    E  E  E  E  E  E  E  E  E  E
|------------------------------------------|-------------------------------|
|------------------------------------------|-------------------------------|
|-7--7-----7-----7--7-----7-----------7----|--6--6-----6-----6--6-----6----|
|-5--5-----5-----5--5-----5-----------5----|--5--5-----5-----5--5-----5----|
|-5--5-----5-----5--5-----5-----------5----|--4--4-----4-----4--4-----4----|
|-3--3-----3-----3--3-----3-----------3----|--3--3-----3-----3--3-----3----|


  G5
 6/4
                              |--3--|
   E  E  E  E  E  E  E  E  E  S  S  S  E  E
|----------10-------------10-----------------|
|-11p10----------10-11h13----11h13p11-10-----|
|-------12----12-------------------------12--|
|--------------------------------------------|
|--------------------------------------------|
|--------------------------------------------|
|
|                             |--3--|
|  E  E  E  E  E  E  E  E  E  S  S  S  E  E
|----------15-------------15-----------------|
|-15p13----------13-15h18----15h18p15s13-----|
|-------15----15-------------------------15--|
|--------------------------------------------|
|--------------------------------------------|
|--------------------------------------------|
|
|-------------------------------------|
|  E  E  E  E  E  E  E  E  E  E        E  E
|--------------------------------------------|
|--------------------------------------------|
|--7--7-----7-----7--7-----7-----------7-----|
|--5--5-----5-----5--5-----5-----------5-----|
|--5--5-----5-----5--5-----5-----------5-----|
|--3--3-----3-----3--3-----3-----------3-----|


  Cbb5                          Bbb5
   E  E  E  E  E  E  E  E  E  E  E  E
|-----------9-------------------------||
|-11p10----------10-11h13-10h11----10-||
|-------12----12----------------12----||
|-------------------------------------||
|-------------------------------------||
|-------------------------------------||
|
|  E  E  E  E  E  E  E  E  E  E  E  E
|----------15-------------------------||
|-14p13----------13-14h16-13h14----13-||
|-------15----15----------------15----||
|-------------------------------------||
|-------------------------------------||
|-------------------------------------||
|
|  PM-----------------------------------
|  E  E  E  E  E  E  E  E  E  E  E  E
|-------------------------------------||
|-------------------------------------||
|--6--6-----6-----6--6-----6-----9----||
|--5--5-----5-----5--5-----5-----8----||
|--4--4-----4-----4--4-----4-----7----||
|--3--3-----3-----3--3-----3-----6----||


  Bb5                                         Bbb5
                                             5/4
                              |--3--|
  E  E  E  E  E  E  E  E  E  S  S  S  E  E    E  E  E  E  E  E  E  E  E  E
|---------13-------------13----------------|----------12-------------------|
|14p13----------13-14h16----14h16p14-13----|-14p13----------13-14h16----13-|
|------15----15-------------------------15-|-------15----15----------15----|
|------------------------------------------|-------------------------------|
|------------------------------------------|-------------------------------|
|------------------------------------------|-------------------------------|
|
|                             |--3--|
|  E  E  E  E  E  E  E  E  E  S  S  S  E  E    E  E  E  E  E  E  E  E  E  E
|----------18-------------18----------------|----------18---------------------------------------------------------------||
|-18p16----------16-18h21----18h21p18s16----|-17p16----------16-17h19----16---------------------------------------------||
|-------18----18-------------------------18-|-------18----18----------18------------------------------------------------||
|-------------------------------------------|---------------------------------------------------------------------------||
|-------------------------------------------|------------------------------|------------------------------------------|-||
|
|-------------------------------------|        PM------------------------|
| E  E  E  E  E  E  E  E  E  E        E  E    E  E  E  E  E  E  E  E  E  E
|-------------------------------------------|------------------------------|
|-------------------------------------------|------------------------------|
|-10-10----10----10-10----10----------10----|--9--9-----9-----9--9-----9---|
|--8--8-----8-----8--8-----8-----------8----|--8--8-----8-----8--8-----8---|
|--8--8-----8-----8--8-----8-----------8----|--7--7-----7-----7--7-----7---|
|--6--6-----6-----6--6-----6-----------6----|--6--6-----6-----6--6-----6---|


  Bb5
 6/4
                              |--3--|
   E  E  E  E  E  E  E  E  E  S  S  S  E  E
|----------13-------------13----------------|
|-14p13----------13-14h16----14h16p14-13----|
|-------15----15-------------------------15-|
|-------------------------------------------|
|-------------------------------------------|
|-------------------------------------------|
|
|                             |--3--|
|  E  E  E  E  E  E  E  E  E  S  S  S  E  E
|----------18-------------18----------------|
|-18p16----------16-18h21----18h21p18s16----|
|-------18----18-------------------------18-|
|-------------------------------------------|
|-------------------------------------------|
|-------------------------------------------|
|
|  PM---------------------------------|
|  E  E  E  E  E  E  E  E  E  E        E  E
|-------------------------------------------|
|-------------------------------------------|
|-10-10----10----10-10----10----------10----|
|--8--8-----8-----8--8-----8-----------8----|
|--8--8-----8-----8--8-----8-----------8----|
|--6--6-----6-----6--6-----6-----------6----|


  Bbb5
   E  E  E  E  E  E  E  E  E  E  E  E
|----------12-------------------------||
|-14p13----------13-14h16-13h14----13-||
|-------15----15----------------15----||
|-------------------------------------||
|-------------------------------------||
|-------------------------------------||
|
|  E  E  E  E  E  E  E  E  E  E  E  E
|----------18-------------------------||
|-17p16----------16-17h19-16h17----16-||
|-------18----18----------------18----||
|-------------------------------------||
|-------------------------------------||
|-------------------------------------||
|
|  PM---------------------------|
|  E  E  E  E  E  E  E  E  E  E  E  E
|-------------------------------------||
|-------------------------------------||
|--9--9-----9-----9--9-----9-----9----||
|--8--8-----8-----8--8-----8-----8----||
|--7--7-----7-----7--7-----7-----7----||
|--6--6-----6-----6--6-----6-----6----||


  G5                                          Gbb5
                                             5/4
                              |--3--|
  E  E  E  E  E  E  E  E  E  S  S  S  E  E    E  E  E  E  E  E  E  E  E  E
|---------10-------------10----------------|-----------9-------------------|
|11p10----------10-11h13----11h13p11-10----|-11p10----------10-11h13----10-|
|------12----12-------------------------12-|-------12----12----------12----|
|------------------------------------------|-------------------------------|
|------------------------------------------|-------------------------------|
|------------------------------------------|-------------------------------|
|
|                             |--3--|
| E  E  E  E  E  E  E  E  E  S  S  S  E  E    E  E  E  E  E  E  E  E  E  E
|---------15-------------15----------------|----------15-------------------|
|15p13----------13-15h18----15h18p15s13----|-14p13----------13-14h16----13-|
|------15----15-------------------------15-|-------15----15----------15----|
|------------------------------------------|-------------------------------|
|------------------------------------------|-------------------------------|
|------------------------------------------|-------------------------------|
|
| E  E  E  E  E  E  E  E  E  E        E  E    E  E  E  E  E  E  E  E  E  E
|------------------------------------------|-------------------------------|
|-8--8-----8-----8--8-----8-----------8----|--8--8-----8-----8--8-----8----|
|-7--7-----7-----7--7-----7-----------7----|--6--6-----6-----6--6-----6----|
|-5--5-----5-----5--5-----5-----------5----|--5--5-----5-----5--5-----5----|
|------------------------------------------|-------------------------------|
|------------------------------------------|-------------------------------|


  G5
 6/4
                              |--3--|
   E  E  E  E  E  E  E  E  E  S  S  S  E  E
|----------10-------------10-----------------|
|-11p10----------10-11h13----11h13p11-10-----|
|-------12----12-------------------------12--|
|--------------------------------------------|
|--------------------------------------------|
|--------------------------------------------|
|
|                             |--3--|
|  E  E  E  E  E  E  E  E  E  S  S  S  E  E
|----------15-------------15-----------------|
|-15p13----------13-15h18----15h18p15s13-----|
|-------15----15-------------------------15--|
|--------------------------------------------|
|--------------------------------------------|
|--------------------------------------------|
|
|  E  E  E  E  E  E  E  E  E  E        E  E
|--------------------------------------------|
|--8--8-----8-----8--8-----8-----------8-----|
|--7--7-----7-----7--7-----7-----------7-----|
|--5--5-----5-----5--5-----5-----------5-----|
|--------------------------------------------|
|--------------------------------------------|


  Gbb5                          A5
   E  E  E  E  E  E  E  E  E  E  E  E
|-----------9-------------------------||
|-11p10----------10-11h13-10h11----10-||
|-------12----12----------------12----||
|-------------------------------------||
|-------------------------------------||
|-------------------------------------||
|
|  E  E  E  E  E  E  E  E  E  E  E  E
|----------15-------------------------||
|-14p13----------13-14h16-13h14----13-||
|-------15----15----------------15----||
|-------------------------------------||
|-------------------------------------||
|-------------------------------------||
|
|  E  E  E  E  E  E  E  E  E  E  E  E
|-------------------------------------||
|--8--8-----8-----8--8-----8----------||
|--6--6-----6-----6--6-----6-----9----||
|--5--5-----5-----5--5-----5-----7----||
|-------------------------------------||
|-------------------------------------||


  Bb5                                         Bbb5
                                             5/4
                              |--3--|
  E  E  E  E  E  E  E  E  E  S  S  S  E  E    E  E  E  E  E  E  E  E  E  E
|---------13-------------13----------------|----------12-------------------|
|14p13----------13-14h16----14h16p14-13----|-14p13----------13-14h16----13-|
|------15----15-------------------------15-|-------15----15----------15----|
|------------------------------------------|-------------------------------|
|------------------------------------------|-------------------------------|
|------------------------------------------|-------------------------------|
|
|                             |--3--|
| E  E  E  E  E  E  E  E  E  S  S  S  E  E    E  E  E  E  E  E  E  E  E  E
|---------18-------------18----------------|----------18-------------------|
|18p16----------16-18h21----18h21p18s16----|-17p16----------16-17h19----16-|
|------18----18-------------------------18-|-------18----18----------18----|
|------------------------------------------|-------------------------------|
|------------------------------------------|-------------------------------|
|------------------------------------------|-------------------------------|
|
| E  E  E  E  E  E  E  E  E  E        E  E    E  E  E  E  E  E  E  E  E  E
|-------------------------------------------|------------------------------|
|-11-11----11----11-11----11----------11----|-11-11----11----11-11----11---|
|-10-10----10----10-10----10----------10----|--9--9-----9-----9--9-----9---|
|--8--8-----8-----8--8-----8-----------8----|--8--8-----8-----8--8-----8---|
|------------------------------------------|-------------------------------|
|------------------------------------------|-------------------------------|


  Bb5
 6/4
                              |--3--|
   E  E  E  E  E  E  E  E  E  S  S  S  E  E
|----------13-------------13----------------|
|-14p13----------13-14h16----14h16p14-13----|
|-------15----15-------------------------15-|
|-------------------------------------------|
|-------------------------------------------|
|-------------------------------------------|
|
|                             |--3--|
|  E  E  E  E  E  E  E  E  E  S  S  S  E  E
|----------18-------------18----------------|
|-18p16----------16-18h21----18h21p18s16----|
|-------18----18-------------------------18-|
|-------------------------------------------|
|-------------------------------------------|
|-------------------------------------------|
|
|  E  E  E  E  E  E  E  E  E  E        E  E
|-------------------------------------------|
|-11-11----11----11-11----11----------11----|
|-10-10----10----10-10----10----------10----|
|--8--8-----8-----8--8-----8-----------8----|
|-------------------------------------------|
|-------------------------------------------|


  Bbb5                                   C#5
                                                                     |--3--|
   E  E  E  E  E  E  E  E  E  E  E  E     E  E  E  E  E  E  E  E  E  S  S  S  E  E
|----------12---------------------||---------16-----------16-------------|
|14p13-------13-14h16-13h14----13-||-17p16--------16-17h19--17h19p17-16--|
|-------15----15------------15----||-------18---18---------------------18|
|---------------------------------||-------------------------------------|
|---------------------------------||-------------------------------------|
|---------------------------------||-------------------------------------|
|
|E  E  E  E  E  E  E  E  E  E  E  E     E  E  E  E  E  E  E  E  E  S  S  S  E  E
|-------18----------------------||---------21-------------21---------------|
|17p16------16-17h19-16h17----16||21p19----------19-21h24----21h24p21s19---|
|-----18--18-------------18-----||------21----21-------------------------21|
|-------------------------------||-----------------------------------------|
|-------------------------------||-----------------------------------------|
|-------------------------------||-----------------------------------------|
|

|
|E  E  E  E  E  E  E  E  E  E  E  E     E  E  E  E  E  E  E  E  E  E        E  E
|-----------------------------||-------------------------------------------|
|-11-11----11----11-11----11----11----||-14-14----14----14-14----14------14|
|--9--9-----9-----9--9-----9-----9----||-13-13----13----13-13----13------13|
|--8--8-----8-----8--8-----8-----8----||-11-11----11----11-11----11------11|
|-------------------------------------||-----------------------------------|
|-------------------------------------||-----------------------------------|


  C#b5                            C#5
 5/4                             6/4
                                                              |--3--|
  E  E  E  E  E  E  E  E  E  E    E  E  E  E  E  E  E  E  E  S  S  S  E  E
|---------16-------------------|----------16-------------16----------------|
|17p16----------16-17h19----16-|-17p16----------16-17h19----17h19p17-16----|
|------18----18----------18----|-------18----18-------------------------18-|
|------------------------------|-------------------------------------------|
|------------------------------|-------------------------------------------|
|------------------------------|-------------------------------------------|
|
|                                                             |--3--|
| E  E  E  E  E  E  E  E  E  E    E  E  E  E  E  E  E  E  E  S  S  S  E  E
|---------21-------------------|----------21-------------21----------------|
|20p19----------19-20h22----19-|-21p19----------19-21h24----21h24p21s19----|
|------21----21----------21----|-------21----21-------------------------21-|
|------------------------------|-------------------------------------------|
|------------------------------|-------------------------------------------|
|------------------------------|-------------------------------------------|
|
| E  E  E  E  E  E  E  E  E  E    E  E  E  E  E  E  E  E  E  E        E  E
|------------------------------|-------------------------------------------|
|14-14----14----14-14----14----|-14-14----14----14-14----14----------14----|
|12-12----12----12-12----12----|-13-13----13----13-13----13----------13----|
|11-11----11----11-11----11----|-11-11----11----11-11----11----------11----|
|------------------------------|-------------------------------------------|
|------------------------------|-------------------------------------------|

  C#b5
   E  E  E  E  E  E  E  E  E  E  E  E
|----------16---------------------------||
|-17p16----------16-17h19-16h17----16---||
|-------18----18----------------18------||
|---------------------------------------||
|---------------------------------------||
|---------------------------------------||
|
|  E  E  E  E  E  E  E  E  E  E  E  E
|----------21---------------------------||
|-20p19----------19-20h22-19h20----19---||
|-------21----21----------------21------||
|---------------------------------------||
|---------------------------------------||
|---------------------------------------||
|
|  E  E  E  E  E  E  E  E  E  E  E  E
|---------------------------------------||
|-14-14----14----14-14----14----14------||
|-12-12----12----12-12----12----12------||
|-11-11----11----11-11----11----11------||
|---------------------------------------||
|---------------------------------------||


  E5                                          Eb5
                                             5/4
                              |--3--|
  E  E  E  E  E  E  E  E  E  S  S  S  E  E    E  E  E  E  E  E  E  E  E  E
|---------19-------------19----------------|----------19-------------------|
|20p19----------19-20h22----20h22p20-19----|-20p19----------19-20h22----19-|
|------21----21-------------------------21-|-------21----21----------21----|
|------------------------------------------|-------------------------------|
|------------------------------------------|-------------------------------|
|------------------------------------------|-------------------------------|
|
|                             |--3--|
| E  E  E  E  E  E  E  E  E  S  S  S  E  E    E  E  E  E  E  E  E  E  E  E
|---------24-------------24----------------|----------24-------------------|
|24p22----------22-24h27----24h27p24s22----|-23p22----------22-23h25----22-|
|------24----24-------------------------24-|-------24----24----------24----|
|------------------------------------------|-------------------------------|
|------------------------------------------|-------------------------------|
|------------------------------------------|-------------------------------|
|
| E  E  E  E  E  E  E  E  E  E        E  E    E  E  E  E  E  E  E  E  E  E
|------------------------------------------|-------------------------------|
|17-17----17----17-17----17----------17----|-17-17----17----17-17----17----|
|16-16----16----16-16----16----------16----|-15-15----15----15-15----15----|
|14-14----14----14-14----14----------14----|-14-14----14----14-14----14----|
|------------------------------------------|-------------------------------|
|------------------------------------------|-------------------------------|


  E5
 6/4
                              |--3--|
   E  E  E  E  E  E  E  E  E  S  S  S  E  E
|----------19-------------19----------------|
|-20p19----------19-20h22----20h22p20-19----|
|-------21----21-------------------------21-|
|-------------------------------------------|
|-------------------------------------------|
|-------------------------------------------|
|
|                             |--3--|
|  E  E  E  E  E  E  E  E  E  S  S  S  E  E
|----------24-------------24----------------|
|-24p22----------22-24h27----24h27p24s22----|
|-------24----24-------------------------24-|
|-------------------------------------------|
|-------------------------------------------|
|-------------------------------------------|
|
|  E  E  E  E  E  E  E  E  E  E        E  E
|-------------------------------------------|
|-17-17----17----17-17----17----------17----|
|-16-16----16----16-16----16----------16----|
|-14-14----14----14-14----14----------14----|
|-------------------------------------------|
|-------------------------------------------|


  Eb5
   E  E  E  E  E  E  E  E  E  E  E  E
|----------19-------------------------||
|-20p19----------19-20h22-19h20----19-||
|-------21----21----------------21----||
|-------------------------------------||
|-------------------------------------||
|-------------------------------------||
|
|  E  E  E  E  E  E  E  E  E  E  E  E
|----------24-------------------------||
|-23p22----------22-23h25-22h23----22-||
|-------24----24----------------24----||
|-------------------------------------||
|-------------------------------------||
|-------------------------------------||
|
|  E  E  E  E  E  E  E  E  E  E  E  E
|-------------------------------------||
|-17-17----17----17-17----17----17----||
|-15-15----15----15-15----15----15----||
|-14-14----14----14-14----14----14----||
|-------------------------------------||
|-------------------------------------||


 Guitar Break
  G5/D                   Gb5
 6/4                    5/4
  Gtr I
  E E Q  H      E E Q    E E Q  H      E E
|----------------------|-------------------|
|-8-8-----------8-8----|-8-8-----------8-8-|
|-7-7-----------7-7----|-6-6-----------6-6-|
|-5-5-----------5-5----|-5-5-----------5-5-|
|-5-5-----------5-5----|-5-5-----------5-5-|
|----------------------|-------------------|
|
| Gtr II
| E E Q  E E Q  H        H      E E H
|----------------------|-------------------|
|-8-8----8-8-----------|--------8-8--------|
|-7-7----7-7-----------|--------6-6--------|
|-5-5----5-5-----------|--------5-5--------|
|-5-5----5-5-----------|--------5-5--------|
|----------------------|-------------------|


  G5/D                    Eb5
 6/4
  H.         E E H        H      Q  E E H
|-----------------------|-----------------------||
|------------8-8--------|-----------8-8---------||
|------------7-7--------|-----------6-6---------||
|------------5-5--------|-----------5-5---------||
|------------5-5--------|-----------5-5---------||
|-----------------------|-----------------------||
|
| Q   E E Q  H      E E   Q  E E Q  H      E E
|-----------------------|-----------------------||
|-----8-8-----------8-8-|----8-8-----------8-8S=||
|-----7-7-----------7-7-|----6-6-----------6-6S=||
|-----5-5-----------5-5-|----5-5-----------5-5S=||
|-----5-5-----------5-5-|----5-5-----------5-5S=||
|-----------------------|-----------------------||


  Bb5/F                        Bbb5
                              5/4
   H        E  E Q   H          E  E Q   E  E H
|----------------------------|-------------------------|
|----------11-11-------------|-11-11----11-11----------|
|----------10-10-------------|--9--9-----9--9----------|
|-----------8--8-------------|--8--8-----8--8----------|
|-----------8--8-------------|--8--8-----8--8----------|
|----------------------------|-------------------------|
|
|  E  E Q   H        E  E Q     W                 E  E
|----------------------------|-------------------------|
|-11-11-------------11-11----|-------------------11-11-|
|-10-10-------------10-10----|--------------------9--9-|
|--8--8--------------8--8----|--------------------8--8-|
|--8--8--------------8--8----|--------------------8--8-|
|----------------------------|-------------------------|


     Bb5/F                        Bbb5
 6/4
  Q   E  E Q   H        E  E   Q   H        E  E Q   E  E
|----------------------------|----------------------------||
|----11-11-------------11-11-|-------------11-11----11-11-||
|----10-10-------------10-10-|--------------9--9-----9--9-||
|-----8--8--------------8--8-|--------------8--8-----8--8-||
|-----8--8--------------8--8-|--------------8--8-----8--8-||
|----------------------------|----------------------------||
|
| Q   H        E  E Q   Q      Q   E  E Q   H        E  E
|----------------------------|----------------------------||
|-------------11-11----------|----11-11-------------11-11-||
|-------------10-10----------|-----9--9--------------9--9-||
|--------------8--8----------|-----8--8--------------8--8-||
|--------------8--8----------|-----8--8--------------8--8-||
|----------------------------|----------------------------||


  N.C.
  Gtrs I, II
  E E E  E E  E E E  E E E  E
|-----------------------------|
|-----------------------------|
|-----------------------------|
|----------------------7-8-10-|
|---------------7-9-10--------|
|-9-8-9-11-9-11---------------|


 5/4                            6/4
   E  E  E  E  E  E E  E  E  E   E E E  E E  E E E  E E E  E
|------------------------------|------------------------------|
|---------------------------10-|------------------------------|
|-------------------9-11-12----|------------------------------|
|-11-10-11-13-11-13------------|----------------------7-8-10--|
|------------------------------|---------------7-9-10---------|
|------------------------------|-9-8-9-11-9-11----------------|


   E  E  E  E  E  E E  E  E  E  E  E     E E  E  E  E  E E  E  E E E  E
|------------------------------------||---------------------------------|
|---------------------------10-11-13-||---------------------------------|
|-------------------9-11-12----------||---------------------------------|
|-11-10-11-13-11-13------------------||--------------------------8-9-11-|
|------------------------------------||------------------8-10-11--------|
|------------------------------------||-10-9-10-12-10-12----------------|


   E  E  E  E  E  E  E  E  E  E  E  E
|--------------------------------------|
|----------------------------11-12-14--|
|-------------------10-12-13-----------|
|-12-11-12-14-12-14--------------------|
|--------------------------------------|
|--------------------------------------|


  Gtr I
   |--3--|  |--3--|  |--3--|  |--3--|  |--3--|  |--3--|
   E  E  E  E  E  E  E  E  E  E  E  E  E  E  E  E  E  E
|-------------------------------------19-17-16-20-19-17-|
|-13-12-10-15-13-12-18-16-15-19-18-16-------------------|
|-------------------------------------------------------|
|-------------------------------------------------------|
|-------------------------------------------------------|
|-------------------------------------------------------|
|
| Gtr II
|  |--3--|  |--3--|  |--3--|  |--3--|  |--3--|  |--3--|
|  E  E  E  E  E  E  E  E  E  E  E  E  E  E  E  E  E  E
|-------------------------------------19-17-16-20-19-17-|
|-13-12-10-15-13-12-18-16-15-19-18-16-------------------|
|-------------------------------------------------------|
|-------------------------------------------------------|
|-------------------------------------------------------|
|-------------------------------------------------------|


   S  S  S  S  S  S  S  S  S  S  S  S  S  S  S  S  S  S  S  S  S  S  S  S
|-19-20-19-17-------------------------------------------------------------||
|-------------19-16-15-19-16-15-------------------------------------------||
|-------------------------------17-16-14-17-16-14-------------------------||
|-------------------------------------------------16-14-13----------------||
|----------------------------------------------------------15-14-12-------||
|-------------------------------------------------------------------15-14-||
|
|  S  S  S  S  S  S  S  S  S  S  S  S  S  S  S  S  S  S  S  S  S  S  S  S
|-22-23-22-20-------------------------------------------------------------||
|-------------22-20-19-22-20-19-------------------------------------------||
|-------------------------------20-19-17-20-19-17-------------------------||
|-------------------------------------------------19-17-16----------------||
|----------------------------------------------------------18-17-15-------||
|-------------------------------------------------------------------18-17-||


 Return
  Q=188
  E5                          Bb5                                 G5
 6/8
  Gtrs I, II
  PM----------------------------------------------------------------|
  E E E E E E   E E E E E E   E E E E E E   E E E E E E   E E E E E E
|-------------|-------------|-------------|-------------|-------------|
|-------------|-------------|-------------|-------------|-------------|
|-------------|-------------|-------------|-------------|-------------|
|-------------|-------------|-------------|-------------|-------------|
|-2---2---2---|-2---2---2---|-8-8-8-8-2---|-2---2---2---|-2---2---5-5-|
|-0---0---0---|-0---0---0---|-6-6-6-6-0---|-0---0---0---|-0---0---3-3-|


      E5                          Cb5
  PM---------------------------------------
  E E E E E E   E E E E E E   E E E E E E
|-------------|-------------|-------------|
|-------------|-------------|-------------|
|-------------|-------------|-------------|
|-------------|-------------|-----4-4-4-4-|
|-5-5-2---2---|-2---2---2---|-2---3-3-3-3-|
|-3-3-0---0---|-0---0---0---|-0-----------|


  E5                          Dsus2
                             3/8
 -------------------------|
  E E E E E E   E E E E E E   E E E
|-------------|-------------|---------||
|-------------|-------------|---------||
|-------------|-------------|-9-9-9---||
|-------------|-------------|-7-7-7---||
|-2---2---2---|-2---2---2---|-5-5-5---||
|-0---0---0---|-0---0---0---|---------||


 Keyboard solo
    E5                        Bb5       E5                        Gsus2
 4/4
  E E E E E E E E   E E E E E E E E   E E E E E E E E   E E E E E E E E
|-----------------|-----------------|-----------------|-----------------|
|-----------------|-----------------|-----------------|-----------------|
|-9---------------|-----------------|-----------------|-----------------|
|-7---------------|-----------------|-----------------|-----------7-7-7-|
|-5-2---2---2---2-|---2---2---8-8-8-|-8-2---2---2---2-|---2---2---5-5-5-|
|---0---0---0---0-|---0---0---6-6-6-|-6-0---0---0---0-|---0---0---3-3-3-|


    E5                        Cb5       E5                        Dsus2
  E E E E E E E E   E E E E E E E E   E E E E E E E E   E E E E E E E E
|-----------------|-----------------|-----------------|-----------------|
|-----------------|-----------------|-----------------|-----------------|
|-----------------|-----------5-5-5-|-5---------------|-----------9-9-9-|
|-7---------------|-----------4-4-4-|-4---------------|-----------7-7-7-|
|-5-2---2---2---2-|---2---2---3-3-3-|-3-2---2---2---2-|---2---2---5-5-5-|
|-3-0---0---0---0-|---0---0---------|---0---0---0---0-|---0---0---------|


    E5                                F#G5
   4/4
        PM    PM    PM      PM
    E E E  E  E  E  E  E    E  E  E E E E E E
||------------------------|-------------------|
||o--------5-----5-----5--|----5--------------|
||---------4-----4-----4--|----4--------------|
||---------2-----2-----2--|----2--------------|
||o-2-2---(2)-2-(2)-2-(2)-|-2-(2)-2-2-4s5-5-5-|
||--0-0-0-----0-----0-----|-0-----0-0-2s3-3-3-|


  E5                                G5Bb5
      PM    PM    PM      PM
  E E E  E  E  E  E  E    E  E  E E E E E E
|-----------------------|--------------------|
|--------5-----5-----5--|----5---------------|
|--------4-----4-----4--|----4---------------|
|--------2-----2-----2--|----2---------------|
|-2-2---(2)-2-(2)-2-(2)-|-2-(2)-2-2-5s8-8-8--|
|-0-0-0-----0-----0-----|-0-----0-0-3s6-6-6--|


  E5                                F#G5
      PM    PM    PM      PM
  E E E  E  E  E  E  E    E  E  E E E E E E
|-----------------------|-------------------|
|--------5-----5-----5--|----5--------------|
|--------4-----4-----4--|----4--------------|
|--------2-----2-----2--|----2--------------|
|-2-2---(2)-2-(2)-2-(2)-|-2-(2)-2-2-4s5-5-5-|
|-0-0-0-----0-----0-----|-0-----0-0-2s3-3-3-|


  E5                N.C.                F5
      PM    PM    PM       ~
  E E E  E  E  E  E  E   E E +E   E E E E E
|----------------------|-----------------------||
|--------5-----5-------|--------------------o--||
|--------4-----4-------|-----------------------||
|--------2-----2-------|-----------------------||
|-2-2---(2)-2-(2)-2----|-5----------2---3-3-o--||
|-0-0-0-----0-----0-/7-|---7-(7)-3---3-1-1-----||


 Chorus
  Csus2
 7/4                   8/4
  Gtr I
  H    Q.   Q.   H      H    Q.   Q.   Q   H
|-----------3---------|-----------3-------------------------------|
|------3---------3----|------3---------3--------------------------|
|-5-------------------|-5------------------5----------------------|
|-5-------------------|-5-----------------------------------------|
|-3-------------------|-3-----------------------------------------|
|---------------------|-------------------------------------------|
|
| Gtr II
| H    Q.   Q.   H      H    Q.   Q.   Q   S  S  S  S  S  S  S  S
|-----------3---------|-----------3-------------------------------|
|------3---------3----|------3---------3--13-15-13-12-------------|
|-5-------------------|-5-----------------------------12-14-12-11-|
|-5-------------------|-5-----------------------------------------|
|-3-------------------|-3-----------------------------------------|
|---------------------|-------------------------------------------|


  N.C.(Em)
 7/4
  Q  Q   Q   E E +E  E +E   E  +E   E
|----------------------------------------|
|----------------------------------------|
|--------9---9-------------11-(11)-11----|
|--------x---x--------------x-------x----|
|--------7---7--------------9--(9)--9----|
|-0--0---------0-(0)-0-(0)---------------|
|
| Q  Q   Q   E E +E  E +E   E  +E   E
|----------------------------------------|
|----------------------------------------|
|-------12--12-------------14-(14)-14----|
|--------x---x--------------x-------x----|
|-------10--10-------------12-(12)-12----|
|-0--0---------0-(0)-0-(0)---------------|


                                          Csus2
 8/4                                     7/4
                                          Gtrs I, II
  Q  Q   Q   E E +E  E +E   Q   +E   Q    H    Q.   Q.   H
|---------------------------------------|-----------3---------|
|---------------------------------------|------3---------3----|
|-------12--12-------------14--(14)s16--|-5-------------------|
|--------x---x--------------x-----------|-5-------------------|
|-------10--10-------------12--(12)s14--|-3-------------------|
|-0--0---------0-(0)-0-(0)--------------|---------------------|
|
| Q  Q   Q   E E +E  E +E   Q   +E   Q    W
|---------------------------------------|---------------------|
|---------------------------------------|---------------------|
|-------16--16-------------17--(17)s19--|---------------------|
|--------x---x--------------x-----------|---------------------|
|-------14--14-------------15--(15)s17--|---------------------|
|-0--0---------0-(0)-0-(0)--------------|---------------------|


                    D5/A   G5   A5   F#5  C5     N.C.          F5
 8/4                      10/4
                                                                ~~~
                                                 |-3-| |-3-|
  H    Q.   Q.   Q  H      Q.   Q.   Q  E E +Q   E E E E E E E  Q.
|-----------3------------|--------------------------------------------||
|------3---------3-------|--------------------------------------------||
|-5----------------------|-----------------------5-2------------------||
|-5-----------------7----|----------------5-(5)------4-1--------------||
|-3-----------------5----|-5----7----4--x-3-(3)----------3-0-x-[8]----||
|-------------------5----|-3----5----2--x--------------------x--------||


   Bridge
    N.C.        G5F#5 A5   F#5   G5  N.C.        G5F#5 C5 F#G5F#G5
   8/4
    PM~  PM~  PM    PM   PM          PM~  PM~  PM    PM
    E Q  E Q  E E E E Q  E E +E  E   E Q  E Q  E E E E Q  E E E E  4x
||---------------------------------|-------------------------------||
||o--------------------------------|------------------------------o||
||---------------------------------|-------------------------------||
||---------------------------------|-------------------5-----------||
||o-------------5s4---7----4-(4)s5-|-------------5s4---3--4-5-4-5-o||
||--0-7--0-6--0-3s2-0-5--0-2-(2)s3-|-0-7--0-6--0-3s2-0----2-3-2-3--||


   Outro
    E5                                F#G5
   4/4
        PM    PM    PM      PM
    E E E  E  E  E  E  E    E  E  E E E E E E
||------------------------|-------------------|
||o--------5-----5-----5--|----5--------------|
||---------4-----4-----4--|----4--------------|
||---------2-----2-----2--|----2--------------|
||o-2-2---(2)-2-(2)-2-(2)-|-2-(2)-2-2-4s5-5-5-|
||--0-0-0-----0-----0-----|-0-----0-0-2s3-3-3-|


  E5                                G5Bb5
      PM    PM    PM      PM
  E E E  E  E  E  E  E    E  E  E E E E E E
|-----------------------|--------------------|
|--------5-----5-----5--|----5---------------|
|--------4-----4-----4--|----4---------------|
|--------2-----2-----2--|----2---------------|
|-2-2---(2)-2-(2)-2-(2)-|-2-(2)-2-2-5s8-8-8--|
|-0-0-0-----0-----0-----|-0-----0-0-3s6-6-6--|


  E5                                F#G5
      PM    PM    PM      PM
  E E E  E  E  E  E  E    E  E  E E E E E E
|-----------------------|-------------------|
|--------5-----5-----5--|----5--------------|
|--------4-----4-----4--|----4--------------|
|--------2-----2-----2--|----2--------------|
|-2-2---(2)-2-(2)-2-(2)-|-2-(2)-2-2-4s5-5-5-|
|-0-0-0-----0-----0-----|-0-----0-0-2s3-3-3-|


  E5                N.C.                F5
      PM    PM    PM       ~
  E E E  E  E  E  E  E   E E +E   E E E E E  3x
|----------------------|-----------------------||
|--------5-----5-------|--------------------o--||
|--------4-----4-------|-----------------------||
|--------2-----2-------|-----------------------||
|-2-2---(2)-2-(2)-2----|-5----------2---3-3-o--||
|-0-0-0-----0-----0-/7-|---7-(7)-3---3-1-1-----||


  E5                                F#G5
      PM    PM    PM      PM
  E E E  E  E  E  E  E    E  E  E E E E E E
|-----------------------|-------------------|
|--------5-----5-----5--|----5--------------|
|--------4-----4-----4--|----4--------------|
|--------2-----2-----2--|----2--------------|
|-2-2---(2)-2-(2)-2-(2)-|-2-(2)-2-2-4s5-5-5-|
|-0-0-0-----0-----0-----|-0-----0-0-2s3-3-3-|


  E5                                G5Bb5
      PM    PM    PM      PM
  E E E  E  E  E  E  E    E  E  E E E E E E
|-----------------------|-------------------|
|--------5-----5-----5--|----5--------------|
|--------4-----4-----4--|----4--------------|
|--------2-----2-----2--|----2--------------|
|-2-2---(2)-2-(2)-2-(2)-|-2-(2)-2-2-5s8-8-8-|
|-0-0-0-----0-----0-----|-0-----0-0-3s6-6-6-|


  E5                                F#G5
      PM    PM    PM      PM
  E E E  E  E  E  E  E    E  E  E E E E E E
|-----------------------|-------------------|
|--------5-----5-----5--|----5--------------|
|--------4-----4-----4--|----4--------------|
|--------2-----2-----2--|----2--------------|
|-2-2---(2)-2-(2)-2-(2)-|-2-(2)-2-2-4s5-5-5-|
|-0-0-0-----0-----0-----|-0-----0-0-2s3-3-3-|


  E5                N.C.
      PM    PM    PM       ~             ~~~~~~~~~~
  E E E  E  E  E  E  E   E E +E   E E E  Q     +Q   +Q    H
|----------------------|---------------------|-------------------||
|--------5-----5-------|---------------------|-------------------||
|--------4-----4-------|---------------------|-------------------||
|--------2-----2-------|---------------------|-------------------||
|-2-2---(2)-2-(2)-2----|-5----------2---[8]--|-(8)--(8)----------||
|-0-0-0-----0-----0-/7-|---7-(7)-3---3------|--------------------||

-----------------------------------------------------------------------

5. VACANT
Tuning - B,E,A,D,G,B,E

Bass Intro
  Q=100
  C#m               B
 6/4
  Gtr I
  W        +H       W        +H
|-----------------|-----------------|
|-----------------|-----------------|
|-----------------|-----------------|
|-2--------(2)----|-1--------(1)----|
|-4--------(4)----|-2--------(2)----|
|-----------------|-----------------|
|-----------------|-----------------|
|
| Gtr II
| W         H       W         H
|-----------------|-----------------|
|-----------------|-----------------|
|-----------------|-----------------|
|-----------------|-----------------|
|-----------------|-----------------|
|-----------------|-----------------|
|-----------------|-----------------|


  C#m                     B
  W           +H          W           +H
|-----------------------|-----------------------|
|-----------------------|-----------------------|
|-----------------------|-----------------------|
|-2-----------(2)-------|-1-----------(1)-------|
|-4-----------(4)-------|-2-----------(2)-------|
|-----------------------|-----------------------|
|-2-----------(2)-------|-0-----------(0)-------|
|
|       >                       >
|    ~~~~~                   ~~~~~
| E  Q  W           +E    E  Q  W           +E
|-----------------------|-----------------------|
|-----------------------|-----------------------|
|-----------------------|-----------------------|
|---/6--7-----------(7)-|---/7S=6-----------(6)-|
|-----------------------|-----------------------|
|-----------------------|-----------------------|
|-----------------------|-----------------------|


  C#5/A                      G#m
  E  Q  Q.   E E E Q.        E  Q  Q.   E E E Q.
|--------------------------|--------------------------|
|--------------------------|--------------------------|
|----------------6---------|----4-----------4---------|
|----6--4------6---4-------|----4--2------4---2-------|
|-0----------0-------------|-2----------2-------------|
|--------------------------|-4----------4-------------|
|--------------------------|--------------------------|
|
|       >                          >
|    ~~~~~~                     ~~~~~~
| E  Q  W              +E    E  Q  W              +E
|--------------------------|--------------------------|
|--------------------------|--------------------------|
|--------------------------|--------------------------|
|---/6--4--------------(4)-|---/4--2--------------(2)-|
|--------------------------|--------------------------|
|--------------------------|--------------------------|
|--------------------------|--------------------------|


  F#m         E             D#m
  E  E +H     E  E E Q.     Q   Q  Q   Q.   Q.
|-------------------------|-----------------------|
|-------------------------|-----------------------|
|----2-(2)-------1---1----|--------6---6----5-----|
|----4-(4)-------2--------|-----4------6----------|
|------------------2-4----|-4---------------------|
|-2-----------0-----------|------------4----------|
|-------------------------|-----------------------|
|
| <           <                        >
| ~~~~~~~~~~~~~~~~~~~~~~~~~~~~~~~~~~~~~~~~
| H.          H.            H.         H.
|-------------------------|-----------------------|
|-------------------------|-----------------------|
|-------------------------|-----------------------|
|-------------------------|-----------------------|
|-------------------------|-----------------------|
|-2-----------0-----------|-----------/4----------|
|-------------------------|-4---------------------|


 Verse
  C#m                   B
  H.      Q   E  E Q    H     E E  H         +E  E
|---------------------|----------------------------|
|-------------9----9--|------12---12--------(12)---|
|-1-------6---8----9--|-9-------9--9---------(9)---|
|-2--------------6----|-6----------6---------(6)---|
|-4--------------4----|-2--------------------------|
|---------------------|--------------------------4-|
|-2-------------------|----------------------------|
|
|                       <
| ~~~~~~~~~~~~~~~~~~~~~~~~~~~~~~~~~~~~~~~~~~~~~~~~~~
| W          +H         W             +H
|---------------------|----------------------------|
|---------------------|----------------------------|
|---------------------|----------------------------|
|---------------------|----------------------------|
|---------------------|----------------------------|
|---------------------|-7-------------(7)\---------|
|-2----------(2)------|----------------------------|


  C#m                     B
  H    +E  E Q   Q   Q    H.      Q    Q   Q
|------------9-------9--|-7---------------------|
|----------------9------|---------9-------------|
|------------9---6---9--|-8-------8----8--------|
|-2----(2)--------------|-6-------9----9---9----|
|-4----(4)-4------------|-------------11--11----|
|-----------------------|---------7-------11----|
|-2----(2)--------------|--------------9---4----|
|
|~~~~~~~~~~~~~~~~~~~~~~~~~~~~~~~~~~~~
| W             +H        H.      H.
|-----------------------|-----------------------|
|-----------------------|-----------------------|
|-----------------------|-----------------------|
|-----------------------|-----------------------|
|-----------------------|-----------------------|
|-----------------------|-7-------4-------------|
|-2-------------(2)-----|-----------------------|


  A                    E         E/C#
   H.       Q  Q  Q    H     E E Q   Q  Q
|--------------------|---------------------|
|----------10--------|---------------------|
|--------------------|-9-----6-8-9---6-----|
|-11--------7--------|------------------6--|
|-12-----------------|-----------4---------|
|--5--------2--4--5--|-0-------------------|
|--------------------|-----------2---------|
|
|           <
|           ~~~~~~~~~~~~~~~~~~~~~~~~
|  H.       Q  Q  Q    H.        H.
|--------------------|---------------------|
|--------------------|---------------------|
|--------------------|---------------------|
|--------------------|---------------------|
|--------------------|---------------------|
|-----------2--4--5--|-0-------------------|
|--------------------|-----------2---------|


  D#m                    G#m
   Q.   E E E Q  Q  Q    Q.   E E E H    +E  E
|-------------5--------|-------------------------|
|--7--------7-7--------|-------------------------|
|--6------6------------|--------6-8-5----(5)-----|
|-------7-----------4--|-6----6------------------|
|--4-------------4-----|-3-----------------------|
|----------------2--5--|-4-------------------4---|
|--4-------------------|-------------------------|
|
|  >
|                        ~~         ~
|  W             H       Q.   E E E H    +E  E
|----------------------|-------------------------|
|----------------------|-------------------------|
|----------------------|-------------------------|
|----------------------|--------4S6S7----(7)-6---|
|----------------------|------6------------------|
|----------------------|-4-----------------------|
|-/4-------------------|-------------------------|


  C#m                      B
   Q.   E E E  Q   Q  Q    H.       Q.    Q     E
|--------------9------9--|-7-------12-------------|
|--------------9---9--9--|-7-------12----12-------|
|-----------1------9-----|---------------11-------|
|---------2--------------|----------------------6-|
|--4----4----------------|-2----------------------|
|------------------------|------------------------|
|--2---------------------|-0----------------------|
|
|              >           <
|  ~~~
|  H.         +H.          H.       H       +E  E
|------------------------|------------------------|
|------------------------|------------------------|
|------------------------|------------------------|
|-/6----------(6)--------|-4--------4-------(4)-6-|
|------------------------|------------------------|
|------------------------|------------------------|
|------------------------|------------------------|


  C#m                           B
   Q.      E E E  Q   Q   Q     H.         Q.   E Q
|--9---------4---12--11---9---|-7----------------------|
|--9-------5------9---7---5---|-4----------4-----------|
|--------------6--9---8---6---|------------1----4------|
|-----------------------------|-------------------6----|
|-----------------------------|-------------------6----|
|-----------------------------|-------------------7----|
|-----------------------------|------------------------|
|
|  <                                 <
|                                          ~~
|  Q   +W                +Q     Q.   E. E. H.
|-----------------------------|------------------------|
|-----------------------------|------------------------|
|-----------------------------|------9--8--------------|
|-/6---(6)---------------(6)--|------------9-----------|
|-----------------------------|------------------------|
|-----------------------------|------------------------|
|-----------------------------|------------------------|


  F#m/A                 C#m/E   C#m
  H    E E Q   Q   Q    H.      H.
|---------------------|-----------------|
|----------7----------|-9-------5-------|
|-2----7-9-7----------|-6-------6-------|
|-4-------------------|-6-------6-------|
|-0-------------------|-7-------4-------|
|----------2---4---5--|-0---------------|
|---------------------|---------2-------|
|
| >
| ~                     ~~~~~~~~~~~
| W           +H        H.      H.
|---------------------|-----------------|
|---------------------|-----------------|
|---------------------|-----------------|
|-7-----------(7)-----|-----------------|
|---------------------|-----------------|
|---------------------|-0---------------|
|---------------------|---------2-------|


  D#°                       G#m
   Q.   E E E  Q   Q   Q     H       E E Q   Q    E E
|-------------14----------|--------------4--------------|
|-----------------14------|------------4-----4----------|
|--2------8-----------14--|-13-------6---5--------5-----|
|--4----7---7-------------|-------------------------2---|
|--6----------------------|--6--------------------------|
|-------------------------|--4----------------------0---|
|--4----------------------|-----------------------------|
|
|  >
|                            ~~~~~~~~~~~~~~~~~~~~~
|  W               H         Q.   Q.     Q.    Q.
|-------------------------|-----------------------------|
|-------------------------|-/7----5------4-----7--------|
|-------------------------|-----------------------------|
|-------------------------|-----------------------------|
|-------------------------|-----------------------------|
|-------------------------|-----------------------------|
|-/4----------------------|-----------------------------|


  A                       Eadd9
  H    +E  E Q   Q   Q     H       +E  E Q   E E  E E
|------------7---7---9--|--4-------(4)---7-----7------|
|------------5---5---5--|--5-------(5)---5-----5------|
|-6----(6)-------6---6--|--------------4-4---4----4---|
|-7----(7)-7-----7------|--4-------(4)------------2---|
|-0----(0)--------------|--7-------(7)----------------|
|-----------------------|---------------------------0-|
|-----------------------|-----------------------------|
|
| >
| ~                        ~~~~~~~~~~~~~~~~~~~~~~~~~~~~
| W             +H         Q.   Q.       Q.    Q.
|-----------------------|-----------------------------|
|-5-------------(5)-----|-/7----5--------------5------|
|-----------------------|----------------4------------|
|-----------------------|-----------------------------|
|-----------------------|-----------------------------|
|-----------------------|-----------------------------|
|-----------------------|-----------------------------|


  A                           G#m
   H     E E  Q    E E  E E   H     +E  E Q  Q  Q
|------------12---12---12---|-7-----(7)---7----------|
|------------10---10---12---|-7-----(7)---5--4-------|
|--6-------4---------6----4-|-9-----(9)-2-4--4--4----|
|--7-----7------------------|-------------------6----|
|--0------------------------|------------------------|
|---------------------------|------------------------|
|---------------------------|------------------------|
|
|~~~~~~~~~~~~~~~~~~~~~~~~~~~~~~~~~~~~~~~~~~~~~~~~~
|  H.         H.              H.          Q  Q  Q
|---------------------------|------------------------|
|-/5------------------------|-------------4----------|
|-------------2-------------|-4--------------4--1----|
|---------------------------|------------------------|
|---------------------------|------------------------|
|---------------------------|------------------------|
|---------------------------|------------------------|


  F#m                       E
   Q.   E  E  E  Q  Q  Q    Q.   E E  E  Q    Q  E E
|-------------------------|-------------12----9------|
|--7------10-10-10--------|--------9-10-10---10------|
|--7-------7--9-11--------|-9----9---------------9---|
|-------7--7--7--4--6--7--|-6----------------------7-|
|-------------------------|--------------------------|
|--2-------------2--4--5--|-0------------------------|
|-------------------------|--------------------------|
|
|                           ~~~~~~~~~~~~~~~~~~~~~~~~~~
|  H.            Q  Q  Q    H.           H.
|-------------------------|--------------------------|
|-------------------------|--------------------------|
|-------------------------|--------------------------|
|-/4-------------4--6--7--|-2------------------------|
|-------------------------|--------------------------|
|-------------------------|--------------0-----------|
|-------------------------|--------------------------|


  F#m                     D#m
   Q.   E  E E Q  Q  Q    Q.   E E E H.
|--------------5--------|------------------|
|-10------10---7--------|------------------|
|--7-------7-9----------|------8---8-------|
|-------7------4--7--7--|-7------7---6-----|
|--------------------5--|-6----------------|
|--2-----------2--5-----|------------------|
|-----------------------|-4----------------|
|
|~~~~~                    ~~~~~~~~~~~~~~
|  H.          Q  Q  Q    H.         H.
|-----------------------|------------------|
|-----------------------|------------------|
|-----------------------|------------------|
|-----------------------|------------------|
|-----------------------|------------------|
|--2-----------2--5-----|-2----------4-----|
|--------------------3--|------------------|


 Ending
  C#m                        B
  E E E Q.   E E  E   Q.     E  E E Q.   E E  E Q.
|--------------4-12--------|---------------5-11-------|
|------------5-------10----|-------------4------9-----|
|------------6-------------|-------------4------------|
|-2-6---7------------------|-1--7---6-----------------|
|-4---4------4----4--------|-2----2------2----2-------|
|--------------------------|--------------------------|
|--------------------------|--------------------------|
|
| ~~~~~~~~~~~~~~~~~~~                    ~~~~~~~~~~~~~~
| W              +H          H.          Q    Q    Q
|--------------------------|-----------------------5--|
|--------------------------|-------------4----5-------|
|--------------------------|--------------------------|
|--------------------------|--------------------------|
|--------------------------|--------------------------|
|--------------------------|--------------------------|
|-2--------------(2)-------|--------------------------|


  C#m                             B
   E  E E Q.     E E  E  Q.       E E E Q.     E  E  E Q.
|------------------4-12---------|-----------------5-11-------|
|-----------------------10------|--------------4-------9-----|
|----------------6--------------|--------------4-------------|
|--2--6---7---------------------|-1-7---6--------------------|
|--4----4--------4----4---------|-2---2--------2-----2-------|
|-------------------------------|----------------------------|
|-------------------------------|----------------------------|
|
|~~~~~~~~~~~~~~~                  ~            ~~
| +H         H.             E E   Q   Q    E E H.
|-(5)--------4--------------2S0-|-4---2----2-0-4-------------|
|-------------------------------|----------------------------|
|-------------------------------|----------------------------|
|-------------------------------|----------------------------|
|-------------------------------|----------------------------|
|-------------------------------|----------------------------|
|-------------------------------|----------------------------|


  Am6                      G#m
   Q.   Q.   E  E E Q.      H.       E  E E Q.
|------------------------|----------------7------|
|------------------------|--------------7---5----|
|-----------------6------|--4--------4-----------|
|--6----4-------6---4----|--6--------------------|
|--0---------0-----------|-----------------------|
|------------------------|--4--------4-----------|
|------------------------|-----------------------|
|
|  <                        <
|  ~~~~~~~~~~~~~~~~~~~~~~~~~~~~~~~~~~~~~~~~~~~~
|  Q.   H       Q   Q.      Q.   H      Q   Q.
|------------------------|-----------------------|
|------------------------|-----------------------|
|------------------------|-----------------------|
|-/6----4------/6---4----|-/4----2-----/4---2----|
|------------------------|-----------------------|
|------------------------|-----------------------|
|------------------------|-----------------------|


                        Q=90     Q=80 Q=60
  F#m       E           D#m                  C#m
  Q.   Q.   Q.   Q.      H.      Q.   Q.     W        +H
|-0-------------------|--------------------|-----------------*|
|------4----4----2----|--2-------2----1----|-----------------*|
|---------------------|--------------------|-----------------*|
|-2----1--------------|--4-------4----4----|-2--------(2)----*|
|-----------6----4----|--------------------|-4--------(4)----*|
|-2----2----0----0----|----------4---------|-----------------*|
|---------------------|--4-----------------|-2--------(2)----*|
|
| <         <
|                        ~~~                 ~~~~~~~~~~~~~
| Q.   Q.   Q.   Q.      H.      Q.   Q.     W        +H
|---------------------|--------------------|-----------------*|
|---------------------|--------------------|-----------------*|
|---------------------|--------------------|-----------------*|
|-2----1----1---------|--------------------|-----------------*|
|----------------4----|-/4-------4----3----|-----------------*|
|---------------------|--------------------|-----------------*|
|---------------------|--------------------|-2--------(2)----*|

--------------------------------------------------------------------

6. STREAM OF CONSCIOUSNESS
Tuning - Eb,Ab,Db,Gb,Bb,Eb

Intro
    Moderately Q=118
    (D)                   (C)
   5/4
    Gtr I
    E E E E E E E E E E   E E E E E E E E E E  4x
||----------------------|----------------------||
||o---------------------|---------------------o||
||----3-2-3-2---3---2-3-|---3-2-3-2---3---2-3--||
||--0---------0---0-----|----------------------||
||o---------------------|-3---------3---3-----o||
||----------------------|----------------------||


  Slightly Faster Q=125
  D5                                   Csus2
  Gtrs II, III
    H.                  +H               H.                  +H
|------------------------------------|---3-------------------(3)----------|
|---3-------------------(3)----------|---3-------------------(3)----------|
|---2-------------------(2)----------|---5-------------------(5)----------|
|---0-------------------(0)----------|---5-------------------(5)----------|
|---0-------------------(0)----------|---3-------------------(3)----------|
|------------------------------------|------------------------------------|
|
| Gtr IV
|   E   E   E   Q    E   E    E   Q      E   E   E   Q    E   E    E   Q
|------17------18-------17-------18--|------18------17-------18-------17--|
|------------------------------------|------------------------------------|
|------14------15-------14-------15--|------15------14-------15-------14--|
|-(12)----(12)-----(12)-----(12)-----|-(14)----(14)-----(14)-----(14)-----|
|------------------------------------|------------------------------------|
|------------------------------------|------------------------------------|


  D5                                   Csus2
                                                                       PM|
    H.                  +H               H.                  +Q        E E
|------------------------------------|---3-------------------(3)--------------|
|---3-------------------(3)----------|---3-------------------(3)--------------|
|---2-------------------(2)----------|---5-------------------(5)--------------|
|---0-------------------(0)----------|---5-------------------(5)-------5-5----|
|---0-------------------(0)----------|---3-------------------(3)-------3-3----|
|------------------------------------|----------------------------------------|


    E   E   E   Q    E   E    E   Q      E   E   E   Q    E   E    E   Q
|------17------18-------17-------18--|------18------17-------18-------17----|
|------------------------------------|--------------------------------------|
|------14------15-------14-------15--|------15------14-------15-------14----|
|-(12)----(12)-----(12)-----(12)-----|-(14)----(14)-----(14)-----(14)-------|
|------------------------------------|--------------------------------------|
|------------------------------------|--------------------------------------|


  Bbsus2                               A5
                                                                       PM|
    H.                  +H               H.                  +Q        E E
|---1-------------------(1)----------|-------------------------------------|
|---1-------------------(1)----------|-------------------------------------|
|---3-------------------(3)----------|---2-------------------(2)-----------|
|---3-------------------(3)----------|---2-------------------(2)-------2-2-|
|---1-------------------(1)----------|---0-------------------(0)-------0-0-|
|------------------------------------|-------------------------------------|
|
|   E   E   E   Q    E   E    E   Q      E   E   E   Q    E   E    E   Q
|------17------15-------17-------15--|------15------13-------15-------13---|
|------------------------------------|-------------------------------------|
|------14------12-------14-------12--|------12------10-------12-------10---|
|-(12)----(12)-----(12)-----(12)-----|-(10)----(10)-----(10)-----(10)------|
|------------------------------------|-------------------------------------|
|------------------------------------|-------------------------------------|


  G5              F5                E5                A5
   Q.        +Q    E  +H              Q.         +Q    E  +H
|---------------------------------|------------------------------------||
|---------------------------------|------------------------------------||
|---------------------------------|--------------------2--(2)----------||
|--5---------(5)---3--(3)---------|---2----------(2)---2--(2)----------||
|--5---------(5)---3--(3)---------|---2----------(2)---0--(0)----------||
|--3---------(3)---1--(1)---------|---0----------(0)-------------------||
|
|  E   E  E   Q    E   E   E   Q      E   E   E   Q    E   E   E   Q
|-----13-----12-------12------10--|------------------------------------||
|---------------------------------|------15------14-------11------10---||
|-----10------9--------9-------7--|------------------------------------||
|-(8)----(8)------(7)-----(7)-----|------12------11--------8-------7---||
|---------------------------------|-(10)----(10)------(7)-----(7)------||
|---------------------------------|------------------------------------||


    D5    D+5   D5  D+5  C7    C6    C7  C6
    Gtr II
    PM  PM  PM|   PM     PM  PM  PM|   PM
    E E E E E E E E Q    E E E E E E E E Q
||---------------------|--------------------|
||o--------------------|--------------------|
||---------------------|--------------------|
||----7---8-----7---8--|---8---7-----8---7--|
||o-5-5-5-5-5-5-5-5-5--|-3-3-3-3-3-3-3-3-3--|
||---------------------|--------------------|
|
|   Gtr III
|   PM  PM  PM|   PM     PM  PM  PM|   PM
|   E E E E E E E E Q    E E E E E E E E Q
||---------------------|--------------------|
||o--------------------|--------------------|
||----7---7-----7---7--|---9---9-----9---9--|
||----7---8-----7---8--|---8---7-----8---7--|
||o-5---5---5-5---5----|--------------------|
||---------------------|-8---8---8-8---8----|


  D5    D+5   D5  D+5  C7    C6    C7  C6
  PM  PM  PM|   PM     PM  PM  PM|   PM
  E E E E E E E E Q    E E E E E E E E Q
|--------------------|--------------------|
|--------------------|--------------------|
|--------------------|--------------------|
|---7---8-----7---8--|---8---7-----8---7--|
|-5-5-5-5-5-5-5-5-5--|-3-3-3-3-3-3-3-3-3--|
|--------------------|--------------------|
|
| PM  PM  PM|   PM     PM  PM  PM|   PM
| E E E E E E E E Q    E E E E E E E E Q
|--------------------|--------------------|
|--------------------|--------------------|
|---7---7-----7---7--|---9---9-----9---9--|
|---7---8-----7---8--|---8---7-----8---7--|
|-5---5---5-5---5----|--------------------|
|--------------------|-8---8---8-8---8----|


  Bbmaj7 Bb6    BbmajBb6   Am7    Am+5  Am7  Am+5
  PM   PM   PM|    PM      PM   PM  PM|    PM
  E  E E  E E E  E E  Q    E  E E E E E  E E Q
|------------------------|----------------------|
|------------------------|----------------------|
|------------------------|----------------------|
|------------------------|----------------------|
|---12---10-----12---10--|---10---8-----10---8--|
|-6--6-6--6-6-6--6-6--6--|-5--5-5-5-5-5--5-5-5--|
|
| PM   PM   PM|    PM      PM   PM  PM|    PM
| E  E E  E E E  E E  Q    E  E E E E E  E E Q
|------------------------|----------------------|
|------------------------|----------------------|
|----7----7------7----7--|----5---5------5---5--|
|----7----5------7----5--|----5---3------5---3--|
|------------------------|----------------------|
|-6----6----6-6----6-----|-5----5---5-5----5----|


  Gm7   Gm6 Fmaj7 F6   Em7   Em6   A5
  PM  PM  PM|   PM     PM  PM  PM|   PM
  E E E E E E E E Q    E E E E E E E E Q
|--------------------|-----------------------||
|--------------------|----------------------o||
|--------------------|-----------------------||
|-------------2------|-------------2---2/----||
|---8---7---------5--|---5---4-----0---0----o||
|-3-3-3-3-3-1-1-1-1--|-0-0-0-0-0-0---0-------||
|
| PM  PM  PM|   PM     PM  PM  PM|   PM
| E E E E E E E E Q    E E E E E E E E Q
|--------------------|-----------------------||
|--------------------|----------------------o||
|---3---3-----2---2--|-----------------------||
|---3---2-----2---0--|---5---5-----2---2/----||
|--------------------|---5---4-----0---0----o||
|-3---3---3-1---1----|-0---0---0-0---0-------||


  D5                         C5
 6/4                        5/4
  Gtr III
  E  E E E E E E E E E E E   E E E E E E E E  E  E
  |  | | | | | | | | | | |   | | | | | | | |  |  |
  /  / / / / / / / / / / /   / / / / / / / /  /  /

             PM  PM      PM--|         PM  PM
  E  E E E E E E E E E E E   E E E E E E E E  E  E
|--------------------------|-----------------------|
|--------------------------|-----------------------|
|----3-2-3-2---3---2-3-2---|---3-2-3-2---3----2--3-|
|-0----------0---0-------0-|-----------------------|
|--------------------------|-3---------3---3-------|
|--------------------------|-----------------------|
|
| Gtr IV
| W.                         W               +Q
|--------------------------|-----------------------|
|-6------------------------|-5---------------(5)---|
|-7------------------------|-5---------------(5)---|
|-7------------------------|-5---------------(5)---|
|--------------------------|-----------------------|
|--------------------------|-----------------------|


  D5                         C5
 6/4                        5/4
  E  E E E E E E E E E E E   E E E E E E E E  E  E
  |  | | | | | | | | | | |   | | | | | | | |  |  |
  /  / / / / / / / / / / /   / / / / / / / /  /  /

  PM         PM  PM      PM--|         PM  PM
  E  E E E E E E E E E E E   E E E E E E E E  E  E
|--------------------------|------------------------|
|--------------------------|------------------------|
|----3-2-3-2---3---2-3-2---|---3-2-3-2---3----2--3--|
|-0----------0---0-------0-|------------------------|
|--------------------------|-3---------3---3--------|
|--------------------------|------------------------|
|
| W.                         W               +Q
|--------------------------|------------------------|
|-6------------------------|-5---------------(5)----|
|-7------------------------|-5---------------(5)----|
|-7------------------------|-5---------------(5)----|
|--------------------------|------------------------|
|--------------------------|------------------------|


  A5            Bb5
 6/4
  E  E E  E E E E  E E  E E E
  |  | |  | | | |  | |  | | |
  /  / /  / / / /  / /  / / /

              PM            PM
  E  E E  E E E E  E E  E E E
|-----------------------------|
|-----------------------------|
|-----------------------------|
|----3-2--3-2------3-2--3-2---|
|-0-----------0-1-----------1-|
|-----------------------------|
|
| E  E E  E E E E  E E  E E E
|-----------------------------|
|-----------------------------|
|---10-9-10-9-----10-9-10-9---|
|-7-----------7-8-----------8-|
|-----------------------------|
|-----------------------------|


  C5           G5              A5            Bb5
 5/4                          6/4
   E  E E  E E  E  E  E E  E   E  E E  E E E E  E E  E E E
   |  | |  | |  |  |  | |  |   |  | |  | | | |  | |  | | |
   /  / /  / /  /  /  / /  /   /  / /  / / / /  / /  / / /

                PM    PM                   PM
   E  E E  E E  E  E  E E  E   E  E E  E E E E  E E  E E E
|----------------------------|------------------------------|
|----------------------------|------------------------------|
|----------------------------|------------------------------|
|-----3-2--3-2-----3----2--3-|----3-2--3-2------3-2--3-2----|
|--3-------------------------|-0-----------0-1-----------1--|
|---------------3-----3------|------------------------------|
|
|  E  E E  E E  E  E  E E  E   E  E E  E E E E  E E  E E E
|----------------------------|------------------------------|
|----------------------------|------------------------------|
|----10-9-10-9----10----9-10-|---10-9-10-9-----10-9-10-9----|
|-10-------------------------|-7-----------7-8-----------8--|
|--------------10----10------|------------------------------|
|----------------------------|------------------------------|


  F5          E5            A5            A5
 5/4                       6/4
  E  E E  E E E  E E E  E   E  E E  E E E E  E E  E E E
  |  | |  | | |  | | |  |   |  | |  | | | |  | |  | | |
  /  / /  / / /  / / /  /   /  / /  / / o /  / /  / / o

              PM   PM
  E  E E  E E E  E E E  E   E  E E  E E E E  E E  E E E
|-------------------------|-----------------------------|
|-------------------------|-----------------------------|
|-------------------------|-----------------------------|
|----3-2--3-2----3---2--3-|----3-2--3-2------3-2--3-2---|
|-------------------------|-0-------------0-------------|
|-1-----------0----0------|-------------0-------------0-|
|
| E  E E  E E E  E E E  E   E  E E  E E E E  E E  E E E
|-------------------------|-----------------------------|
|-------------------------|-----------------------------|
|---10-9-10-9---10---9-10-|---10-9-10-9-----10-9-10-9---|
|-------------------------|-7-------------7-------------|
|-8-----------7----7------|-------------7-------------7-|
|-------------------------|-----------------------------|


  A5              A5
  E  E  E  E  E E E  E  E  E  E E
  |  |  |  |  | | |  |  |  |  | |
  /  /  /  /  / o /  /  /  /  / o

  E  E  E  E  E E E  E  E  E  E E
|---------------------------------||
|---------------------------------||
|----3--2--3--2------3--2--3--2---||
|---------------------------------||
|-0---------------0---------------||
|---------------0---------------0-||
|
| E  E  E  E  E E E  E  E  E  E E
|---10--9-10--9-----10--9-10--9---||
|---11-10-11-10-----11-10-11-10---||
|---------------------------------||
|-7---------------7---------------||
|---------------7---------------7-||
|---------------------------------||


  D5    D+5   D5  D+5  C7    C6    C7  C6
 5/4
  PM  PM  PM|   PM     PM  PM  PM|   PM
  E E E E E E E E Q    E E E E E E E E Q
|--------------------|--------------------|
|--------------------|--------------------|
|--------------------|--------------------|
|---7---8-----7---8--|---8---7-----8---7--|
|-5-5-5-5-5-5-5-5-5--|-3-3-3-3-3-3-3-3-3--|
|--------------------|--------------------|
|
| Gtr III
| PM  PM  PM|   PM     PM  PM  PM|   PM
| E E E E E E E E Q    E E E E E E E E Q
|--------------------|--------------------|
|--------------------|--------------------|
|---7---7-----7---7--|---9---9-----9---9--|
|---7---8-----7---8--|---8---7-----8---7--|
|-5---5---5-5---5----|--------------------|
|--------------------|-8---8---8-8---8----|


  D5    D+5   D5  D+5  C7    C7    C7  C6
  PM  PM  PM|   PM     PM  PM  PM|   PM
  E E E E E E E E Q    E E E E E E E E Q
|--------------------|----------------------|
|--------------------|----------------------|
|--------------------|----------------------|
|---7---8-----7---8--|---8---7-----8---7----|
|-5-5-5-5-5-5-5-5-5--|-3-3-3-3-3-3-3-3-3----|
|--------------------|----------------------|
|
| PM  PM  PM|   PM     PM  PM  PM|   PM
| E E E E E E E E Q    E E E E E E E E Q
|--------------------|----------------------|
|--------------------|----------------------|
|---7---7-----7---7--|---9---9-----9---9----|
|---7---8-----7---8--|---8---7-----8---7----|
|-5---5---5-5---5----|----------------------|
|--------------------|-8---8---8-8---8------|


  Bbmaj7 Bb6    BbmajBb6   Am7    Am+5  Am7  Am+5
  PM   PM   PM|    PM      PM   PM  PM|    PM
  E  E E  E E E  E E  Q    E  E E E E E  E E Q
|------------------------|----------------------|
|------------------------|----------------------|
|------------------------|----------------------|
|------------------------|----------------------|
|---12---10-----12---10--|---10---8-----10---8--|
|-6--6-6--6-6-6--6-6--6--|-5--5-5-5-5-5--5-5-5--|
|
| PM   PM   PM|    PM      PM   PM  PM|    PM
| E  E E  E E E  E E  Q    E  E E E E E  E E Q
|------------------------|----------------------|
|------------------------|----------------------|
|----7----7------7----7--|----5---5------5---5--|
|----7----5------7----5--|----5---3------5---3--|
|------------------------|----------------------|
|-6----6----6-6----6-----|-5----5---5-5----5----|


  Gm7   Gm6 Fmaj7 F6   Em7   Em6   A5
  PM  PM  PM|   PM     PM  PM  PM|   PM
  E E E E E E E E Q    E E E E E E E E Q
|--------------------|---------------------||
|--------------------|---------------------||
|--------------------|---------------------||
|-------------2------|-------------2---2---||
|---8---7---------5--|---5---4-----0---0---||
|-3-3-3-3-3-1-1-1-1--|-0-0-0-0-0-0---0-----||
|
| PM  PM  PM|   PM     PM  PM  PM|   PM
| E E E E E E E E Q    E E E E E E E E Q
|--------------------|---------------------||
|--------------------|---------------------||
|---3---3-----2---2--|---------------------||
|---3---2-----2---0--|---5---5-----2---2---||
|--------------------|---5---4-----0---0---||
|-3---3---3-1---1----|-0---0---0-0---0-----||


    E5          F5
   4/4
    Gtr III
     Q.          E  +H
     |           |   |
     /           /   /

     Q.          E  +H
||------------------------------------|
||o-----------------------------------|
||------------------------------------|
||------------------------------------|
||o--2-----------3--(3)---------------|
||---0-----------1--(1)---------------|
|
|   Gtr IV
|    E.  S  +E   E  +E   E  +E   S  S
||------------------------------------|
||o-----------------------------------|
||--------------15-(15)-14-(14)-14-15-|
||--14--15-(15)-----------------------|
||o-----------------------------------|
||------------------------------------|


  G5             A5                          E5          F5
   Q.             E  +H                       Q.          E  +H
   |              |   |                       |           |   |
   /              /   /                       /           /   /

   Q.             E  +H                       Q.          E  +H
|------------------------------------------|---------------------------------|
|------------------------------------------|---------------------------------|
|------------------------------------------|---------------------------------|
|------------------------------------------|---------------------------------|
|--5--------------7--(7)-------------------|--2-----------3--(3)-------------|
|--3--------------5--(5)-------------------|--0-----------1--(1)-------------|

|  E   S  S S  S  E  +S   e  S  S  S  S  S    E.  S  +E   E  +E   E  +E   S  S
|--------12---13-12-(12)-------------------|--------------------------------|
|-14--15-----------------15-14-------------|--------------------------------|
|------------------------------15-14-12----|-------------15-(15)-14-(14)-14-|
|---------------------------------------15-|-14--15-(15)--------------------|
|------------------------------------------|--------------------------------|
|------------------------------------------|--------------------------------|


  1.                            2.
  C#5            D5              G5X E5VII   F5VD5I
   Q.             E  +H           E.  S  +E   E  H
   |              |   |           |   |   |   |  |
   /              /   /           /   /   /   /  /

   ~~~
   Q.             E  +H           E.  S  +E   E  H
|-----------------------------||----------------------||
|----------------------------o||----------------------||
|-----------------------------||----------------------||
|-----------------7--(7)------||-/5-------------------||
|--4--------------5--(5)-----o||------7--(7)--8--5----||
|-----------------------------||----------------------||
|
|  E   S  S S  S  E  +Q.   E      E.  S  +E   E  H
|--------12---13--------------||-15--12-(12)-13-------||
|-14--15---------15-(15)-----o||----------------15----||
|-----------------------------||----------------------||
|-----------------------------||----------------------||
|----------------------------o||----------------------||
|-----------------------------||----------------------||


    N.C.
    Gtrs II, III
              ~~~~~~
    E. S +E   E +E  E E S S
||--------------------------|
||o-------------------------|
||--------------------------|
||--------------------------|
||o-------------------------|
||--0--1-(1)-/6-(6)-5---5-6-|
|
|   E. S +E   E +E  E E S S
||--------------------------|
||o-------------------------|
||------------3-(3)-2---2-3-|
||--2--3-(3)----------------|
||o-------------------------|
||--------------------------|


                                          ~~~~~~
  E S S S S E +S  e S S S S S   E. S +E   E +E  E E S S
|-----------------------------|--------------------------|
|-----------------------------|--------------------------|
|-----------------------------|--------------------------|
|-----------------------------|--------------------------|
|-4-5-7---8-7-(7)-5-4---------|--------------------------|
|---------------------6-5-3-1-|-0--1-(1)-/6-(6)-5---5-6--|
|
| E S S S S E +S  e S S S S S   E. S +E   E +E  E E S S
|-----0---1-0-(0)-------------|--------------------------|
|-2-3-------------3-2---------|--------------------------|
|---------------------3-2-0---|-----------3-(3)-2---2-3--|
|---------------------------3-|-2--3-(3)-----------------|
|-----------------------------|--------------------------|
|-----------------------------|--------------------------|


  1.                          2.
  N.C.
                   ~~~~~~~               ~~~~~~
   E S S +S  S E S E. +Q       E S S S S E +Q   S e S
|---------------------------||------------------------||
|--------------------------o||------------------------||
|---------------------------||------------------------||
|-/5-5-2-(2)-2-3-3----------||------------------------||
|------------------5--(5)--o||-4-5-7---8-5-(5)--3-----||
|---------------------------||--------------------6-5-||
|
|  E S S +S  S E S E. +Q       E S S S S E +Q   S e S
|--3-3-0-(0)-0-1-1----------||-----0---1--------------||
|------------------3--(3)--o||-2-3-------3-(3)--1-----||
|---------------------------||--------------------3-2-||
|---------------------------||------------------------||
|--------------------------o||------------------------||
|---------------------------||------------------------||


 Guitar Solo
    N.C.
                        ~~~~~~~~~~
     E.       S  +E     E     +E     E   E     S  S
|---------------------------------------------------|
|---------------------------------------------------|
|---------------------------------------------------|
|---------------------------------------------------|
|---------------------------------------------------|
|----0--------1--(1)---/6-----(6)----5---------5--6-|
|
|    S   S S  S   S  S  S  S   S   e   S S  S  S  S
|---10--10-x-10------x-10-10---x--10---x-x--x-10-10-|
|---10--10-x-10------x-10-10---x--10---x-x--x-10-10-|
|---------------------------------------------------|
|---------------------------------------------------|
|---------------------------------------------------|
|---------------------------------------------------|
|
| Gtr V
|             ~~~~~~~~~~~~~~~~~~~~
| a  E.       S  +Q           +Q         S  S  S  S
|---------------------------------------------------|
|-8s10-------10-(10)---------(10)--------------8-10-|
|----------------------------------------9-10-------|
|---------------------------------------------------|
|---------------------------------------------------|
|---------------------------------------------------|


                                                                                   ~~~~~~~~~~
   E     S  S   S   S     E    +S       e       S S S    S  S    E.       S +E     E    +E      E   E    S  S
|-------------------------------------------------------------|------------------------------------------------|
|-------------------------------------------------------------|------------------------------------------------|
|-------------------------------------------------------------|------------------------------------------------|
|-------------------------------------------------------------|------------------------------------------------|
|--4-----5--7-------8-----7----(7)------5-------4-------------|------------------------------------------------|
|-------------------------------------------------6-5----3--1-|--0--------1-(1)---/6----(6)-----5--------5--6--|
|
|  S   S S  S   S   S     S  S  S       e       S S S    S  S    S   S S  S  S  S  S  S  S    e   S S S  S  S
|-10--10-x-10-------x----10-10--x------10-------x-x-x---10-10-|-10--10-x-10-----x-10-10--x---10---x-x-x-10-10--|
|-10--10-x-10-------x----10-10--x------10-------x-x-x---10-10-|-10--10-x-10-----x-10-10--x---10---x-x-x-10-10--|
|-------------------------------------------------------------|------------------------------------------------|
|-------------------------------------------------------------|------------------------------------------------|
|-------------------------------------------------------------|------------------------------------------------|
|-------------------------------------------------------------|------------------------------------------------|
|
|                                                                ~~~
|  E.       S  +S   T  T  E     S      +S   +E    E   a  E       H                      +Q          S S  S  S
|-------------------------------------------------------------|------------------------------------------------|
|-11-------10-(10)-11p10--8-----------------------8---8s10----|--8----------------------(8)\-------------5--6--|
|------------------------------10b12==(10)r(10)---------------|-------------------------------------6-7--------|
|-------------------------------------------------------------|------------------------------------------------|
|-------------------------------------------------------------|------------------------------------------------|
|-------------------------------------------------------------|------------------------------------------------|


  N.C.
                              ~~~~~~~~~                                 ~~~~~~~~~~
   E    S  S +S  S  E     S   E.   +Q                E.       S  +E     E     +E     E   E     S  S
|-----------------------------------------------|---------------------------------------------------|
|-----------------------------------------------|---------------------------------------------------|
|-----------------------------------------------|---------------------------------------------------|
|-/5----5--2-(2)-2--3-----3---------------------|---------------------------------------------------|
|-----------------------------5----(5)----------|---------------------------------------------------|
|-----------------------------------------------|----0--------1--(1)---/6-----(6)----5---------5--6-|
|
|  S  S S  S  S  S  S  S  S   e  S  S   S  S  S      S   S S  S   S  S  S  S   S   e   S S  S  S  S
|-10-10-x-10-----x-10-10--x--10--x--x---x-10-10-|---10--10-x-10------x-10-10---x--10---x-x--x-10-10-|
|-10-10-x-10-----x-10-10--x--10--x--x---x-10-10-|---10--10-x-10------x-10-10---x--10---x-x--x-10-10-|
|-----------------------------------------------|---------------------------------------------------|
|-----------------------------------------------|---------------------------------------------------|
|-----------------------------------------------|---------------------------------------------------|
|-----------------------------------------------|---------------------------------------------------|
|
|                   ~~~~~~~~~                                 ~~~~~~~~~~~~~~~~~~~~
|  E    S  S +S  S  E    +Q         S   E     S   a  E.       S  +Q           +Q         S  S  S  S
|-----------------------------------------------|---------------------------------------------------|
|--5----------------3----(3)------------------8-|-8s10-------10-(10)---------(10)--------------8-10-|
|-------7--6-(6)S3------------------9--10-------|----------------------------------------9-10-------|
|-----------------------------------------------|---------------------------------------------------|
|-----------------------------------------------|---------------------------------------------------|
|-----------------------------------------------|---------------------------------------------------|


    E     S  S   S   S  E    +S   e  S   S   S   S  S
|------------------------------------------------------|
|------------------------------------------------------|
|------------------------------------------------------|
|------------------------------------------------------|
|---4-----5--7-------8--7----(7)--5--4-----------------|
|----------------------------------------6---5---3--1--|
|
|   S   S S  S   S   S  S  S  S   e  S   S   S   S  S
|--10--10-x-10-------x-10-10--x--10--x---x---x--10-10--|
|--10--10-x-10-------x-10-10--x--10--x---x---x--10-10--|
|------------------------------------------------------|
|------------------------------------------------------|
|------------------------------------------------------|
|------------------------------------------------------|
|
|   E.       S  +S   S  E     E.     S  +S   E.
|------------------------------------------------------|
|-/14-------11-(11)-14s10----\8-----10-(10)-11---------|
|------------------------------------------------------|
|------------------------------------------------------|
|------------------------------------------------------|
|------------------------------------------------------|


  N.C.
                       ~~~~~~~~~~~
    E.       S  +E     E     +E      E    E     S  S
|----------------------------------------------------|
|----------------------------------------------------|
|----------------------------------------------------|
|----------------------------------------------------|
|----------------------------------------------------|
|---0--------1--(1)---/6-----(6)-----5----------5--6-|
|
|   S   S S  S   S  S  S  S   S    e   S  S  S  S  S
|--10--10-x-10------x-10-10---x---10---x--x--x-10-10-|
|--10--10-x-10------x-10-10---x---10---x--x--x-10-10-|
|----------------------------------------------------|
|----------------------------------------------------|
|----------------------------------------------------|
|----------------------------------------------------|
|
|            ~~~~~~~
|   E.       S  +Q           +E      E    S  S  S  S
|----------------------------------------------------|
|-/14-------14-(14)---------(14)\--------------14-15-|
|----------------------------------------14-15-------|
|----------------------------------------------------|
|----------------------------------------------------|
|----------------------------------------------------|


                        ~~~~~~~~~
   E        S  S  S  S  E    +Q       S e        S
|--------------------------------------------------||
|--------------------------------------------------||
|--------------------------------------------------||
|--------------------------------------------------||
|--4--------5--7-----8--5----(5)------3------------||
|---------------------------------------6--------5-||
|
|  S  S     S  S  S  S  S  S  S   e S S S   S    S
|-10-10-----x-10-----x-10-10--x--10-x-x-x--10---10-||
|-10-10-----x-10-----x-10-10--x--10-x-x-x--10---10-||
|--------------------------------------------------||
|--------------------------------------------------||
|--------------------------------------------------||
|--------------------------------------------------||
|
|                             ~~~
|  S  T  T  S  S  S  S  S  S  Q.           +E
|-------------------------15-17-----------(17)\----||
|-17-15p14-15-17-18-17-18--------------------------||
|--------------------------------------------------||
|--------------------------------------------------||
|--------------------------------------------------||
|--------------------------------------------------||


 Synth Solo
  E5                F5
  Gtrs II, III
  Q.                 E  +H
  |                  |   |
  /                  /   /

  Gtr IV
  S   S  S  S  S  S  E  +E    Q    S  S
|---------------------------------------|
|----------------15-17-(17)--15---15-17-|
|-------14-15-17----15-(15)-(15)--------|
|----17---------------------------------|
|---------------------------------------|
|---------------------------------------|


  G5             A5                          Bb5               C#5
   Q.             E  +H                      Q.                 E  +H
   |              |   |                      |                  |   |
   /              /   /                      /                  /   /

   E   S  S S  S  E  +S   e  S  S  S  S  S   S   S  S  S  S  S  E  +E    Q     E
|-----15-17---18-17-(17)-15----------------|---------------------------------------|
|-18------------------------18-17-15-------|----------------15-17-(17)--18----20---|
|-15-------------15-(15)-------------17-15-|-------14-15-17----18-(18)-(18)--(18)--|
|------------------------------------------|----17-------------19-(19)-(19)--(19)--|
|------------------------------------------|---------------------------------------|
|------------------------------------------|---------------------------------------|


  D5             E5VII   A5XIIE5                F5
   Q.            E  +Q   Q    Q.                 E  +H
   |             |   |   |    |                  |   |
   /             /   /   /    /                  /   /

   S    S    Q.     +H        S   S  S  S  S  S  E  +E    Q    S  S
|---------------------------|---------------------------------------|
|-18---17-------------------|----------------15-17-(17)--15---15-17-|
|-----------19-----(19)-----|-------14-15-17----15-(15)-(15)--------|
|-19--(19)-(19)----(19)-----|----17---------------------------------|
|---------------------------|---------------------------------------|
|---------------------------|---------------------------------------|


  G5             A5
   Q.             E  +H
   |              |   |
   /              /   /

   E   S  S S  S  E  +S   e  S  S  S  S  S
|-----15-17---18-17-(17)-15----------------|
|-18------------------------18-17-15-------|
|-15-------------15-(15)-------------17-15-|
|------------------------------------------|
|------------------------------------------|
|------------------------------------------|


  Bb5               C5                   D5
  Q.                 E  +H                W
  |                  |   |                |
  /                  /   /                /

  S   S  S  S  S  S  E  +E    Q     E     S   S    Q.    +H
|--------------------------------------|------------------------||
|----------------15-17-(17)--18----20--|-18--17-----------------||
|-------14-15-17----17-(17)-(17)--(17)-|----------19----(19)----||
|----17--------------------------------|-19-(19)-(19)---(19)----||
|--------------------------------------|------------------------||
|--------------------------------------|------------------------||


    A5
    Gtrs II, III
     E.  S Q         S   e  S E.  S
||----------------------------------|
||o---------------------------------|
||---2-------------------2--2-2-----|
||---2-------------------2--2-2-----|
||o--0-------------------0--0-0-----|
||----------------------------------|
|
|   Gtrs I, IV
|    E.  S S  S  E  +S   e  S E.  S
||----------------------------------|
||o-10-------10-11-(11)-------------|
||------12--------------------9-----|
||----------------------11-12----12-|
||o---------------------------------|
||----------------------------------|


  E    S S   S  E.     H                 E.  S Q         S   e  S E.  S
|-------------------------------------|----------------------------------|
|-------------------------------------|----------------------------------|
|------2-2---2--2---------------------|--2-------------------2--2-2------|
|------2-2---2--2---------------------|--2-------------------2--2-2------|
|------0-0---0--0---------------------|--0-------------------0--0-0------|
|-------------------------------------|----------------------------------|
|
| S S  E    +S  e   S  E  S S S  e  S    E.  S S  S  E  +S   e  S E.  S
|-------------------------------------|----------------------------------|
|-------------------------------------|-10-------10-11-(11)--------------|
|---9-10---(10)-9--10-12-10-9---------|-----12--------------------9------|
|-------------------------------12-11-|---------------------11-12----12--|
|-------------------------------------|----------------------------------|
|-------------------------------------|----------------------------------|


  1.
  A5
                     |-3-|  |--3--|
  E    E  +S  E.     S S S  S S   S S  S  e
|--------------------------------------------||
|-------------------------------------------o||
|------2--(2)---------------0-------0--2--3--||
|------2--(2)-----------------2h==3----------||
|------0--(0)--------0h1h3------------------o||
|--------------------------------------------||
|
| S S  E  +S  e   S  E      S   S   S  S  E
|--------------------------------------------||
|-------------------------------------11----o||
|---9-10-(10)-9--10-12-----10---9--------12--||
|--------------------------------------------||
|-------------------------------------------o||
|--------------------------------------------||


 2.
                     |-3-|  |--3--|
  E    E  +S  E.     S S S  S S   S S  S  e
|-------------------------------------------||
|-------------------------------------------||
|------2--(2)-----------------------0--2--3-||
|------2--(2)------------3--0h2h==3---------||
|------0--(0)--------0h1--------------------||
|-------------------------------------------||
|
| S S  E  +S  e   S  E      S   S   S  S  E
|-------------------------------------------||
|-------------------------------------11----||
|---9-10-(10)-9--10-12-----10---9--------12-||
|-------------------------------------------||
|-------------------------------------------||
|-------------------------------------------||


    (A)
     S  S S  S S  S  S S   S   S S  S S  S S  S
||----------------------------------------------|
||o---------------------------------------------|
||----------------------------------------------|
||----------------------------------------------|
||o-12--0-0-10-0-12-13-0---0---4-0--5-7--0-0--5-|
||----------------------------------------------|
|
|    E.      S S  S  E    +S   e    S E.      S
||----------------------------------------------|
||o-10-----------10-11---(11)-------------------|
||----------12------------------------9---------|
||----------------------------11---12--------12-|
||o---------------------------------------------|
||----------------------------------------------|


  S S  S S   S  S S  S  S S  S S S  S S  S
|-------------------------------------------|
|-------------------------------------------|
|-------------------------------------------|
|-------------------------------------------|
|-0-7--8-0---0--7-0--8-10-0--8-7-0--5-0--4--|
|-------------------------------------------|
|
| S S  E    +S  e    S  E    S S S  e    S
|-------------------------------------------|
|-------------------------------------------|
|---9-10---(10)-9---10-12---10-9------------|
|----------------------------------12---11--|
|-------------------------------------------|
|-------------------------------------------|


  (A)
   S  S S  S S  S  S S   S   S S  S S  S S  S
|---------------------------------------------|
|---------------------------------------------|
|---------------------------------------------|
|---------------------------------------------|
|-12--0-0-10-0-12-13-0---0---4-0--5-7--0-0--5-|
|---------------------------------------------|
|
|  E.      S S  S  E    +S   e    S E.      S
|---------------------------------------------|
|-10-----------10-11---(11)-------------------|
|---------12------------------------9---------|
|---------------------------11---12--------12-|
|---------------------------------------------|
|---------------------------------------------|


  S S  S S   S  S S  S  S S  S S S  S  S S
|-------------------------------------------||
|------------------------------------------o||
|-------------------------------------------||
|-------------------------------------------||
|-0-7--8-0---0--7-0--8-10-0--8-7-0-13-10-0-o||
|-------------------------------------------||
|
| S S  E    +S  e    S  E    S S S  S  E
|-------------------------------------------||
|----------------------------------11------o||
|---9-10---(10)-9---10-12---10-9------12----||
|-------------------------------------------||
|------------------------------------------o||
|-------------------------------------------||


  Asus4          Gm6          Em6    F6             (C#)    (D)    Dm
  Gtr VI
    E.  S +E      E  +S  E.   Q      E.     S +E    E   +S  E.     E   E
|----------------------------------|---------------------------------------|
|---3---3-(3)-----5--(5)-5----2----|-3------3-(3)--------------------------|
|---2---2-(2)-----3--(3)-3----0----|-2------2-(2)------------------2---2---|
|---2---2-(2)-----5--(5)-5----2----|-3------3-(3)------------------3---3---|
|---0---0-(0)----------------------|----------------4---(4)-5------5---5---|
|-----------------3--(3)-3----0----|-1------1-(1)--------------------------|
|----------------------------------|----------------4---(4)-5------5---5---|
|
| Gtr II
|                 ~~~~~~~~    ~~          ~~~~~~~~
|   E.  S  S   S  E  +S  e  S E. S   S  S E   +S  e   S  E     S S S e   S
|----------------------------------|---------------------------------------|
|-/10---------10-11-(11)s2--3-5--3-|----5-6---(6)-5---6--8-----6-5---------|
|------12--------------------------|---------------------------------7---6-|
|----------------------------------|---------------------------------------|
|----------------------------------|---------------------------------------|
|----------------------------------|---------------------------------------|


  Asus4          Bbmaj7       Em6add1F6     Em6add11Dm
    E.  S +E      E  +S  E.   Q      E.     S +E    E   +Q      Q
|---5---5-(5)-----5--(5)-5----5----|-5------5-(5)---5---(5)-----5-------|
|---5---5-(5)-----6--(6)-6----5----|-6------5-(5)---3---(3)-----3-------|
|---7---7-(7)-----7--(7)-7----6----|-7------6-(6)-----------------------|
|-----------------------------5----|--------5-(5)---3---(3)-----3-------|
|----------------------------------|------------------------------------|
|---5---5-(5)-----6--(6)-6----0----|--------0-(0)-----------------------|
|----------------------------------|-8--------------5---(5)-----5-------|
|
|                 ~~~~~~~~    ~~          ~~~~~~~~
|   E.  S  S   S  E  +S  e  S E. S   S  S E   +S  e   S  E  S S S  S E
|----------------------------------|------------------------------------|
|-/10---------10-11-(11)s2--3-5--3-|----5-6---(6)-5---6--8--6-5---11-8--|
|------12--------------------------|------------------------------------|
|----------------------------------|------------------------------------|
|----------------------------------|------------------------------------|
|----------------------------------|------------------------------------|


  Asus4          Gm6          Em6    F6               (C#)     (D)     Dm
    E.  S +E      E  +S  E.   Q      E.      S  +E    E    +S  E.      E    E
|----------------------------------|--------------------------------------------|
|---3---3-(3)-----5--(5)-5----2----|-3-------3--(3)-----------------------------|
|---2---2-(2)-----3--(3)-3----0----|-2-------2--(2)--------------------2----2---|
|---2---2-(2)-----5--(5)-5----2----|-3-------3--(3)--------------------3----3---|
|---0---0-(0)----------------------|------------------4----(4)-5-------5----5---|
|-----------------3--(3)-3----0----|-1-------1--(1)-----------------------------|
|----------------------------------|------------------4----(4)-5-------5----5---|
|
|                 ~~~~~~~~    ~~           ~~~~~~~~~
|   E.  S  S   S  E  +S  e  S E. S   S  S  E    +S  e    S  E      S S S  e   S
|----------------------------------|--------------------------------------------|
|-/10---------10-11-(11)s2--3-5--3-|----5--6----(6)-5----6--8------6-5----------|
|------12--------------------------|--------------------------------------7---6-|
|----------------------------------|--------------------------------------------|
|----------------------------------|--------------------------------------------|
|----------------------------------|--------------------------------------------|
|
| Gtr III
|                 ~~~~~~~~    ~~           ~~~~~~~~~
|   E.  S  S   S  E  +S  e  S E. S   S  S  E    +S  e    S  E      S S S  e   S
|----------------------------------|--------------------------------------------|
|-/14---------14-15-(15)s5--6-8--6-|----8-10---(10)-8---10-11-----10-8----------|
|------15--------------------------|-------------------------------------10---9-|
|----------------------------------|--------------------------------------------|
|----------------------------------|--------------------------------------------|
|----------------------------------|--------------------------------------------|


  Asus4          Bbmaj7         Em6add11 F6       Em6add11  Dm
    E.  S +E      E  +S   E.     Q       E.       S  +E     E    +H
|---5---5-(5)-----5--(5)--5------5-----|-5--------5--(5)----5----(5)----------------||
|---5---5-(5)-----6--(6)--6------5-----|-6--------5--(5)----3----(3)----------------||
|---7---7-(7)-----7--(7)--7------6-----|-7--------6--(6)----------------------------||
|--------------------------------5-----|----------5--(5)----3----(3)----------------||
|--------------------------------------|--------------------------------------------||
|---5---5-(5)-----6--(6)--6------0-----|----------0--(0)----------------------------||
|--------------------------------------|-8------------------5----(5)----------------||
|
|                 ~~~~~~~        ~~~            ~~~~~~~~~
|   E.  S  S   S  E  +S   e   S  E.  S   S   S  E    +S   e    S  E   S  S S  S  E
|--------------------------------------|-------------------------------------15-----||
|-/10---------10-11-(11)-10--11-14-----|----14-15---(15)-14---15-17--15-14------17--||
|------12---------------------------15-|--------------------------------------------||
|--------------------------------------|--------------------------------------------||
|--------------------------------------|--------------------------------------------||
|--------------------------------------|--------------------------------------------||
|
|                 ~~~~~~~        ~~~            ~~~~~~~~~
|   E.  S  S   S  E  +S   e   S  E.  S   S   S  E    +S   e    S  E   S  S S  S  E
|--------------------------------------|-------------------------15----------18-15--||
|-/14---------14-15-(15)-14--15-17--15-|----17-18---(18)-17---18-----18-17----------||
|------15------------------------------|--------------------------------------------||
|--------------------------------------|--------------------------------------------||
|--------------------------------------|--------------------------------------------||
|--------------------------------------|--------------------------------------------||


 Guitar Solo
  Dm                              C
 5/8
   E.             E          S     E          E
|--------------------------------------------------------|
|--3--------------3----------------1----------1----------|
|--2--------------2----------------0----------0----------|
|--3--------------3----------------2----------2----------|
|--5--------------5----------0-----3----------3----------|
|--------------------------------------------------------|
|--------------------------------------------------------|
|
| Gtr V
|  |-----------10:6-------------|  |---------7---------|
|  S  S  S  S  S  S  S  S  S    S  S  S  S  S    S  S  S
|-10s17-17-17-17-17-17-17-17---17-17-17-17S22s==20-20p18-|
|--------------------------------------------------------|
|--------------------------------------------------------|
|--------------------------------------------------------|
|--------------------------------------------------------|
|--------------------------------------------------------|


  Bb                             Am
   E.            E          S     E                 E
|-----------------------------------------------------------|
|-----------------------------------------------------------|
|--3-------------3----------------2-----------------2-------|
|--3-------------3----------------2-----------------2-------|
|--5-------------5----------------3-----------------3-------|
|--6-------------6----------1-----5-----------------5-------|
|-----------------------------------------------------------|
|
|  |------------9:6------------|                    |--3--|
|  S  S  S  S  S    S  S  S    S  T  T  X  X  X  X  S  S  S
|-20h22p20p18-20p==18p17h18---20p18s15h18-18p17h18p17-15-17-|
|-----------------------------------------------------------|
|-----------------------------------------------------------|
|-----------------------------------------------------------|
|-----------------------------------------------------------|
|-----------------------------------------------------------|


  Gm                                     F
 6/8
   E.                    E          S     E        E        E
|----------------------------------------------------------------------------|
|----------------------------------------------------------------------------|
|--0---------------------0---------------------------------------------------|
|--0---------------------0----------------3--------3--------3----------------|
|--1---------------------1----------------3--------3--------3----------------|
|--3---------------------3----------------5--------5--------5----------------|
|-----------------------------------5-----8--------8--------8----------------|
|
|  |---------------10:6----------------|  |--------------9:6---------------|
|  S   T  T  T  T  S  S  S  S  S  S    S  S  S  S  S  S  S  T  T  T  T  T  T
|-18--18p17------------------------------------------------------------------|
|-----------20p18-22p20p18-20h22p20p==18-18p17p15h17h18-15-17-17-------15-15-|
|----------------------------------------------------------------17-17-------|
|----------------------------------------------------------------------------|
|----------------------------------------------------------------------------|
|----------------------------------------------------------------------------|


  E                                                A7sus4        A7
   E.                    E                 S        E             E          E
|--0---------------------0------------------------------------------------------------|
|--0---------------------0--------------------------3-------------2----------2--------|
|--1---------------------1--------------------------0-------------0----------0--------|
|--2---------------------2--------------------------2-------------2----------2--------|
|--2---------------------2--------------------------0-------------0----------0--------|
|--0---------------------0-----------------0------------------------------------------|
|-------------------------------------------------------------------------------------|
|
|  |---------------------9:6---------------------|
|  T   T  S  S  T  T  T  T  T  T  T  T  T  T  T  T  X  X  T  T T  T  T  T T  T T  T T
|-------------------------------------------------------------------------------------|
|-17--17-15-13-13-13-------------13-13-------------13p11-10-10-8h10h11p10-8h10p8------|
|--------------------15-15-14h15-------15p14p13p12-------------------------------10p9-|
|-------------------------------------------------------------------------------------|
|-------------------------------------------------------------------------------------|
|-------------------------------------------------------------------------------------|


  Dm                                      C
 5/8
   E.                   E            S     E        E
|----------------------------------------------------------|
|--3--------------------3------------------1--------1------|
|--2--------------------2------------------0--------0------|
|--3--------------------3------------------2--------2------|
|--5--------------------5------------0-----3--------3------|
|----------------------------------------------------------|
|----------------------------------------------------------|
|
|  |---------------10:6-----------------|  |------6------|
|  S   S  X  X T  S  S  T T  S  S  S    S  S  S  S  S  S S
|----------------------------------------------------------|
|----------------------------------------------------------|
|-12--12-12p10p9----10-10p9----10-10-----------------------|
|----------------12---------12-----------------------------|
|--------------------------------------12h15-13h15-11h13---|
|--------------------------------------------------------8-|


  Bb                              Am
   E.             E          S     E          E
|-------------------------------------------------------|
|-------------------------------------------------------|
|--3--------------3----------------2----------2---------|
|--3--------------3----------------2----------2---------|
|--5--------------5----------------3----------3---------|
|--6--------------6----------1-----5----------5---------|
|-------------------------------------------------------|
|
|  |-----------10:6-------------|  |-------6--------|
|  S  S  S  S  S  S  S  S  S    S  S  +S   S  S  S  S
|-------------------------------------------------------|
|-------------------------------------------------------|
|-------------------------------------------------------|
|--------------------------------------------12h14h15---|
|----------10h12h13-12-12h13h==15-12-(12)s15------------|
|-10h12h13----------------------------------------------|


  Gm                              F
 6/8
   E.             E          S     E                 E            E
|----------------------------------------------------------------------------|
|----------------------------------------------------------------------------|
|--0--------------0----------------------------------------------------------|
|--0--------------0----------------3-----------------3------------3----------|
|--1--------------1----------------3-----------------3------------3----------|
|--3--------------3----------------5-----------------5------------5----------|
|----------------------------5-----8-----------------8------------8----------|
|
|  |-----------10:6-------------|                                 |---3----|
|  S  S  S  S  S  S  S  S  S    S  T  X  X  T  X  X  T  T   T  T  S  S  T  T
|----------------------------------------------------------------------------|
|---------------------------------13----------13s18p15-13-----18-17h18h20p18-|
|----------12----------12h14h==15----15p14h15-------------/17----------------|
|-12h14h15----15p12h15-------------------------------------------------------|
|----------------------------------------------------------------------------|
|----------------------------------------------------------------------------|


  E                                           A7sus4 A7
   E.                     E                 S   E  E   E
|--0----------------------0--------------------------------|
|--0----------------------0---------------------3--2---2---|
|--1----------------------1---------------------0--0---0---|
|--2----------------------2---------------------2--2---2---|
|--2----------------------2---------------------0--0---0---|
|--0----------------------0-----------------0--------------|
|----------------------------------------------------------|
|
|  |--------------10:6----------------|
|  S   T  T  T  T  S  S   S  T  T  S  E        +Q     +E
|--------------------17-/18-18h20h22-22b24====(22)---(22)r=|
|-18--17h18-18h20-20---------------------------------------|
|----------------------------------------------------------|
|----------------------------------------------------------|
|----------------------------------------------------------|
|----------------------------------------------------------|


  Dm                                   C
 5/8
   E.                    E        S     E             E
|-------------------------------------------------------------------|
|--3---------------------3--------------1-------------1-------------|
|--2---------------------2--------------0-------------0-------------|
|--3---------------------3--------------2-------------2-------------|
|--5---------------------5--------0-----3-------------3-------------|
|-------------------------------------------------------------------|
|-------------------------------------------------------------------|
|
|                                       |------------7------------|
|  S      +S   +S       +S   +S   T  T  S  S  T  T  S    S  S  T  T
|-22b24==(22)r(22)b24==(22)r(22)-------20h22-20p18p17---18h20-20p18-|
|--------------------------------20h23------------------------------|
|-------------------------------------------------------------------|
|-------------------------------------------------------------------|
|-------------------------------------------------------------------|
|-------------------------------------------------------------------|


  Bb                                     Am
   E.              E             S        E       E
|---------------------------------------------------------|
|---------------------------------------------------------|
|--3---------------3----------------------2-------2-------|
|--3---------------3----------------------2-------2-------|
|--5---------------5----------------------3-------3-------|
|--6---------------6-------------1--------5-------5-------|
|---------------------------------------------------------|
|
|  |----------------9:6----------------|  |------6------|
|  S   S  S  S  T  T  T  T  S  S    T  T  S S  S  S  S  S
|-18-----18-18-20p18------------------------0-------------|
|-----18-------------22p21S22h24---22p20-20---20-22h23p20-|
|---------------------------------------------------------|
|---------------------------------------------------------|
|---------------------------------------------------------|
|---------------------------------------------------------|


  Gm                               F
 6/8
   E.             E        S        E           E        E
|-------------------------------------------------------------------|
|-------------------------------------------------------------------|
|--0--------------0-------------------------------------------------|
|--0--------------0-----------------3-----------3--------3----------|
|--1--------------1-----------------3-----------3--------3----------|
|--3--------------3-----------------5-----------5--------5----------|
|--------------------------5--------8-----------8--------8----------|
|
|  T  T  T  T  S  S  T  T  T  X  X  T  T  T  T  S  T  T  T  X  X  S
|-------------------------------------------------------------------|
|-18h20h22p20p18----18h20h22p20p18-17h18h20p18p17----17h18h20p18p17-|
|----------------19-------------------------------17----------------|
|-------------------------------------------------------------------|
|-------------------------------------------------------------------|
|-------------------------------------------------------------------|


  E                                 A7sus4     A7
   E.              E              S E          E          E
|--0---------------0------------------------------------------------------|
|--0---------------0----------------3----------2----------2---------------|
|--1---------------1----------------0----------0----------0---------------|
|--2---------------2----------------2----------2----------2---------------|
|--2---------------2----------------0----------0----------0---------------|
|--0---------------0--------------0---------------------------------------|
|-------------------------------------------------------------------------|
|
|  |------------9:6------------|    |---------------7:6---------------|
|  S   S  S  S  T  T  T  T  S  E    S  T  T  T    T  S  S    T  T  T  T
|-16--------------------------16\-------------------17-21-----------------|
|-----17----------------14h17--------------------17---------17------------|
|--------13-------13h16---------------------18-----------------18---------|
|-----------14-14------------------------19-----------------------19------|
|-------------------------------------19-----------------------------19---|
|-------------------------------------------------------------------------|


  Dm                            C
 5/8
   E.         E          S        E                  E
|------------------------------------------------------------|
|--3----------3-------------------1------------------1-------|
|--2----------2-------------------0------------------0-------|
|--3----------3-------------------2------------------2-------|
|--5----------5----------0--------3------------------3-------|
|------------------------------------------------------------|
|------------------------------------------------------------|
|
|                                 |-----------6------------|
|  E      +E     S      +S       +S   +S        +S   S  S  S
|------------------------------------------------------------|
|-20b22==(20)r==20pb22r(20)b22==(20)r(20)b20.5-(20)-22p20s23-|
|------------------------------------------------------------|
|------------------------------------------------------------|
|------------------------------------------------------------|
|------------------------------------------------------------|


  Bb                              Am
   E.            E           S     E     E
|-----------------------------------------------------|
|-----------------------------------------------------|
|--3-------------3-----------------2-----2------------|
|--3-------------3-----------------2-----2------------|
|--5-------------5-----------------3-----3------------|
|--6-------------6-----------1-----5-----5------------|
|-----------------------------------------------------|
|
|  |------------8:6-------------|
|  S   S  S  S  +S   a  S  S    S  S  S  T     +T   S
|-----20-22-20-(20)s22-22s20--------------------------|
|-22---------------------------22p20h22-20b22-(20)-20-|
|-----------------------------------------------------|
|-----------------------------------------------------|
|-----------------------------------------------------|
|-----------------------------------------------------|


  Gm                        F
 6/8
   E.            E        S  E       E       E
|-------------------------------------------------|
|-------------------------------------------------|
|--0-------------0--------------------------------|
|--0-------------0-----------3-------3-------3----|
|--1-------------1-----------3-------3-------3----|
|--3-------------3-----------5-------5-------5----|
|-------------------------5--8-------8-------8----|
|
|                            |---4:3----|
|  S  S  S      +S   +S   S  S  S  S    S  E    S
|----------------------------------------------20p|
|-18h20-18b20==(18)r(18)----18s15s18s==15\--------|
|------------------------19-----------------------|
|-------------------------------------------------|
|-------------------------------------------------|
|-------------------------------------------------|


  E
   E.          E       S     E          E          E
|--0-----------0-------------0----------0----------0-------------|
|--0-----------0-------------0----------0----------0-------------|
|--1-----------1-------------1----------1----------1-------------|
|--2-----------2-------------2----------2----------2-------------|
|--2-----------2-------------2----------2----------2-------------|
|--0-----------0-------0-----0----------0----------0-------------|
|----------------------------------------------------------------|
|
|  |---------8:6----------|  |--------------10:6---------------|
|  S  S  S  S  S  S  S    S  S  S  S  S    S  S  S    S  T  T  S
|-19p17-17h19-17s16----------------------------------------------|
|-------------------18------17h18p17------17---------17-------22-|
|------------------------19----------19------17h19------19p17----|
|----------------------------------------------------------------|
|----------------------------------------------------------------|
|----------------------------------------------------------------|


  E
   E.                    E                    S           E                 E                  E
|--0---------------------0--------------------------------0-----------------0------------------0----------||
|--0---------------------0--------------------------------0-----------------0------------------0----------||
|--1---------------------1--------------------------------1-----------------1------------------1----------||
|--2---------------------2--------------------------------2-----------------2------------------2----------||
|--2---------------------2--------------------------------2-----------------2------------------2----------||
|--0---------------------0--------------------0-----------0-----------------0------------------0----------||
|---------------------------------------------------------------------------------------------------------||
|
|  |-------7:6--------|  |-------------9:6-------------|  |---------------------9:6---------------------|
|  T   T  T  T  T  T  T  T  T  X  X  T  T  T  T  X  X  T  S  +S       +S   +S   +S       +S   +S   +S   S
|---------------------------------------------------------------------------------------------------------||
|-22--18h21h22p21p18-21-17h18-18h21p18-17p16p13-16-16-13--------------------------------------------------||
|--------------------------------------------------------16-(16)b17==(16)r(16)-(16)b17==(16)r(16)-(16)s14-||
|---------------------------------------------------------------------------------------------------------||
|---------------------------------------------------------------------------------------------------------||
|---------------------------------------------------------------------------------------------------------||


  N.C.
 4/4
  Gtrs II, III
                                         ~~~~~~~~~~~~~~~
   E.            S       +E              E          +E           E           E        S        S
|------------------------------------------------------------------------------------------------------|
|------------------------------------------------------------------------------------------------------|
|------------------------------------------------------------------------------------------------------|
|------------------------------------------------------------------------------------------------------|
|---------------------------------------/5----------(5)----------4--------------------4--------5-------|
|--5-------------6-------(6)---------------------------------------------------------------------------|
|
| Gtr VI
|  E.            S       +E              E          +E           E           E        S        S
|------------------------------------------------------------------------------------------------------|
|------------------------------------------------------------------------------------------------------|
|------------------------------------------------------------------------------------------------------|
|------------------------------------------------------------------------------------------------------|
|------------------------------------------------------------------------------------------------------|
|------------------------------------------------------------------------------------------------------|
|--0-------------1-------(1)-------------5----------(5)----------4--------------------4--------5-------|
|
| Gtr V
|  |---------6---------|                 |---3----|                                   |------6-------|
|  S  S  S  S  S    T  T  X  X  T  T  T  T  T  S  S  T  T  T  T  T  T  T  T  T  S  T  T  T  T  T  T  T
|---------------------------------17-17h18h20-20h22-22s20p18-17h18h20-22-22-20-------------------------|
|-17h18h20h22p20---18p17-18h20-20----------------------------------------------22-20-20s18-18p17-17h18-|
|------------------------------------------------------------------------------------------------------|
|------------------------------------------------------------------------------------------------------|
|------------------------------------------------------------------------------------------------------|
|------------------------------------------------------------------------------------------------------|


  N.C.
   E          S          S           S       S       E             +S    e                S        S        S        S       S
|-----------------------------------------------------------------------------------------------------------------------------------|
|-----------------------------------------------------------------------------------------------------------------------------------|
|-----------------------------------------------------------------------------------------------------------------------------------|
|------------------------5-------------------8-------7-------------(7)---5----------------------------------------------------------|
|--7----------8---------------------------------------------------------------------------8--------7--------5--------4--------------|
|----------------------------------------------------------------------------------------------------------------------------6------|
|
|  E          S          S           S       S       E             +S    e                S        S        S        S       S
|-----------------------------------------------------------------------------------------------------------------------------------|
|-----------------------------------------------------------------------------------------------------------------------------------|
|-----------------------------------------------------------------------------------------------------------------------------------|
|-----------------------------------------------------------------------------------------------------------------------------------|
|-----------------------------------------------------------------------------------------------------------------------------------|
|------------------------3-------------------6-------5-------------(5)---3----------------------------------------------------------|
|--7----------8---------------------------------------------------------------------------8--------7--------5--------4-------1------|
|
|  |--------------7---------------|  |-------------5-------------|  |-------------7-------------|
|  S  S  S  S    T  T  T    T  T  T  T  T  T    T  S    T  T  T  T  S  S    S  T  T  T  S    T  S  X  T  X  X  T  X  X  T  T    X  T
|-----------------------------------18h20-20s==22-22---20s18p17-17s18h20---22-22p20-20p17---15h17-17p15-15p13p12-13h15h16p15---13p11|
|-20h22p20p18---17h18-20---20-22-22-------------------------------------------------------------------------------------------------|
|-----------------------------------------------------------------------------------------------------------------------------------|
|-----------------------------------------------------------------------------------------------------------------------------------|
|-----------------------------------------------------------------------------------------------------------------------------------|
|-----------------------------------------------------------------------------------------------------------------------------------|


  N.C.
                                                 ~~~~~~~~~~~~
   E.                         S       +E         E       +E              E           E          S       S
|----------------------------------------------------------------------------------------------------------------|
|----------------------------------------------------------------------------------------------------------------|
|----------------------------------------------------------------------------------------------------------------|
|----------------------------------------------------------------------------------------------------------------|
|-----------------------------------------------/5-------(5)-------------4----------------------4-------5--------|
|--5--------------------------6-------(6)------------------------------------------------------------------------|
|
|  E.                         S       +E         E       +E              E           E          S       S
|----------------------------------------------------------------------------------------------------------------|
|----------------------------------------------------------------------------------------------------------------|
|----------------------------------------------------------------------------------------------------------------|
|----------------------------------------------------------------------------------------------------------------|
|----------------------------------------------------------------------------------------------------------------|
|----------------------------------------------------------------------------------------------------------------|
|--0--------------------------1-------(1)--------5-------(5)-------------4----------------------4-------5--------|
|
|                                      |-------6-------|                             |-----------5-----------|
|  X  X  X  T  T  T  X  X  X  T  X  X  S   S  S  S  S  S  X  T  X  T  T  T  T  T  T  S  T  T  S    T  T   T  T
|-------------------17s18-18h20-18s17----------------------------------------------------------------------------|
|-15h16h17h18-19h20-------------------20--20-18S15-17s20-20p18-17p15-15------------------------------------------|
|-----------------------------------------------------------------------17S14-14S17-19p17s15-14---11s10s==9s10---|
|----------------------------------------------------------------------------------------------------------------|
|----------------------------------------------------------------------------------------------------------------|
|----------------------------------------------------------------------------------------------------------------|


  N.C.
                                                                                         ~~~~~~~~~~~~~~~~~~~~~~~~~~~~~~
   E                         S                    S        +S     S     E          S     E.                        +Q
|-------------------------------------------------------------------------------------------------------------------------------|
|-------------------------------------------------------------------------------------------------------------------------------|
|-------------------------------------------------------------------------------------------------------------------------------|
|-/8-------------------------8--------------------5--------(5)----5-----7----------7--------------------------------------------|
|----------------------------------------------------------------------------------------8-------------------------(8)----------|
|-------------------------------------------------------------------------------------------------------------------------------|
|
|  E                         S                    S        +S     S     E          S     E.                        +Q
|-------------------------------------------------------------------------------------------------------------------------------|
|-------------------------------------------------------------------------------------------------------------------------------|
|-------------------------------------------------------------------------------------------------------------------------------|
|-------------------------------------------------------------------------------------------------------------------------------|
|-------------------------------------------------------------------------------------------------------------------------------|
|--6-------------------------6--------------------3--------(3)----3-----5----------5--------------------------------------------|
|----------------------------------------------------------------------------------------8-------------------------(8)----------|
|
|  |--------------------------6--------------------------|  |---------6---------|
|  T      +T       +T   T S  T      +T   +T      +T   T  T  S  T  T  S  T  T  S S  T  T  T   T  T      +T   +T   T  S   T S  S.
|-------------------------------------------------------------------------------------------------------------------------------|
|----------------------------------------------------10s11h13p11p10-10----------------------------------------------------------|
|-10pb12r(10)b12==(10)r10s7s10b12==(10)r(10)b12-(10)-------------------12s10----9h10S12-----------------------------------------|
|----------------------------------------------------------------------------12---------12-----11b12==(11)r(11)-----------------|
|-------------------------------------------------------------------------------------------12------------------11h12--11p9-----|
|---------------------------------------------------------------------------------------------------------------------------10--|


  N.C.
                                     ~~~~~~~~~~~~~~~~~~~~~~
  E.     S       +E                  E                 +E  E  E     S  S    E      S  S  S  S  E    +S   e     S  S  S  S  S
|------------------------------------------------------------------------|---------------------------------------------------|
|------------------------------------------------------------------------|---------------------------------------------------|
|------------------------------------------------------------------------|---------------------------------------------------|
|------------------------------------------------------------------------|------------5-----8--7----(7)--5-------------------|
|-----------------------------------/5-----------------(5)-4--------4--5-|--7------8---------------------------8--7--5--4----|
|-5------6-------(6)-----------------------------------------------------|-------------------------------------------------6-|
|
| E.     S       +E                  E                 +E  E  E     S  S    E      S  S  S  S  E    +S   e     S  S  S  S  S
|------------------------------------------------------------------------|---------------------------------------------------|
|------------------------------------------------------------------------|---------------------------------------------------|
|------------------------------------------------------------------------|---------------------------------------------------|
|------------------------------------------------------------------------|---------------------------------------------------|
|------------------------------------------------------------------------|---------------------------------------------------|
|------------------------------------------------------------------------|------------3-----6--5----(5)--3-------------------|
|-0------1-------(1)-----------------5-----------------(5)-4--------4--5-|--7------8---------------------------8--7--5--4--1-|
|
|                 |---------------6----------------|
| S  E  +S       +S   +S   +S       +S   +S       +S   +E  E  S  S  S  S    S.  T  S  S  S  S  S  S  S   S  S  S  S  S  S  S
|------------------------------------------------------------------------|---------------------------------------12-13-15-16-|
|------------------------------------------------------------------------|-----------------13-14-15p14--13-14-15-------------|
|-7s12-(12)b14==(12)r(12)-(12)b14==(12)r(12)b14==(12)r(12)------------14-|-15--14p12-14-15-----------------------------------|
|----------------------------------------------------------2S14-15-17----|---------------------------------------------------|
|------------------------------------------------------------------------|---------------------------------------------------|
|------------------------------------------------------------------------|---------------------------------------------------|


                                          ~~~~~~~~~~~~~~~~~~
   E.                   S  +E             E            +E   E  E        S    S
|---------------------------------------------------------------------------------|
|---------------------------------------------------------------------------------|
|---------------------------------------------------------------------------------|
|---------------------------------------------------------------------------------|
|----------------------------------------/5------------(5)--4-----------4----5----|
|--5--------------------6--(6)----------------------------------------------------|
|
|  E.                   S  +E             E            +E   E  E        S    S
|---------------------------------------------------------------------------------|
|---------------------------------------------------------------------------------|
|---------------------------------------------------------------------------------|
|---------------------------------------------------------------------------------|
|---------------------------------------------------------------------------------|
|---------------------------------------------------------------------------------|
|--0--------------------1--(1)------------5------------(5)--4-----------4----5----|
|
|                                                              |-------6--------|
|  S      +S   +S       S  +S       +S   +S       +S   +Q      S  S  S  S  S    S
|-17b18==(17)r(17)b18==17r(17)b18==(17)r(17)b18==(17)r(17)\-----------------------|
|-------------------------------------------------------------------14s17---------|
|-------------------------------------------------------------14h17-------14h==17-|
|---------------------------------------------------------------------------------|
|---------------------------------------------------------------------------------|
|---------------------------------------------------------------------------------|


  N.C.
                                                     ~~~
   E.                   S    +E          E           Q                            +Q
|---------------------------------------------------------------------------------------------------------||
|---------------------------------------------------------------------------------------------------------||
|---------------------------------------------------------------------------------------------------------||
|---------------------------------------------------------------------------------------------------------||
|-/7--------------------8----(8)---------7-----------5----------------------------(5)\--------------------||
|---------------------------------------------------------------------------------------------------------||
|
|  E.                   S    +E          E           H
|---------------------------------------------------------------------------------------------------------||
|---------------------------------------------------------------------------------------------------------||
|---------------------------------------------------------------------------------------------------------||
|---------------------------------------------------------------------------------------------------------||
|---------------------------------------------------------------------------------------------------------||
|---------------------------------------------------------------------------------------------------------||
|--7--------------------8----(8)---------7-----------5----------------------------------------------------||
|
|                             |---------7---------|                                |---------7---------|
|  T  T  T  T  T  X  X  T  T  S  S  S  S    S  S  S  X  X  T  T  T  T  T  T  X  X  S    S  S  S  S  S  S
|----------------15h17------------------------------------------------------------------------------------||
|-14s17p14-17S18-------14h17-18s22h24------18h20s23-21p18s21-------20s23---------------18h20s22-18h20s22--||
|-------------------------------------19---------------------19h22-------21-18s19s21----------------------||
|---------------------------------------------------------------------------------------------------------||
|---------------------------------------------------------------------------------------------------------||
|---------------------------------------------------------------------------------------------------------||


 Piano Solo
  D5                                                     C5
 5/8
  Gtrs II, III
   E.                E                           S         E    E
   |                 |                           |         |    |
   /                 /                           x         /    /

  Gtr VI
   S     E           E                           S         E    E
|-22----------------22------------------------------------20------|
|-------22--------------------------------------22-------------20-|
|-19----------------19------------------------------------17------|
|-------19--------------------------------------19-------------17-|
|-----------------------------------------------------------------|
|-----------------------------------------------------------------|
|-----------------------------------------------------------------|
|
| Gtr V
|  T  T  S.  T      +T   +T       +T   +T       +T   +T   +E    E
|-18s20s22--22b23==(22)r(22)b23==(22)r(22)b23==(22)r(22)-(22)\----|
|-----------------------------------------------------------------|
|-----------------------------------------------------------------|
|-----------------------------------------------------------------|
|-----------------------------------------------------------------|
|-----------------------------------------------------------------|


  Bb5          A5      G5           F5
                      6/8
   E.     E  S  E  E    E.     E  S  E  E    E
   |      |  |  |  |    |      |  |  |  |    |
   /      /  x  /  /    /      /  x  /  /    /

   S   E  E  S  E  E    S   E  E  S  E.    E    S
|-18-----18----17----|--------18----------22------|
|-----18----18----17-|-20--------20-22---------22-|
|-15-----15----14----|-----19-15----------19------|
|-----15----15----14-|-17--------17-19------------|
|--------------------|-----17---------------------|
|--------------------|----------------------------|
|--------------------|----------------------------|
|
|  W                    W
|--------------------|----------------------------|
|--------------------|----------------------------|
|--------------------|----------------------------|
|--------------------|----------------------------|
|--------------------|----------------------------|
|--------------------|----------------------------|


  E5                              A5
   E.             E          S     E     E     E
   |              |          |     |     |     |
   /              /          x     /     /     /

   |------------9:6-------------|
   S   S  S  S  S    S  S  S    S  S  S  S  S  S  S
|-------------------15-18-15------17-15-13----------|
|--------------15--------------15----------17-15-14-|
|-----------15--------------------14----------------|
|-17-----17-----------------------------------------|
|-----17--------------------------------------------|
|---------------------------------------------------|
|---------------------------------------------------|


  D5          C5         Bb5          A5
 5/8
  E.     E  S  E     E    E.     E  S  E     E
  |      |  |  |     |    |      |  |  |     |
  /      /  x  /     /    /      /  x  /     /

  S   E  E  S  S  S  E    E   S  E  S  S  S  E
|-------------------15-|-----15-17-18-17-18-17--|
|----15-17-18-17-18----|-18---------------------|
|----------------------|------------------------|
|----------------------|------------------------|
|----------------------|------------------------|
|----------------------|------------------------|
|----------------------|------------------------|


  G5              F5
 6/8
   E.        E  S  E        E        E
   |         |  |  |        |        |
   /         /  x  /        /        /

                   |----------9:6----------|
   S   S  S  E  S  S  S  S  S  S  S  S  S  S
|-15--------18-17----------------------------|
|-----15----------18-15----17-15----15-------|
|--------15-------------14-------14----14----|
|-----------------------------------------15-|
|--------------------------------------------|
|--------------------------------------------|
|--------------------------------------------|


  E5                              A5
   E.             E          S     E  E E
   |              |          |     |  | |
   /              /          x     /  / /

   |------------9:6-------------|
   S   S  S  S  S    S  S  S    S  E  Q
|-18--17-15--------------------------17---||
|-----------18-17---14--------------------||
|----------------------15-12---------14---||
|------------------------------14-12------||
|-----------------------------------------||
|-----------------------------------------||
|-----------------------------------------||


 Synth Solo
  D5            C5              Bb5                     A5
 5/8
  E.        E S E      E         E.         E         S  E      E
  |         | | |      |         |          |         |  |      |
  /         / x /      /         /          /         x  /      /

  Gtr IV
                                      \0.5/     \0.5/
         ~~~~
  S  S  +Q      S +S   S  +S     E   +E        +E        E     +E
|-----------------------------|-------------------------12b13-(12)-|
|-----------------------------|------------------------------------|
|---------------9-(9)s12-(12)s|=10--(10)------(10)-----------------|
|-7s12-(12)-------------------|------------------------------------|
|-----------------------------|------------------------------------|
|-----------------------------|------------------------------------|


  G5             F5
 6/8
   E.      E   S   E   E    E
   |       |   |   |   |    |
   /       /   x   /   /    /

   \2.5/   \1______|   \1/  \1/
   E.     +E.     +E   E    E
|-10-----(10)----(10)-----------|
|---------------------10---10---|
|-------------------------------|
|-------------------------------|
|-------------------------------|
|-------------------------------|


  E5                        A5
   E.          E          S E          E       E
   |           |          | |          |       |
   /           /          x /          /       /

                  |-3--|    |----4:3-----| |--4:3--|
   T  T  S  S  S  T  T T  S T  S X X S   S S S   S S
|------------------------------------------------------|
|----------10----11p10p8-------------------------------|
|-12p10h12---------------10-7h10-9p7p6-----6-----------|
|-------------12-------------------------8---8---7-7b8r|
|------------------------------------------------------|
|------------------------------------------------------|


  D5             C5
 5/8
   E.        E S E   E
   |         | | |   |
   /         / x /   /

  +S  S +Q       S S S S
|-------------------------|
|-------------------------|
|-------------------------|
|-(7)---------------------|
|-----5-(5)\-----------3--|
|----------------0-1-3----|


  Bb5                    A5
  E.       E       S     E          E
  |        |       |     |          |
  /        /       x     /          /

             |----5----| |---------6---------|
  S  T T S S T T T   T T S. T  T  T T  T  S  S
|----------------------------------------------|
|----------------------------------------------|
|-------------------------------------------10-|
|--------------------5h7-7--8h10h11-8h10h12----|
|-5------3-5-5h7h8-----------------------------|
|----3s5---------------------------------------|


  G5                           F5
 6/8
   E.                  E    S   E          E        E
   |                   |    |   |          |        |
   /                   /    x   /          /        /

   |--3---|
   S   S  S   S       +E   +S   S   S      T  T  E      T  T
|-----------[15]b17==(15)-(15)r15-[15]b17-15p13h15\-------12pb13r=|
|-----10----------------------------------------------------------|
|-12-----10-------------------------------------------------------|
|-----------------------------------------------------\12---------|
|-----------------------------------------------------------------|
|-----------------------------------------------------------------|


  E5
    E.                E               S     E            E          E
    |                 |               |     |            |          |
    /                 /               x     /            /          /

    |---------------10:6-----------------|  |------------10:6-------------|
   +S   S  S  T  T S.    T  T  T  S S    S  S T T  T T S   S  T T S   S S S
|-(12)-10-13p12p10p9--------------------------------------------------------|
|-----------------------11h14p11p10-8---11-10p8p6-10p8p6--------------------|
|----------------------------------------------------------9h10p9p7---6-9p7p|
|---------------------------------------------------------------------------|
|---------------------------------------------------------------------------|
|---------------------------------------------------------------------------|


  E.          E       S     E       E     E
  |           |       |     |       |     |
  /           /       x     /       /     /

  |---------10:6----------| |------9:6------|
  S. T  S S S S S S T   T S S S T T S S S S E
|------------------------------------------------||
|------------------------------------------------||
|-6----------------------------------------------||
|----8h11-8-5-8-5---7p==5p3----------------------||
|-----------------8---------7-8-7p5p4-1-4-1-0----||
|------------------------------------------------||


  N.C.
 4/4
  Gtrs II, III
                             ~~~~~~~~~~~~~~~~~
   E.             S     +E   E           +E                E             E    S             S
|----------------------------------------------------------------------------------------------|
|----------------------------------------------------------------------------------------------|
|----------------------------------------------------------------------------------------------|
|----------------------------------------------------------------------------------------------|
|---------------------------/5-----------(5)---------------4------------------4-------------5--|
|--5--------------6-----(6)--------------------------------------------------------------------|
|
| Gtr IV
|                                                          |--3--|
| +T   T     +E   S     +E   S  +S       +T   +T      +S   S  S  S      +E   +T   +T       +S
|-----15b17-(15)-15b17-(15)-15-(15)b17==(15)r(15)b17-(15)----17--------------------------------|
|---------------------------------------------------------------15b17==(15)-(15)r(15)b17==(15)-|
|---------------------------------------------------------14-----------------------------------|
|----------------------------------------------------------------------------------------------|
|-(0)------------------------------------------------------------------------------------------|
|----------------------------------------------------------------------------------------------|


    E  S S   S  S  E        +S      e        S  S        S     S     S
|------------------------------------------------------------------------------|
|------------------------------------------------------------------------------|
|------------------------------------------------------------------------------|
|--------5------8--7--------(7)-----5------------------------------------------|
|---7--8-------------------------------------8--7--------5-----4---------------|
|--------------------------------------------------------------------6---------|
|
|                                   |--3--|
|  +Q       +E     T  S  T  +T   T  S  S  S  S  X  X  T  T  T  T  T  T  T
|------------------------------------------------------------------------------|
|-(15)-----(15)r==14h15h17-(17)-15s14----15------------------------------------|
|-------------------------------------15----15-14h15p14-12p10h12-14h15-12b14===|
|------------------------------------------------------------------------------|
|------------------------------------------------------------------------------|
|------------------------------------------------------------------------------|


  N.C.
                         ~~~~~~~~~~~~~~~~~
    E.           S  +E   E           +E       E      E   S  S
|-------------------------------------------------------------|
|-------------------------------------------------------------|
|-------------------------------------------------------------|
|-------------------------------------------------------------|
|-----------------------/5-----------(5)------4----------4--5-|
|---5------------6--(6)---------------------------------------|
|
|  +E   +S       S  +E   S      +S   +S    s  S  S  +E   S  S
|-------------------------------------------------------------|
|-------------------------------------------------------------|
|-(12)r(12)b14==12-(12)r12b14==(12)-(12)r/14------------------|
|--------------------------------------------12h14-(14)-12s11-|
|-------------------------------------------------------------|
|-------------------------------------------------------------|


                                                    ~~~
   E        S     S  +S  S  E           S     S    +Q                    +E
|--------------------------------------------------------------------------------------------------|
|--------------------------------------------------------------------------------------------------|
|--------------------------------------------------------------------------------------------------|
|-/8--------8-----5--(5)-5--7-----------7----------------------------------------------------------|
|---------------------------------------------8----(8)-------------------(8)\----------------------|
|--------------------------------------------------------------------------------------------------|
|
|                              |--3--|              |----5----|  |--5--|  |---------6---------|
|  T  T  S  T  T  S   S  S  S  T  T  T  T  T  T  T  T   T  S  T  S  T  S  T    T  T     +T    S
|--------------------------------------------------15---------------------------------------[17]---|
|--------------------------------------------14h17-------------------------------15b16-(15)--------|
|--------------------------------------12h15-----------18p15-------------13h==17-------------------|
|-14p12p11-----------------------11h14-----------------------17p14---------------------------------|
|----------16p13-12-/13s12-10h12-----------------------------------15h17---------------------------|
|--------------------------------------------------------------------------------------------------|


  N.C.
                      ~~~~~~~~~~~~~~~~~~~~~
   E.         S  +E   E                +E  E   E        S  S
|------------------------------------------------------------|
|------------------------------------------------------------|
|------------------------------------------------------------|
|------------------------------------------------------------|
|--------------------/5----------------(5)-4------------4--5-|
|--5----------6--(6)-----------------------------------------|
|
|  S      +E.    +E.     +T   +T       +Q     +S   +S   S  S
|-22b24==(22)---(22)----(22)r(22)b24==(22)---(22)r(22)\-9----|
|---------------------------------------------------------11-|
|------------------------------------------------------------|
|------------------------------------------------------------|
|------------------------------------------------------------|
|------------------------------------------------------------|


   E                S    S      S     S     E          +S     e           S  S     S   S                      S
|-------------------------------------------------------------------------------------------------------------------------------|
|-------------------------------------------------------------------------------------------------------------------------------|
|-------------------------------------------------------------------------------------------------------------------------------|
|------------------------5------------8-----7----------(7)----5-----------------------------------------------------------------|
|--7----------------8-----------------------------------------------------8--7-----5---4----------------------------------------|
|-------------------------------------------------------------------------------------------------------------6-----------------|
|
|                               |---------6----------|        |---3----|               |-----------------6------------------|
|  S      +S       +S   +S      T  S  T  S  s  T  T  S  T  T  S     S  S  S  T  T  S  +T       +T   +T       +T   +T       +T
|-22b24==(22)b25==(22)r(22)b27-21p18-------18----------------------17----17-----------------------------------------------------|
|------------------------------------22p20----22s20s18-20s22-20b22----20----20p18p17-(17)b18==(17)r(17)b18==(17)r(17)b18==(17)r=|
|-------------------------------------------------------------------------------------------------------------------------------|
|-------------------------------------------------------------------------------------------------------------------------------|
|-------------------------------------------------------------------------------------------------------------------------------|
|-------------------------------------------------------------------------------------------------------------------------------|


  N.C.
                                           ~~~~~~~~~~~~~~~~~~~~~~~~~~
    E.              S     +E               E                     +E     E           E             S    S
|-----------------------------------------------------------------------------------------------------------|
|-----------------------------------------------------------------------------------------------------------|
|-----------------------------------------------------------------------------------------------------------|
|-----------------------------------------------------------------------------------------------------------|
|-----------------------------------------/5---------------------(5)----4-------------------------4----5----|
|---5---------------6-----(6)-------------------------------------------------------------------------------|
|
|  +S.   T     +S   T  T  +T   T  X  T  X  T  X  X  X     +T   X  S  S  T  T  T  T  T     +S   T  T  S    T
|-----------------------------------------------------------------------------------------------------------|
|-(17)\-16b18-(16)-17---------18p17-------------18p17b18-(17)-17--6--6S18p17-------15b17r(15)----18-17------|
|-----------------------------------19p18p17p16---------------------------------14--------------------------|
|---------------------17-(17)------------------------------------------------15---------------17---------15-|
|-----------------------------------------------------------------------------------------------------------|
|-----------------------------------------------------------------------------------------------------------|


  N.C.
   E.                      S       +S               S     E        E.                      S    +E                 E
|-------------------------------------------------------------------------------------------------------------------------------------||
|-------------------------------------------------------------------------------------------------------------------------------------||
|-------------------------------------------------------------------------------------------------------------------------------------||
|-------------------------------------------------------------------------------------------------------------------------------------||
|-/8-----------------------7-------(7)--------------7-----8--------7-----------------------5----(5)-----------------------------------||
|------------------------------------------------------------------------------------------------------------------6------------------||
|
|           |-----5-----|  |----4:3-----|  |--3--|        |--3--|  |--3--|                                                     |--3--|
|  T  S  T  X  X  X  X  X  T  T  T      T  X  X  X  T  T  S  S  S  X  X  X  T  T  T  T  T  T  T  T  T  X  X  X  X  T  T  X  X  X  X  X
|-------------------------15-15-13h====15-17p15-------15s18----18p17p15-13h15-18s13-15-15p13h15-13h17p13-15h17h18----15h17p15---------||
|-15h17----17p15p14h15h17-------------------------------------------------------------------------------------------------------------||
|-----------------------------------------------15p12-------14----------------------------------------------------------------16p14h16||
|-------17--------------------------------------------------------------------------------------------------------17------------------||
|-------------------------------------------------------------------------------------------------------------------------------------||
|-------------------------------------------------------------------------------------------------------------------------------------||


  A5                                  F5
  Gtrs II, III
   W                                   W
   |                                   |
   /                                   /

  Gtr IV
                              ~~~~~                     ~~~~
   E.   S  +E    E      +E   +Q.       E.   S  +E   E  +H
|-----------------------------------|-------------------------|
|--------------/19b20==(19)-(19)r---|--------------16-(16)----|
|-14--/17-(17)----------------------|-10--/14-(14)------------|
|-----------------------------------|-------------------------|
|-----------------------------------|-------------------------|
|-----------------------------------|-------------------------|


  A5                                  F5
   W                                   W
   |                                   |
   /                                   /

                              ~~~~~                     ~~~~
   E.   S  +E    E      +E   +Q.       E.   S  +E   E  +H
|-----------------------------------|-------------------------|
|--------------/19b20==(19)-(19)r---|--------------16-(16)----|
|-14--/17-(17)----------------------|-10--/14-(14)------------|
|-----------------------------------|-------------------------|
|-----------------------------------|-------------------------|
|-----------------------------------|-------------------------|


  C5                             Ab5
  W                              W
  |                              |
  /                              /

                                                    ~~~
  E.  S +E   E +Q.   +S    +S    E.  S +E   E +Q   +Q
|-----------/6-(6)---(6)b8-(6)-|-----------/2-(2)--(2)--|
|------------------------------|------------------------|
|-5--/8-(8)--------------------|-1--/5-(5)--------------|
|------------------------------|------------------------|
|------------------------------|------------------------|
|------------------------------|------------------------|


                                              H.=H
  C5                             Ab5
  W                              W
  |                              |
  /                              /

                           ~~~                     ~~~
  E.  S +E  S    +S  +Q   +Q     E.  S +E   E +E  +Q.
|-----------6b8==(6)r(6)--(6)--|-----------/2-(2)-(2)----||
|------------------------------|-------------------------||
|-5--/8-(8)--------------------|-1--/5-(5)---------------||
|------------------------------|-------------------------||
|------------------------------|-------------------------||
|------------------------------|-------------------------||


  Slower Q=92
  C#5            N.C.
  H    +H        W
  |     |
  /     /

  H    +H        Wx3
|--------------|--------|
|--------------|--------|
|-6----(6)\----|--------|
|--------------|--------|
|--------------|--------|
|--------------|--------|


    C#5    E5      F5      G5     G#5 B5C5
    Gtr II
    E.     S +E    E   +S  E.     E   S S
||----------------------------------------|
||o---------------------------------------|
||--6---------------------------------4s5-|
||--6------2-(2)---3---(3)-5------6---4s5-|
||o-4------2-(2)---3---(3)-5------6---2s3-|
||---------0-(0)---1---(1)-3------4-------|
|
|   Gtr III
|   S  S S S  S  S S S  S  S  S S S S E
||----------------------------------------|
||o---------------------------------------|
||--x--x-4-x--x--4-x-x--4--x--x-4-x-x-4---|
||--x--x-3-x--x--3-x-x--3--x--x-3-x-x-3---|
||o---------------------------------------|
||----------------------------------------|


  C#5    E5      F5      G5     G#5
  E.     S +E    E   +S  E.     E   E
|----------------------------------------||
|---------------------------------------o||
|-6--------------------------------------||
|-6------2-(2)---3---(3)-5------6--------||
|-4------2-(2)---3---(3)-5------6-------o||
|--------0-(0)---1---(1)-3------4--------||
|
| S  S S S  S  S S S  S  S  S S S S S S
|----------------------------------------||
|---------------------------------------o||
|-x--x-4-x--x--4-x-x--4--x--x-4-4-x-4-4--||
|-x--x-3-x--x--3-x-x--3--x--x-3-3-x-3-3--||
|---------------------------------------o||
|----------------------------------------||


  C#5   E5      F5    G5      G#B5C5   C#5E5      F5    G5
                                      3/4
  E.    S +E    E +S   E.     E S  S   E. S +E    E +S  E.
|------------------------------------|-----------------------||
|------------------------------------|-----------------------||
|-6-----------------------------4s=5-|-6---------------------||
|-6-----2-(2)---3-(3)--5------6-4s=5-|-6--2-(2)---3-(3)-5----||
|-4-----2-(2)---3-(3)--5------6-2s=3-|-4--2-(2)---3-(3)-5----||
|-------0-(0)---1-(1)--3------4------|----0-(0)---1-(1)-3----||
|
| E  Q.            H                   W
|------------------------------------|-----------------------||
|------------------------------------|-----------------------||
|-4\---------------------------------|-----------------------||
|-3\---------------------------------|-----------------------||
|------------------------------------|-----------------------||
|------------------------------------|-----------------------||
|
| Gtr I
| E.    S +S  S E +S   S  S S E S  S   E. S +S  S E +S  E  S
|-9-----------9-7-(7)-------7--------|-----------------------||
|-------------------------9---9------|-8--------8-6-(6)----6-||
|-------9-(9)---------10--------9-10-|------------------6----||
|------------------------------------|----9-(9)--------------||
|------------------------------------|-----------------------||
|------------------------------------|-----------------------||


  E5     G5         G#5     Bb5   B5  D5Eb5
 4/4
   E.     S  +E      E  +S  E.    E   S S
|------------------------------------------|
|------------------------------------------|
|--9----------------------------------7s8--|
|--9------5--(5)-----6--(6)-8-----9---7s8--|
|--7------5--(5)-----6--(6)-8-----9---5s6--|
|---------3--(3)-----4--(4)-6-----7--------|
|
|  W
|------------------------------------------|
|------------------------------------------|
|------------------------------------------|
|------------------------------------------|
|------------------------------------------|
|------------------------------------------|
|
|  E   S  S  +S   S  E  +S  E   S S S S S
|-12-------------12-10-(10)----10-7--------|
|---------------------------9--------------|
|--------12-(12)----------------------7----|
|-----12----------------------------9---8--|
|------------------------------------------|
|------------------------------------------|


  E5     G5      G#5     Bb5     G5  Bb5     B5    Db5     D5    F5 F#5
 3/4                            4/4
  E.     S +E    E   +S  E.       E. S +E    E +S   E.      E     S  S
|-----------------------------||---------------------------------------|
|-----------------------------||---------------------------------------|
|-9---------------------------||-12------------------------------10s11-|
|-9------5-(5)---6---(6)-8----||-12--8-(8)---9-(9)-11------12----10s11-|
|-7------5-(5)---6---(6)-8----||-10--8-(8)---9-(9)-11------12-----8s=9-|
|--------3-(3)---4---(4)-6----||-----6-(6)---7-(7)--9------10----------|
|
| Gtr I
| S  S S S +S  S S S +S  E  S     E. S +S  S E +S   S  S S  S  S  S  S
|-6------------6-4------------||---------------------------10----------|
|--------3-(3)-----------5----||--8--------8-9-(9)---------------------|
|------4----------------------||-----6-(6)----------9----9-------10-12-|
|----5-------------6-(6)----6-||-----------------------9------12-------|
|-----------------------------||---------------------------------------|
|-----------------------------||---------------------------------------|


  G5        Bb5     B5       Db5 D5   E5
   E.        S  +E   E   +S   E.  E   E
|-----------------------------------------|
|-----------------------------------------|
|-12----------------------------------9---|
|-12---------8--(8)--9---(9)-11--12---9---|
|-10---------8--(8)--9---(9)-11--12---7---|
|------------6--(6)--7---(7)--9--10-------|
|
|  S   S  S  S  +E   S S  S   E.  S S S S
|----------------------9------------------|
|--------12-------------------------------|
|-----13----12-(12)-10---10---9-------7---|
|-11------------------------------6-5---6-|
|-----------------------------------------|
|-----------------------------------------|


  F5VIII          E5VII            D5         C5               B5  Ab5
 2/4                              3/8        2/4              3/8
  Gtrs II, III
  H                H                Q.         H                E.  E.
  |                |                |          |                |   |
  /                /                /          /                /   /

  Gtr IV
  E.  S  +E   E    E.  S  +E   E    E.  E.     E.  S  +E   E    E.  E   S
|---------------|----------------|----------|-------------15-|-16--18--19-||
|---------------|-------------12-|-14--15---|-17--18-(18)----|------------||
|-9--10-(10)-12-|-13--15-(15)----|----------|-------------12-|-13--15--16-||
|---------------|--------------9-|-11--12---|-14--15-(15)----|------------||
|-7---8--(8)-10-|-11--13-(13)----|----------|----------------|------------||
|---------------|----------------|----------|----------------|------------||


  Slightly Faster Q=100
  A5                               F5
 4/4
  Gtr III
   W                               W
   |                               |
   /                               /

  Gtr II
   E.  S  +E  E  +Q.        +E     E.  S  +S  S E +H
|--------------------------------|-----------------------|
|-------------8--(8)--------(8)\-|--------------4-(4)----|
|------5--(5)--------------------|-----1--(1)-2----------|
|-/7--(7)------------------------|-3--(3)----------------|
|--------------------------------|-----------------------|
|--------------------------------|-----------------------|
|
| Gtr IV
|  H             +Q    +Q          W
|-20------------(20)--(20)\------|-----------------------|
|--------------------------------|-----------------------|
|-17------------(17)--(17)\------|-----------------------|
|--------------------------------|-----------------------|
|--------------------------------|-----------------------|
|--------------------------------|-----------------------|


  A5                         F5
   W                         W
   |                         |
   /                         /

   E.  S  +E  E +Q.   +E     E.  S  +S  S E +H
|--------------------------|-----------------------|
|-------------8-(8)---(8)\-|--------------4-(4)----|
|------5--(5)--------------|-----1--(1)-2----------|
|-/7--(7)------------------|-3--(3)----------------|
|--------------------------|-----------------------|
|--------------------------|-----------------------|
|
|  W                         W
|--------------------------|-----------------------|
|--------------------------|-----------------------|
|--------------------------|-----------------------|
|--------------------------|-----------------------|
|--------------------------|-----------------------|
|--------------------------|-----------------------|


  C5                              Ab5
    W                             W
    |                             |
    /                             /

    E.   S  +E   E  +Q.    +E     E.  S  +S  S E +H
|-------------------------------|-----------------------|
|---------------11-(11)---(11)\-|--------------7-(7)----|
|--------8--(8)-----------------|-----4--(4)-5----------|
|-/10--(10)---------------------|-6--(6)----------------|
|-------------------------------|-----------------------|
|-------------------------------|-----------------------|


  C5                              Ab5
    W                             W
    |                             |
    /                             /

    E.   S  +E   E  +Q.    +E     E.  S  +S  S E +H
|-------------------------------|-----------------------||
|---------------11-(11)---(11)\-|--------------7-(7)----||
|--------8--(8)-----------------|-----4--(4)-5----------||
|-/10--(10)---------------------|-6--(6)----------------||
|-------------------------------|-----------------------||
|-------------------------------|-----------------------||


  Slightly Slower Q=92
  C#7+9             N.C.
  Gtrs II, III
  H    +Q   +Q      Wx3
|-----------------|--------|
|-5----(5)--(5)\--|--------|
|-4----(4)--(4)\--|--------|
|-3----(3)--(3)\--|--------|
|-4----(4)--(4)\--|--------|
|-----------------|--------|


  C#5 E5      F5      G5  G#5  B5C5  C#5 E5       F5       G5
                                    3/4
  Gtr II
   E. S +E     E  +S   E.  E   S S    E. S  +E     E  +S   E.
|----------------------------------|----------------------------||
|----------------------------------|----------------------------||
|--6---------------------------4s5-|--6-------------------------||
|--6--2-(2)----3--(3)--5---6---4s5-|--6--2--(2)----3--(3)--5----||
|--4--2-(2)----3--(3)--5---6---2s3-|--4--2--(2)----3--(3)--5----||
|-----0-(0)----1--(1)--3---4-------|-----0--(0)----1--(1)--3----||
|
| Gtr I
|  E. S +S  S  E  +S   E.  S S S S    E. S  +S  S  E  +S   E  S
|--9--------9--7--(7)--------------|----------------------------||
|--------------------------9-------|--8---------8--6--(6)-------||
|-----9-(9)-----------10---------6-|-----------------------6--7-||
|----------------------------6-9---|-----9--(9)-----------------||
|----------------------------------|----------------------------||
|----------------------------------|----------------------------||
|
| Gtrs III, IV
|  Q.          E  +Q       Q          Q     +E     E  +Q
|----------------------------------|----------------------------||
|-14----------12-(12)--------------|----------------------------||
|-------------------------13-------|-12----(12)---10-(10)\------||
|----------------------------------|----------------------------||
|----------------------------------|----------------------------||
|----------------------------------|----------------------------||


  E5        G5         G#5     Bb5   B5   D5Eb5
 4/4
   E.        S  +E      E  +S  E.     E   S S
|---------------------------------------------|
|---------------------------------------------|
|--9--------------------------------------7s8-|
|--9---------5--(5)-----6--(6)-8------9---7s8-|
|--7---------5--(5)-----6--(6)-8------9---5s6-|
|------------3--(3)-----4--(4)-6------7-------|
|
|  S   S  S  S  +S   S  E  +S  E   S  S S S S
|-12----------------12-10-(10)----10--7-------|
|------------------------------9--------------|
|-----12----12-(12)-----------------------7---|
|--------12-----------------------------9---8-|
|---------------------------------------------|
|---------------------------------------------|
|
|  Q.                   E  +Q         Q
|---------------------------------------------|
|-17-------------------15-(15)----------------|
|------------------------------------16-------|
|---------------------------------------------|
|---------------------------------------------|
|---------------------------------------------|


  E5      G5       G#5       Bb5     G5  Bb5     B5      Db5     D5    F5 F#5
 3/4                                4/4
   E.     S  +E     E    +S  E.       E. S +E     E  +S   E.      E     S  S
|---------------------------------||-----------------------------------------|
|---------------------------------||-----------------------------------------|
|--9------------------------------||-12--------------------------------10s11-|
|--9------5--(5)----6----(6)-8----||-12--8-(8)----9--(9)-11------12----10s11-|
|--7------5--(5)----6----(6)-8----||-10--8-(8)----9--(9)-11------12-----8s=9-|
|---------3--(3)----4----(4)-6----||-----6-(6)----7--(7)--9------10----------|
|
|  S  S S S  +S  S  S S  +S  E  S     E. S +S  S  E  +S   S  S S  S  S  S  S
|--6-------------6--4-------------||-----------------------------10----------|
|---------3--(3)-------------5----||--8--------8--9--(9)---------------11----|
|-------0-------------------------||-----6-(6)------------9----9----10----12-|
|-----5---------------6--(6)----6-||-------------------------9---------------|
|---------------------------------||-----------------------------------------|
|---------------------------------||-----------------------------------------|
|
|  Q         +E     E    +Q           Q.          E  +Q           Q
|---------------------------------||-----------------------------------------|
|---------------------------------||-----------------------------------------|
|-15--------(15)---13---(13)------||-12----------10-(10)---------------------|
|---------------------------------||-----------------------------12----------|
|---------------------------------||-----------------------------------------|
|---------------------------------||-----------------------------------------|


  G5        Bb5     B5        Db5 D5  E5
   E.        S  +E  E     +S   E.  E  E
|---------------------------------------|
|---------------------------------------|
|-12----------------------------------9-|
|-12---------8--(8)-9-----(9)-11--12--9-|
|-10---------8--(8)-9-----(9)-11--12--7-|
|------------6--(6)-7-----(7)--9--10----|
|
|  S   S  S  S  +E  S  S  +S   E. +Q
|---------------------------------------|
|--------12-----------------------------|
|-----13----12-(12)---10-(10)--9--(9)---|
|-11----------------9-------------------|
|---------------------------------------|
|---------------------------------------|
|
|  Q.               E     +H
|---------------------------------------|
|---------------------------------------|
|---------------------------------------|
|-11----------------9-----(9)-----------|
|---------------------------------------|
|---------------------------------------|


  F5VIII          E5VII            D5         C5               B5  Ab5
 2/4                              3/8        2/4              3/8
  Gtrs II, III
  H                H                Q.         H                E.  E.
  |                |                |          |                |   |
  /                /                /          /                /   /

  Gtr IV
  E.  S  +E   E    E.  S  +E   E    E.  E.     E.  S  +E   E    E.  E   S
|---------------|----------------|----------|-------------15-|-16--18--19-||
|---------------|-------------12-|-14--15---|-17--18-(18)----|------------||
|-9--10-(10)-12-|-13--15-(15)----|----------|-------------12-|-13--15--16-||
|---------------|--------------9-|-11--12---|-14--15-(15)----|------------||
|-7---8--(8)-10-|-11--13-(13)----|----------|----------------|------------||
|---------------|----------------|----------|----------------|------------||


  Slightly Faster Q=100
  A5                               F5
 4/4
  Gtr III
   W                                W
   |                                |
   /                                /

  Gtr II
   E.  S  +E  E  +Q.        +E      E.  S  +S  S  E  +H
|--------------------------------|----------------------------|
|-------------8--(8)--------(8)\-|----------------4--(4)------|
|------5--(5)--------------------|------1--(1)-2--------------|
|-/7--(7)------------------------|--3--(3)--------------------|
|--------------------------------|----------------------------|
|--------------------------------|----------------------------|
|
| Gtr IV
|  H             +Q    +Q           Q.            E  +Q    Q
|-20------------(20)--(20)\------|----------------------------|
|--------------------------------|-16------------15-(15)--13--|
|-17------------(17)--(17)\------|----------------------------|
|--------------------------------|----------------------------|
|--------------------------------|----------------------------|
|--------------------------------|----------------------------|


  A5                                  F5
    W                                   W
    |                                   |
    /                                   /

    E.  S   +E   E  +Q.        +E       E.  S  +S  S E +H
|-----------------------------------|-------------------------|
|----------------8--(8)--------(8)\-|----------------4-(4)----|
|-------5---(5)---------------------|-------1--(1)-2----------|
|--/7--(7)--------------------------|---3--(3)----------------|
|-----------------------------------|-------------------------|
|-----------------------------------|-------------------------|
|
|                          \1/
|   Q       +E   E  +Q    +Q           +W
|-----------------------------------|-------------------------|
|-/17------(17)s10-(10)--(10)-------|-(10)--------------------|
|-----------------------------------|-------------------------|
|-----------------------------------|-------------------------|
|-----------------------------------|-------------------------|
|-----------------------------------|-------------------------|


  C5                                                  Ab5
    W                                                  W
    |                                                  |
    /                                                  /

    E.   S  +E   E  +Q.                        +E      E.  S  +S  S  E  +H
|---------------------------------------------------|-----------------------------|
|---------------11-(11)-----------------------(11)\-|----------------7--(7)-------|
|--------8--(8)-------------------------------------|------4--(4)-5---------------|
|-/10--(10)-----------------------------------------|--6--(6)---------------------|
|---------------------------------------------------|-----------------------------|
|---------------------------------------------------|-----------------------------|
|
|   Q.           E  +S   +S       +S   +S   Q          Q.            E  +Q     Q
|--20-----------18-(18)-(18)b20==(18)r(18)----------|-----------------------------|
|------------------------------------------20-------|-19------------18-(18)--\16--|
|--17-----------15-(15)-(15)b17==(15)r(15)----------|-----------------------------|
|------------------------------------------17-------|-16------------15-(15)--\13--|
|---------------------------------------------------|-----------------------------|
|---------------------------------------------------|-----------------------------|


  C5                                    Ab5
    W                                     W
    |                                     |
    /                                     /

    E.   S  +E   E  +Q.          +E       E.  S  +S  S E +H
|-------------------------------------|-------------------------|
|---------------11-(11)---------(11)\-|----------------7-(7)----|
|--------8--(8)-----------------------|-------4--(4)-5----------|
|-/10--(10)---------------------------|---6--(6)----------------|
|-------------------------------------|-------------------------|
|-------------------------------------|-------------------------|
|
|   Q.           E  +E   +E   Q          +W
|--15---------------------------------|-------------------------|
|---------------13-(13)-(13)s16-------|-(16)--------------------|
|--12---------------------------------|-------------------------|
|---------------10-(10)-(10)s13-------|-(13)--------------------|
|-------------------------------------|-------------------------|
|-------------------------------------|-------------------------|


  C#5
    W
    |
    /

    E.   S  +E   E  +Q.                               +E
|----------------------------------------------------------|
|---------------12-(12)------------------------------(12)\-|
|--------9--(9)--------------------------------------------|
|-/11--(11)------------------------------------------------|
|----------------------------------------------------------|
|----------------------------------------------------------|
|
|                    |-----5-----|  |-----5-----|
|   q        q       T  T  T  T  T  T  T  T  T  T  q
|--21-------21------21p20p19p18p17-16h17h18h19h20h21-------|
|----------------------------------------------------------|
|----------------------------------------------------------|
|----------------------------------------------------------|
|----------------------------------------------------------|
|----------------------------------------------------------|


  A5
   W
   |
   /

   E.  S  +S  S E +H
|------------------------------------------------------------------------------|
|---------------8-(8)----------------------------------------------------------|
|------5--(5)-6----------------------------------------------------------------|
|--7--(7)----------------------------------------------------------------------|
|------------------------------------------------------------------------------|
|------------------------------------------------------------------------------|
|
|                  |-----5-----|  |-----5-----|  |-----5-----|  |-----5-----|
|  q       q       T  T  T  T  T  T  T  T  T  T  T  T  T  T  T  T  T  T  T  T
|-21------21---------------------17p16p15p14p13----------------17p16p15p14p13--|
|-----------------17p16p15p14p13----------------17p16p15p14p13-----------------|
|------------------------------------------------------------------------------|
|------------------------------------------------------------------------------|
|------------------------------------------------------------------------------|
|------------------------------------------------------------------------------|


  C#5
    W
    |
    /

    E.   S  +E   E  +Q.                               +E
|----------------------------------------------------------|
|---------------12-(12)------------------------------(12)\-|
|--------9--(9)--------------------------------------------|
|-/11--(11)------------------------------------------------|
|----------------------------------------------------------|
|----------------------------------------------------------|
|
|                    |-----5-----|  |-----5-----|
|   q        q       T  T  T  T  T  T  T  T  T  T  q
|--21-------21------21p20p19p18p17-16h17h18h19h20h21-------|
|----------------------------------------------------------|
|----------------------------------------------------------|
|----------------------------------------------------------|
|----------------------------------------------------------|
|----------------------------------------------------------|


  A5
   W
   |
   /

   E.                S  +S       S        E +H
|-------------------------------------------------------------------------------|
|-----------------------------------------8-(8)---------------------------------|
|--------------------5--(5)------6----------------------------------------------|
|--7----------------(7)---------------------------------------------------------|
|-------------------------------------------------------------------------------|
|-------------------------------------------------------------------------------|
|
|  |-----5-----|         |------5------|     |-----5-----|     |-----5-----|
|  T  T  T  T  T  e      T  T  T    T  T  e  T  T  T  T  T  e  T  T  T  T  T  e
|-------------19h21-------------------19h21-------------19h21-------------19h21-|
|-------19h21-----------------19h==21-------------19h21-------------19h21-------|
|-18h21-----------------18h21---------------18h21-------------18h21-------------|
|-------------------------------------------------------------------------------|
|-------------------------------------------------------------------------------|
|-------------------------------------------------------------------------------|


  E5VII
    W
    |
    /

    E.                  S         +E            E            +E            E            +S        S      +E
|------------------------------------------------------------------------------------------------------------------------|
|----------------------------------------------15-----------(15)---------------------------------------------------------|
|----------------------12--------(12)-------------------------------------12-----------(12)------------------------------|
|-/14-----------------(14)-----------------------------------------------------------------------14-----(14)\------------|
|------------------------------------------------------------------------------------------------------------------------|
|------------------------------------------------------------------------------------------------------------------------|
|
|   |----5----| |------5-------|   |----5----|  |----5----|   |----5----|  |----5----|   |-----5------|   |-----5-----|
|   T  T  T T T T T T       T  T   T  T  T T T  T T T  T  T   T  T  T T T  T T T  T  T   T  T  T    T T   T   T T  T  T
|--12p11p10p9p8-7h8h9h=====10h11--12p11p10p9p8--7h8h9h10h11--12p11p10p9p8--7h8h9h10h11--12p11p10p===9p8---7h==8h9h10h11--|
|------------------------------------------------------------------------------------------------------------------------|
|------------------------------------------------------------------------------------------------------------------------|
|------------------------------------------------------------------------------------------------------------------------|
|------------------------------------------------------------------------------------------------------------------------|
|------------------------------------------------------------------------------------------------------------------------|


  C5
   W
   |
   /

   E.                S  +S       S        E  +E              E             +S   E.
|------------------------------------------------------------8-------------(8)------|
|----------------------------------------11-(11)-------------------------------11---|
|--------------------8--(8)------9--------------------------------------------------|
|-10---------------(10)-------------------------------------------------------------|
|-----------------------------------------------------------------------------------|
|-----------------------------------------------------------------------------------|
|
|  |-----6-----|         |------5------|      |-----5-----|  |-----5-----|
|  T  T  T T T T E       T  T  T    T  T  E   T  T  T  T  T  T  T  T  T  T  q
|-12p11p10p9p8p7p6------15p14p13p==12p11p10--17p16p15p14p13p12-15h17h18h19-20-------|
|-----------------------------------------------------------------------------------|
|-----------------------------------------------------------------------------------|
|-----------------------------------------------------------------------------------|
|-----------------------------------------------------------------------------------|
|-----------------------------------------------------------------------------------|


  E5VII
    W
    |
    /

    E.                  S         +E            E            +E            E            +S        S      +E
|-------------------------------------------------------------------------15-----------(15)-------------------------------|
|----------------------------------------------15-----------(15)---------------------------------15-----(15)\-------------|
|----------------------12--------(12)-------------------------------------------------------------------------------------|
|-/14-----------------(14)------------------------------------------------------------------------------------------------|
|-------------------------------------------------------------------------------------------------------------------------|
|-------------------------------------------------------------------------------------------------------------------------|
|
|   |----5----| |------5-------|   |----5----|  |----5----|   |----5----|  |----5----|   |-----5------|   |-----5-----|
|   T  T  T T T T T T       T  T   T  T  T T T  T T T  T  T   T  T  T T T  T T T  T  T   T  T  T    T T   T   T T  T  T
|--12p11p10p9p8-7h8h9h=====10h11--12p11p10p9p8--7h8h9h10h11--12p11p10p9p8--7h8h9h10h11--12p11p10p===9p8---7h==8h9h10h11---|
|-------------------------------------------------------------------------------------------------------------------------|
|-------------------------------------------------------------------------------------------------------------------------|
|-------------------------------------------------------------------------------------------------------------------------|
|-------------------------------------------------------------------------------------------------------------------------|
|-------------------------------------------------------------------------------------------------------------------------|


  C5
   W
   |
   /

   E.                     S      +S      S      E           +H
|------------------------------------------------------------------------------------------------------||
|----------------------------------------------11----------(11)----------------------------------------||
|-------------------------8------(8)-----9-------------------------------------------------------------||
|-10--------------------(10)---------------------------------------------------------------------------||
|------------------------------------------------------------------------------------------------------||
|------------------------------------------------------------------------------------------------------||
|
|  |----5----|  |------5-------|  |----5-----|  |---5----|   |---5---| |---5---| |---5---| |---5---|
|  T  T  T T T  T  T  T      T T  T  T T   T T  T  T T T T   T T T T T T T T T T T T T T T T T T T T
|-12p11p10p9p8-----------------------------------------------------------------------------------------||
|--------------12p11p10p=====9p8-----------------------------------------------------------------------||
|--------------------------------11p10p9p==8p7---------------------------------------------------------||
|----------------------------------------------11p10p9p8p7---6p5p4p3p2---------------------------------||
|----------------------------------------------------------------------6p5p4p3p2---------------2h3h4---||
|--------------------------------------------------------------------------------6p5p4p3-4h5h6---------||


  A Tempo Q=125
  D5               C5                D5               C5
 5/4
  Gtrs II, III
  H.      +H        H.      +H       H.      +H       H.      +H
  |        |        |        |       |        |       |        |
  /        /        /        /       /        /       /        /

  Gtr IV
  H.      +H        H.      +H       H.      +H       H.      +H
|----------------|-----------------|----------------|----------------|
|-6-------(6)----|--5-------(5)----|-6-------(6)----|-5-------(5)----|
|-7-------(7)----|--5-------(5)----|-7-------(7)----|-5-------(5)----|
|-7-------(7)----|--5-------(5)----|-7-------(7)----|-5-------(5)----|
|-5-------(5)----|-(5)------(5)----|----------------|----------------|
|----------------|-----------------|----------------|----------------|
  H.      +H       +H.      +H


  D5                            C5
   H.              +H            H.              +H
   |                |            |                |
   /                /            /                /

   H.              +H            H.              +H
|-----------------------------|-----------------------------|
|--6---------------(6)--------|--5---------------(5)--------|
|--7---------------(7)--------|--5---------------(5)--------|
|--7---------------(7)--------|--5---------------(5)--------|
|-----------------------------|-----------------------------|
|-----------------------------|-----------------------------|
|
| Gtr V
|            ~~            ~~              ~~            ~~
|  E   E  E  Q   E  E   E  Q     E   E  E  Q   E  E   E  Q
|-----------------------------|-----------------------------|
|-----------------------------|-----------------------------|
|-----14----15-----14-----15--|-----15----14-----15-----14--|
|-12-----12-----12-----12-----|-10-----10-----10-----10-----|
|-----------------------------|-----------------------------|
|-----------------------------|-----------------------------|


  D5                            C5
   H.              +H            H.              +H
   |                |            |                |
   /                /            /                /

   H.              +H            H.              +H
|-----------------------------|------------------------------||
|--6---------------(6)--------|--5---------------(5)---------||
|--7---------------(7)--------|--5---------------(5)---------||
|--7---------------(7)--------|--5---------------(5)---------||
|-----------------------------|------------------------------||
|-----------------------------|------------------------------||
|
|            ~~            ~~              ~~            ~~
|  E   E  E  Q   E  E   E  Q     E   E  E  Q   E  E   E  Q
|-----------------------------|------------------------------||
|-----------------------------|------------------------------||
|-----14----15-----14-----15--|-----15----14-----15-----14---||
|-12-----12-----12-----12-----|-10-----10-----10-----10------||
|-----------------------------|------------------------------||
|-----------------------------|------------------------------||


  Dm    Dm+5  Dm  Dm+5 C7    C6    C7  C6
  Gtr II
  PM  PM  PM|   PM     PM  PM  PM|   PM
  E E E E E E E E Q    E E E E E E E E Q
|--------------------|--------------------|
|--------------------|--------------------|
|--------------------|--------------------|
|---7---8-----7---8--|---8---7-----8---7--|
|-5-5-5-5-5-5-5-5-5--|-3-3-3-3-3-3-3-3-3--|
|--------------------|--------------------|
|
| Gtr III
| PM  PM  PM|   PM     PM  PM  PM|   PM
| E E E E E E E E Q    E E E E E E E E Q
|--------------------|--------------------|
|--------------------|--------------------|
|---7---7-----7---7--|---9---9-----9---9--|
|---7---8-----7---8--|---8---7-----8---7--|
|-5---5---5-5---5----|--------------------|
|--------------------|-8---8---8-8---8----|
|
| Gtr IV
| E E E q   E E E Q    E E E q   E E E Q
|--------------------|--------------------|
|---6---6-----6---6--|---5---5-----5---5--|
|-7---7-----7---7----|-5---5-----5---5----|
|--------------------|--------------------|
|--------------------|--------------------|
|--------------------|--------------------|


  Dm    Dm+5  Dm  Dm+5 C7    C6    C7  C6
  PM  PM  PM|   PM     PM  PM  PM|   PM
  E E E E E E E E Q    E E E E E E E E Q
|--------------------|---------------------|
|--------------------|---------------------|
|--------------------|---------------------|
|---7---8-----7---8--|---8---7-----8---7---|
|-5-5-5-5-5-5-5-5-5--|-3-3-3-3-3-3-3-3-3---|
|--------------------|---------------------|
|
| PM  PM  PM|   PM     PM  PM  PM|   PM
| E E E E E E E E Q    E E E E E E E E Q
|--------------------|---------------------|
|--------------------|---------------------|
|---7---7-----7---7--|---9---9-----9---9---|
|---7---8-----7---8--|---8---7-----8---7---|
|-5---5---5-5---5----|---------------------|
|--------------------|-8---8---8-8---8-----|
|
| E E E q   E E E Q    E E E q   E E E Q
|--------------------|---------------------|
|---6---6-----6---6--|---5---5-----5---5---|
|-7---7-----7---7----|-5---5-----5---5-----|
|--------------------|---------------------|
|--------------------|---------------------|
|--------------------|---------------------|


  Bbmaj7 Bb6    BbmajBb6   Am7    Am+5  Am7  Am+5
  PM   PM   PM|    PM      PM   PM  PM|    PM
  E  E E  E E E  E E  Q    E  E E E E E  E E Q
|------------------------|----------------------|
|------------------------|----------------------|
|------------------------|----------------------|
|------------------------|----------------------|
|---12---10-----12---10--|---10---8-----10---8--|
|-6--6-6--6-6-6--6-6--6--|-5--5-5-5-5-5--5-5-5--|
|
| PM   PM   PM|    PM      PM   PM  PM|    PM
| E  E E  E E E  E E  Q    E  E E E E E  E E Q
|------------------------|----------------------|
|------------------------|----------------------|
|----7----7------7----7--|----5---5------5---5--|
|----7----5------7----5--|----5---3------5---3--|
|------------------------|----------------------|
|-6----6----6-6----6-----|-5----5---5-5----5----|
|
| E  E E  q   E  E E  Q    E  E E q   E  E E Q
|------------------------|----------------------|
|----3----3------3----3--|----1---1------1---1--|
|-3----3------3----3-----|-2----2-----2----2----|
|------------------------|----------------------|
|------------------------|----------------------|
|------------------------|----------------------|


  Gm7   Gm6 Fmaj7 F6   Em7   Em6   A5
  PM  PM  PM|   PM     PM  PM  PM|   PM
  E E E E E E E E Q    E E E E E E E E Q
|--------------------|---------------------||
|--------------------|---------------------||
|--------------------|---------------------||
|-------------2------|-------------2---2---||
|---8---7---------5--|---5---4-----0---0---||
|-3-3-3-3-3-1-1-1-1--|-0-0-0-0-0-0---0-----||
|
| PM  PM  PM|   PM     PM  PM  PM|   PM
| E E E E E E E E Q    E E E E E E E E Q
|--------------------|---------------------||
|--------------------|---------------------||
|---3---3-----2---2--|---------------------||
|---3---2-----2---0--|---5---5-----2---2---||
|--------------------|---5---4-----0---0---||
|-3---3---3-1---1----|-0---0---0-0---0-----||
|
| E E E q   E E E Q    E E E q   E E E Q
|--------------------|---------------------||
|--------------------|---------------------||
|---3---3-----2---2--|---0---0-----3---2---||
|-5---5-----3---3----|-2---2---------------||
|--------------------|-----------0---0-----||
|--------------------|---------------------||


  D5                         C5
 6/4                        5/4
  Gtr III
  E  E E E E E E E E E E E   E E E E E E E E  E  E
  |  | | | | | | | | | | |   | | | | | | | |  |  |
  /  / / / / / / / / / / /   / / / / / / / /  /  /

  PM         PM  PM      PM--|         PM  PM
  E  E E E E E E E E E E E   E E E E E E E E  E  E
|--------------------------|-----------------------|
|--------------------------|-----------------------|
|----3-2-3-2---3---2-3-2---|---3-2-3-2---3----2--3-|
|-0----------0---0-------0-|-----------------------|
|--------------------------|-3---------3---3-------|
|--------------------------|-----------------------|
|
| Gtr IV
| W.                         W               +Q
|--------------------------|-----------------------|
|-6------------------------|-5---------------(5)---|
|-7------------------------|-5---------------(5)---|
|-7------------------------|-5---------------(5)---|
|--------------------------|-----------------------|
|--------------------------|-----------------------|


  D5                         C5
 6/4                        5/4
  E  E E E E E E E E E E E   E E E E E E E E  E  E
  |  | | | | | | | | | | |   | | | | | | | |  |  |
  /  / / / / / / / / / / /   / / / / / / / /  /  /

  PM         PM  PM          PM        PM  PM
  E  E E E E E E E E E E E   E E E E E E E E  E  E
|--------------------------|------------------------|
|--------------------------|------------------------|
|----3-2-3-2---3---2-3-2---|---3-2-3-2---3----2--3--|
|-0----------0---0-------0-|------------------------|
|--------------------------|-3---------3---3--------|
|--------------------------|------------------------|
|
| W.                         W               +Q
|--------------------------|------------------------|
|-6------------------------|-5---------------(5)----|
|-7------------------------|-5---------------(5)----|
|-7------------------------|-5---------------(5)----|
|--------------------------|------------------------|
|--------------------------|------------------------|


  A5            Bb5
 6/4
  E  E E  E E E E  E E  E E E
  |  | |  | | | |  | |  | | |
  /  / /  / / / /  / /  / / /

              PM            PM
  E  E E  E E E E  E E  E E E
|-----------------------------|
|-----------------------------|
|-----------------------------|
|----3-2--3-2------3-2--3-2---|
|-0-----------0-1-----------1-|
|-----------------------------|
|
| E  E E  E E E E  E E  E E E
|-----------------------------|
|-----------------------------|
|---10-9-10-9-----10-9-10-9---|
|-7-----------7-8-----------8-|
|-----------------------------|
|-----------------------------|


  C5           G5              A5            Bb5
 5/4                          6/4
   E  E E  E E  E  E  E E  E   E  E E  E E E E  E E  E E E
   |  | |  | |  |  |  | |  |   |  | |  | | | |  | |  | | |
   /  / /  / /  /  /  / /  /   /  / /  / / / /  / /  / / /

                PM    PM                   PM
   E  E E  E E  E  E  E E  E   E  E E  E E E E  E E  E E E
|----------------------------|------------------------------|
|----------------------------|------------------------------|
|----------------------------|------------------------------|
|-----3-2--3-2-----3----2--3-|----3-2--3-2------3-2--3-2----|
|--3-------------------------|-0-----------0-1-----------1--|
|---------------3-----3------|------------------------------|
|
|  E  E E  E E  E  E  E E  E   E  E E  E E E E  E E  E E E
|----------------------------|------------------------------|
|----------------------------|------------------------------|
|----10-9-10-9----10----9-10-|---10-9-10-9-----10-9-10-9----|
|-10-------------------------|-7-----------7-8-----------8--|
|--------------10----10------|------------------------------|
|----------------------------|------------------------------|


  F5          E5            A5            A5
 5/4                       6/4
  E  E E  E E E  E E E  E   E  E E  E E E E  E E  E E E
  |  | |  | | |  | | |  |   |  | |  | | | |  | |  | | |
  /  / /  / / /  / / /  /   /  / /  / / o /  / /  / / o

              PM   PM
  E  E E  E E E  E E E  E   E  E E  E E E E  E E  E E E
|-------------------------|-----------------------------|
|-------------------------|-----------------------------|
|-------------------------|-----------------------------|
|----3-2--3-2----3---2--3-|----3-2--3-2------3-2--3-2---|
|-------------------------|-0-------------0-------------|
|-1-----------0----0------|-------------0-------------0-|
|
| E  E E  E E E  E E E  E   E  E E  E E E E  E E  E E E
|-------------------------|-----------------------------|
|-------------------------|-----------------------------|
|---10-9-10-9---10---9-10-|---10-9-10-9-----10-9-10-9---|
|-------------------------|-7-------------7-------------|
|-8-----------7----7------|-------------7-------------7-|
|-------------------------|-----------------------------|


  A5              A5
  E  E  E  E  E E E  E  E  E  E E
  |  |  |  |  | | |  |  |  |  | |
  /  /  /  /  / o /  /  /  /  / o

  E  E  E  E  E E E  E  E  E  E E
|---------------------------------||
|---------------------------------||
|----3--2--3--2------3--2--3--2---||
|---------------------------------||
|-0---------------0---------------||
|---------------0---------------0-||
|
| E  E  E  E  E E E  E  E  E  E E
|---10--9-10--9-----10--9-10--9---||
|---11-10-11-10-----11-10-11-10---||
|---------------------------------||
|-7---------------7---------------||
|---------------7---------------7-||
|---------------------------------||


  Dm           Em+5              C                 F
 12/8
  PM-------------------------------------------------------------
  E  E E E E E  E   E E  E E E   E   E  E  E   E E E  E E E E E
|------------------------------|--------------------------------|
|------------------------------|--------------------------------|
|------------------------------|--------------------------------|
|----8-7-8-7-------10-8-10-8---|----------------------8-7-8-7---|
|-5----------5--7------------7-|----12-10-12--10---8----------8-|
|------------------------------|-8---------------8--------------|
|
| H.            H.               Q.       +E   E E H.
|------------------------------|--------------------------------|
|-6-------------8--------------|-5--------(5)----5-6------------|
|-7-------------9--------------|-5--------(5)--7---5------------|
|-7------------10--------------|-5--------(5)------7------------|
|------------------------------|--------------------------------|
|------------------------------|--------------------------------|


  Bb               Em7b5
 ---------------------------------|
  E   E  E  E  E E E   E  E  E  E E
|-------------------------------------|
|-------------------------------------|
|-------------------------------------|
|-------------------------------------|
|----12-10-12-10------12-10-12-10-----|
|-6--------------6-0--------------0---|
|
| H.               H.
|-------------------------------------|
|-6----------------8------------------|
|-7----------------7------------------|
|-8----------------8------------------|
|-------------------------------------|
|-------------------------------------|


  A            C#m+5         Dm           Em+5
  PM----------------------------------------------------------
  E  E E E E E E E E E E E   E  E E E E E  E   E E   E  E  E
|--------------------------|---------------------------------|
|--------------------------|---------------------------------|
|--------------------------|---------------------------------|
|----8-7-8-7-----8-7-8-7---|----8-7-8-7-------10-8--10--8----|
|-0----------0-4---------4-|-5----------5--7---------------7-|
|--------------------------|---------------------------------|
|
| H.           Q   Q   Q     H.            Q.       +E  E  E
|--------------------------|---------------------------------|
|-5------------5-------5---|-6-------------8--------(8)-8-10-|
|-6------------6---7-------|-7-------------9--------(9)------|
|-7------------7-----------|-7------------10-------(10)------|
|--------------------------|---------------------------------|
|--------------------------|---------------------------------|


  C7                F
 -------------------------------|
   E   E  E  E  E E  E  E E E E E
|----------------------------------|
|----------------------------------|
|----------------------------------|
|-----------------------8-7-8-7----|
|-----12-10-12-10----8----------8--|
|--8--------------8----------------|
|
|  H.                H.
|----------------------------------|
|-11----------------10-------------|
|--9----------------10-------------|
|-10----------------10-------------|
|----------------------------------|
|----------------------------------|


  Bb               Em7b5
  PM---------------------------------
  E   E  E  E  E E E   E  E  E  E E
|-----------------------------------|
|-----------------------------------|
|-----------------------------------|
|-----------------------------------|
|----12-10-12-10------12-10-12-10---|
|-6--------------6-0--------------0-|
|
| H.               H.
|-----------------------------------|
|-6----------------8----------------|
|-7----------------7----------------|
|-8----------------8----------------|
|-----------------------------------|
|-----------------------------------|


  Asus4                      A            A7b9
 -----------------------------------------------------|
  E  E E E E E E E E E E E   E  E E E E E  E  E E E E E
|--------------------------|-----------------------------||
|--------------------------|-----------------------------||
|--------------------------|-----------------------------||
|--------------------------|----8-7-8-7-------8-7-8-7----||
|-0--8-7-8-7---0-8-7-8-7---|-0-------------0-------------||
|------------0-----------0-|------------0-------------0--||
|
| W.                         H.            H.
|--------------------------|-----------------------------||
|-5------------------------|-5------------11-------------||
|-7------------------------|-6------------12-------------||
|-7------------------------|-7------------11-------------||
|--------------------------|-----------------------------||
|--------------------------|-----------------------------||


 Church Organ Solo
  (Dm)                             (Em+5)
 6/4
   PM-------------------------------------------------------------------
   E     E     E  E     E     E     E        E     E  E     E     E
|----------------------------------------------------------------------|
|----------------------------------------------------------------------|
|----------------------------------------------------------------------|
|--------8-----7--8-----7-------------------10-----8-10-----8----------|
|--5--------------------------5-----7-----------------------------7----|
|----------------------------------------------------------------------|
|
| Gtr III
|  E     E     E  E     E     E     E        E     E  E     E     E
|----------------------------------------------------------------------|
|----------------------------------------------------------------------|
|-------15----14-15----14-------------------17----15-17----15----------|
|-12-------------------------12----14----------------------------14----|
|----------------------------------------------------------------------|
|----------------------------------------------------------------------|
|
| Gtr IV
|  S  S  S  S  E  S  S  S  S  S  S  T  T  S  S  S  E  S  S  S  S  S  S
|----------------------17-15----17-15h17p15-------20-15----------------|
|-15----15-17-18-15-18-------18-------------18-17-------17-------------|
|----14----------------------------------------------------17----------|
|-------------------------------------------------------------17-14----|
|-------------------------------------------------------------------15-|
|----------------------------------------------------------------------|


  (C)                        (F)
 -------------------------------------------------------------|
   E     E  E     E  E     E  E     E     E        E        E  E
|----------------------------------------------------------------|
|----------------------------------------------------------------|
|----------------------------------------------------------------|
|-----------------------------------8-----7--------8--------7----|
|-------12-10----12-10--------8--------------------------------8-|
|--8-----------------------8-------------------------------------|
|
|  E     E  E     E  E     E  E     E     E        E        E  E
|----------------------------------------------------------------|
|----------------------------------11----10-------11-------10----|
|-------14-12----14-12-------10-------------------------------10-|
|-10----------------------10-------------------------------------|
|----------------------------------------------------------------|
|----------------------------------------------------------------|
|
|                                         |--3--|  |--3--|
|  S  S  E  S  S  E  S  S  E  S  S  S  S  S  S  S  S  S  S  Q
|----------------15-15-17-18-17-15-13----------------------------|
|----------17-18-17-17-18-20----------13-------------------------|
|----------17-19-------------------------14h15p14-12h14p12-10----|
|-14-15-17-------------------------------------------------------|
|----------------------------------------------------------------|
|----------------------------------------------------------------|


  (Bb)                                                  (Em7b5)
   PM---------------------------------------------------------------------------------|
   E        E        E        E        E        E        E     E     E     E     E     E
|-------------------------------------------------------------------------------------------|
|-------------------------------------------------------------------------------------------|
|-------------------------------------------------------------------------------------------|
|-------------------------------------------------------------------------------------------|
|----------12-------10-------12-------10----------------------12----10----12----10----------|
|--6--------------------------------------------6--------0-----------------------------0----|
|
|  E        E        E        E        E        E        E     E     E     E     E     E
|-------------------------------------------------------------------------------------------|
|----------10--------8-------10--------8----------------------10-----8----10-----8----------|
|-------------------------------------------------------------------------------------------|
|--8--------------------------------------------8-------------------------------------------|
|--------------------------------------------------------7-----------------------------7----|
|-------------------------------------------------------------------------------------------|
|
|  |--3--|  |--3--|  |--3--|  |--3--|  |--3--|  |--3--|
|  S  S  S  S  S  S  S  S  S  S  S  S  S  S  S  S  S  S  S  S  S  S  S  S  S  S  S  S  S  S
|----------------------------------------------18-20-22-24-22-18----------------------------|
|-------------------------------------18-20-22-------------------20-17-15-------------------|
|----------------------17-19----17-19-------------------------------------14-12-------------|
|-------------17-19-20-------20-------------------------------------------------14-12-------|
|-------17-20-------------------------------------------------------------------------13-10-|
|-18-20-------------------------------------------------------------------------------------|


  (A)                                 (C#m+5)
   PM---------------------------------------------------------------------|
   E     E     E     E     E     E     E     E     E     E     E           E
|--------------------------------------------------------------------------------------|
|--------------------------------------------------------------------------------------|
|--------------------------------------------------------------------------------------|
|--------8-----7-----8-----7-----------------8-----7-----8-----7-----------------------|
|--0-----------------------------0-----4-----------------------------------4-----------|
|--------------------------------------------------------------------------------------|
|
|  E     E     E     E     E     E     E     E     E     E     E           E
|--------------------------------------------------------------------------------------|
|-------11----10----11----10----------------11----10----11----10-----------------------|
|--------------------------------------------------------------------------------------|
|--7-----------------------------7----11----------------------------------11-----------|
|--------------------------------------------------------------------------------------|
|--------------------------------------------------------------------------------------|
|
|                                                              |---------7----------|
|  S  S  S  S  S  S  S  S  S  S  S  S  S  S  S  S  S  S  S  S  S  S  S  S     S  S  S
|----------------------------------------------------------------------17h===18h20h21--|
|-------------------------------15-14-------------18-17-------17h18h20-----------------|
|-------------------12-14-15-14-------14-15-19-18-------18-19--------------------------|
|-------12-11-15-14--------------------------------------------------------------------|
|-12-13--------------------------------------------------------------------------------|
|--------------------------------------------------------------------------------------|


  (Dm)                                                  (Em+5)
   PM---------------------------------------------------------------------------------------|
   E        E        E        E        E        E        E        E        E     E     E     E
|----------------------------------------------------------------------------------------------|
|----------------------------------------------------------------------------------------------|
|----------------------------------------------------------------------------------------------|
|-----------8--------7--------8--------7-------------------------10--------8----10-----8-------|
|--5--------------------------------------------5--------7-----------------------------------7-|
|----------------------------------------------------------------------------------------------|
|
|  E        E        E        E        E        E        E        E        E     E     E     E
|----------------------------------------------------------------------------------------------|
|----------------------------------------------------------------------------------------------|
|----------15-------14-------15-------14-------------------------17-------15----17----15-------|
|-12-------------------------------------------12-------14----------------------------------14-|
|----------------------------------------------------------------------------------------------|
|----------------------------------------------------------------------------------------------|
|
|  |--3--|  |--3--|  |--3--|  |--3--|  |--3--|  |--3--|  |--3--|  |--3--|
|  S  S  S  S  S  S  S  S  S  S  S  S  S  S  S  S  S  S  S  S  S  S  S  S  S  S  S  S  S  S  E
|-22-17----17-------17----------------------------------------------------20-------------------|
|-------18----18-15----18-15-18-15----18-15----15-------------------17-20----20-17-20-17-------|
|----------------------------------14-------14----14----17-------17----------------------17----|
|----------------------------------------------------15----14-17----------------------------14-|
|----------------------------------------------------------------------------------------------|
|----------------------------------------------------------------------------------------------|


  (C)                                 (F)
   PM-------------------------------------------------------------------
   E     E     E     E     E     E     E        E     E  E        E  E
|----------------------------------------------------------------------|
|----------------------------------------------------------------------|
|----------------------------------------------------------------------|
|-----------------------------------------------8-----7--8--------7----|
|-------12----10----12----10-----------8-----------------------------8-|
|--8-----------------------------8-------------------------------------|
|
|  E     E     E     E     E     E     E        E     E  E        E  E
|----------------------------------------------------------------------|
|----------------------------------------------11----10-11-------10----|
|-------14----12----14----12----------10----------------------------10-|
|-10----------------------------10-------------------------------------|
|----------------------------------------------------------------------|
|----------------------------------------------------------------------|
|
|                                                        |--3--|
|  S  S  S  S  S  S  S  S  S  S  S  S  T  T  S  S  S  E  S  S  S  E  E
|----------------------------15-17-18-17h18p17-------25----------------|
|-------------------15-17-18-17-18-20----------20-18-------------------|
|----------14-15-17-15-17-19-------------------------22-14-17-14-------|
|-14-15-17-15-17-19----------------------------------------------15----|
|-15-17-19----------------------------------------------------------12-|
|----------------------------------------------------------------------|


  (Bb)                                (Em7b5)
 -------------------------------------------------------------------|
   E     E     E     E     E     E     E     E  E        E        E E
|---------------------------------------------------------------------|
|---------------------------------------------------------------------|
|---------------------------------------------------------------------|
|---------------------------------------------------------------------|
|-------12----10----12----10----------------12-10-------12-------10---|
|--6-----------------------------6-----0----------------------------0-|
|
|  E     E     E     E     E     E     E     E  E        E        E E
|---------------------------------------------------------------------|
|-------10-----8----10-----8----------------10--8-------10--------8---|
|---------------------------------------------------------------------|
|--8-----------------------------8------------------------------------|
|--------------------------------------7----------------------------7-|
|---------------------------------------------------------------------|
|
|                                               |--3--|  |--3--|
|  S  S  S  S  S  S  S  S  S  S  S  S  S  S  E  S  S  S  S  S  S  Q
|-------------------------18-17-15-13-12-15---------------------------|
|-------------------------------------------15-15-13------------------|
|-------------15-14-12----19-17-15-14-12-------------15-14-12---------|
|----------------------15-------------------------------------15-14---|
|-13-12-10------------------------------------------------------------|
|----------13---------------------------------------------------------|


  (A)
   PM------------------------------------------------------------------------------|
   E        E        E        E        E        E        E     E  E     E     E     E
|----------------------------------------------------------------------------------------|
|----------------------------------------------------------------------------------------|
|----------------------------------------------------------------------------------------|
|----------------------------------------------------------------------------------------|
|--0--------8--------7--------8--------7-----------------0-----8--7-----8-----7----------|
|-----------------------------------------------0-----------------------------------0----|
|
|  E        E        E        E        E        E        E     E  E     E     E     E
|----------------------------------------------------------------------------------------|
|----------------------------------------------------------------------------------------|
|----------10--------9-------10--------9----------------------10--9----10-----9----------|
|--7-----------------------------------------------------7-------------------------------|
|-----------------------------------------------7-----------------------------------7----|
|----------------------------------------------------------------------------------------|
|
|  |--3--|  |--3--|  |--3--|  |--3--|  |--3--|  |--3--|
|  S  S  S  S  S  S  S  S  S  S  S  S  S  S  S  S  S  S  S  S  E  S  S  S  S  S  S  S  S
|-------------------------------------------------------------------------17----17-18-20-|
|----------------------------15-14----------15-18-17-15-14-15-17----18-20----20----------|
|-------12-15-14-12----12-15-------15----15----------------------18----------------------|
|----14-------------11----------------14-------------------------------------------------|
|-12-------------------------------------------------------------------------------------|
|----------------------------------------------------------------------------------------|


  (A)
   PM------------------------------------------------------------------------------------------------------------------|
   E     E                 E     E                 E     E                 E        E        E        E        E        E
|---------------------------------------------------------------------------------------------------------------------------------||
|---------------------------------------------------------------------------------------------------------------------------------||
|---------------------------------------------------------------------------------------------------------------------------------||
|--------8-----------------7-----8-----------------7--------------------------------8--------7--------8--------7------------------||
|--0-----------------------------------------------------------------------0------------------------------------------------------||
|--------------------------------------------------------0--------------------------------------------------------------0---------||
|
|  E     E                 E     E                 E     E                 E        E        E        E        E        E
|---------------------------------------------------------------------------------------------------------------------------------||
|-------11----------------10----11----------------10-------------------------------11-------10-------11-------10------------------||
|---------------------------------------------------------------------------------------------------------------------------------||
|--7-----------------------------------------------------------------------7------------------------------------------------------||
|--------------------------------------------------------7--------------------------------------------------------------7---------||
|---------------------------------------------------------------------------------------------------------------------------------||
|
|        |------6-------|        |------6-------|        |------6-------|  |--3--|  |--3--|  |--3--|  |--3--|  |--3--|  |--3--|
|  S  S  T  T  T  T  T  T  S  S  T  T  T  T  T  T  S  S  T  T  T  T  T  T  S  S  S  S  S  S  S  S  S  S  S  S  S  S  S  S  S  S
|-21-18-------------------21-18-------------------21-18-------------------17-15---------------------------------------------------||
|----------------20h22h23----------------20h22h23----------------20h22h23-------18-17-15-14---------------------------------------||
|-------18h19h21----------------18h19h21----------------18h19h21----------------------------15-14-12------------------------------||
|----------------------------------------------------------------------------------------------------15-14-12-11------------------||
|----------------------------------------------------------------------------------------------------------------13-12-10---------||
|-------------------------------------------------------------------------------------------------------------------------13-12---||


 Guitar Solo
  (Dm)               (Em+5)               (C)                  (F)
 12/8
   PM------------------------------------------------------------------------------
   E  E E   E   E  E  E   E E   E  E  E    E  E  E  E     E  E  E  E E   E   E  E
|---------------------------------------|-----------------------------------------|
|---------------------------------------|-----------------------------------------|
|---------------------------------------|-----------------------------------------|
|-----8-7---8---7--------10-8--10--8----|--------------------------8-7---8---7----|
|--5---------------5--7---------------7-|----12-10-12----10-----8---------------8-|
|---------------------------------------|--8-----------------8--------------------|
|
| Gtr V
|  ~~~~~~~~~~~~       ~~~~~~~~~~~~~        ~~                   ~~~~~~~~~~~~
|  Q.      +E   E  E  Q.       +Q     E    Q     E  E  a  E  E  Q.      +E   E  E
|-----------------13-12-------(12)------|-12----------12h13-12-13------(13)-15-17-|
|-15------(15)--------------------------|----------13-----------------------------|
|--------------14--------------------12-|-------12--------------------------------|
|---------------------------------------|-----------------------------------------|
|---------------------------------------|-----------------------------------------|
|---------------------------------------|-----------------------------------------|


  (Bb)                 (Em7b5)
 -------------------------------------------|
   E   E  E   E   E  E  E  E        E  E  E  E
|-----------------------------------------------|
|-----------------------------------------------|
|-----------------------------------------------|
|-----------------------------------------------|
|-----12-10--12--10-------12-------10-12-10-----|
|--6-----------------6--0--------------------0--|
|
|  ~~~~~~~~~~~~~~
|                          |--3--|
|  Q.        +Q      E  E  S  S  S  E  E  E  E
|-18--------(18)----17-18-17h18p17-15-----------|
|-------------------------------------18-17-15--|
|-----------------------------------------------|
|-----------------------------------------------|
|-----------------------------------------------|
|-----------------------------------------------|


  (A)               (C#m+5)             (Dm)               (Em+5)
   PM-----------------------------------------------------------------------------
   E  E E   E  E  E  E E  E   E   E E    E  E E   E   E  E  E   E E   E    E   E
|-------------------------------------|------------------------------------------|
|-------------------------------------|------------------------------------------|
|-------------------------------------|------------------------------------------|
|-----8-7---8--7-------8--7---8---7---|-----8-7---8---7--------10-8--10----8-----|
|--0--------------0--4--------------4-|--5---------------5--7------------------7-|
|-------------------------------------|------------------------------------------|
|
|  ~~~~~~~~~~~~           ~~~~~~~~~~~~~~~~~~~~~~~~~~~       ~~~~~~~~~~~~~
|  Q.      +Q     E  Q    E  +E   Q      Q.      +E   E  E  Q.       +E   +E   E
|-------------------------------------|-----------------17-15-------(15)-(15)\-3S|
|-17------(17)---15-14---15-(15)-17---|-15------(15)-----------------------------|
|-------------------------------------|--------------14--------------------------|
|-------------------------------------|------------------------------------------|
|-------------------------------------|------------------------------------------|
|-------------------------------------|------------------------------------------|


  (C)               (F)
 -----------------------------------|
   E  E  E  E  E  E  E     E E E  E  E
|---------------------------------------|
|---------------------------------------|
|---------------------------------------|
|--------------------------8-7-8--7-----|
|----12-10-12-10-----8---------------8--|
|--8--------------8---------------------|
|
|  ~~
|  Q     E  E  E  E  H            E  E
|-15----------20-18-17tr18-------18-20--|
|----------17---------------------------|
|-------17------------------------------|
|---------------------------------------|
|---------------------------------------|
|---------------------------------------|


  (Bb)                (Em7b5)
   PM----------------------------------------------
   E     E  E  E  E E  E      E  E   E    E    E
|-------------------------------------------------|
|-------------------------------------------------|
|-------------------------------------------------|
|-------------------------------------------------|
|-------12-10-12-10----------12-10--12---10-------|
|--6----------------6--0-----------------------0--|
|
|  ~~~~~
|  H.                  Q.           +E   +E   +E
|-20b22---------------22b24========(22)-(22)r(22)-|
|-------------------------------------------------|
|-------------------------------------------------|
|-------------------------------------------------|
|-------------------------------------------------|
|-------------------------------------------------|


  (A)
 -----------------------------------------------|
   E  E E   E  E   E    E       E    E    E   E E
|-------------------------------------------------|
|-------------------------------------------------|
|-------------------------------------------------|
|-------------------------------------------------|
|--0--8-7---8--7--------0-------8----7----8---7---|
|------------------0----------------------------0-|
|
|  ~~~~~~~~~~~~         ~~~~~~~~~~~~~~~~~~~~~~~~
|  Q.      +Q     +E    E      +E   +E   +E   Q
|-21------(21)---(21)\-17b18==(17)r(17)-(17)-15---|
|-------------------------------------------------|
|-------------------------------------------------|
|-------------------------------------------------|
|-------------------------------------------------|
|-------------------------------------------------|


  (A)
   PM------------------------------------------------------------------------------------------|
   E        E        E        E        E        E        E        E        E        E        E E
|-------------------------------------------------------------------------------------------------||
|-------------------------------------------------------------------------------------------------||
|-------------------------------------------------------------------------------------------------||
|-----------8--------7--------8--------7--------------------------8--------7--------8--------7----||
|--0-----------------------------------------------------0----------------------------------------||
|-----------------------------------------------0----------------------------------------------0--||
|
|                                                                                            ~~
|  |--3--|  |--3--|  |--3--|  |--3--|  |--3--|  |--3--|  |--3--|  |--3--|  |--3--|  |--3--|
|  S  S  S  S  S  S  S  S  S  S  S  S  S  S  S  S  S  S  S  S  S  S  S  S  S  S  S  S  S  S  Q
|-18-17-15-18-17-15-------------------------------------------------------------------------------||
|-------------------18-17-15-18-17-14-17-15-14-17-15-14-------------------------------------------||
|-------------------------------------------------------15-14-12-15-14-12-------------------------||
|-------------------------------------------------------------------------15-14-12-15-14-12-11----||
|-------------------------------------------------------------------------------------------------||
|-------------------------------------------------------------------------------------------------||


  (Dm)           (Em+5)               (C)                  (F)
 6/4
   PM-------------------------------------------------------------------------
   E E E E  E  E  E  E   E   E E  E    E  E  E  E     E  E  E E   E  E  E  E
|-----------------------------------|----------------------------------------|
|-----------------------------------|----------------------------------------|
|-----------------------------------|----------------------------------------|
|----8-7-8--7-------10---8--10-8----|-------------------------8---7--8--7----|
|--5-----------5--7---------------7-|----12-10-12----10-----8--------------8-|
|-----------------------------------|--8-----------------8-------------------|
|
|  ~~             ~~~~~~~~~~           ~~                   ~~~~~~~~~
|  H        E  E  Q     +Q.       E    Q     E  E  a  E  E  Q    +Q     E  E
|-------------13-12----(12)---------|-12----------12h13-12-13---(13)---15-17-|
|-15--------------------------------|----------13----------------------------|
|----------14--------------------12-|-------12-------------------------------|
|-----------------------------------|----------------------------------------|
|-----------------------------------|----------------------------------------|
|-----------------------------------|----------------------------------------|
|
| Gtr III
|  ~~             ~~~~~~~~~~           ~~                   ~~~~~~~~~
|  H        E  E  Q     +Q.       E    Q     E  E  a  E  E  Q    +Q     E  E
|-------------17-15----(15)---------|-15----------15h17-15-17---(17)---18-20-|
|-18--------------------------------|----------17----------------------------|
|----------17--------------------15-|-------15-------------------------------|
|-----------------------------------|----------------------------------------|
|-----------------------------------|----------------------------------------|
|-----------------------------------|----------------------------------------|


  (Bb)                (Em7b5)
 ------------------------------------------|
   E  E  E  E   E   E  E  E        E  E  E  E
|----------------------------------------------|
|----------------------------------------------|
|----------------------------------------------|
|----------------------------------------------|
|----12-10-12--10--------12-------10-12-10-----|
|--6----------------6--0--------------------0--|
|
|  ~~~~~~~~~~~~~~~~
|                         |--3--|
|  H           +E   E  E  S  S  S  E  E  E  E
|-18----------(18)-17-18-17h18p17-15-----------|
|------------------------------------18-17-15--|
|----------------------------------------------|
|----------------------------------------------|
|----------------------------------------------|
|----------------------------------------------|
|
|  ~~~~~~~~~~~~~~~~
|                         |--3--|
|  H           +E   E  E  S  S  S  E  E  E  E
|-22----------(22)-20-22-20h22p20-18-----------|
|------------------------------------22-20-18--|
|----------------------------------------------|
|----------------------------------------------|
|----------------------------------------------|
|----------------------------------------------|


  (A)                  (C#m+5)          (Dm)           (Em+5)
   PM-------------------------------------------------------------------------
   E     E E E   E   E  E E  E E  E E    E E E E  E  E  E  E   E   E   E   E
|-------------------------------------|--------------------------------------|
|-------------------------------------|--------------------------------------|
|-------------------------------------|--------------------------------------|
|--------8-7-8---7--------8--7-8--7---|----8-7-8--7-------10---8--10---8-----|
|--0-----------------0--4-----------4-|--5-----------5--7------------------7-|
|-------------------------------------|--------------------------------------|
|
|                       ~~~~~~~~~~~~~~~~~~~             ~~~~~~~~~~
|  H            +E   E  Q    Q    Q      H        E  E  Q     +Q      +E   E
|-------------------------------------|-------------17-15----(15)----(15)\-3S|
|-17tr18-------(17)-15-14---15---17---|-15-----------------------------------|
|-------------------------------------|----------14--------------------------|
|-------------------------------------|--------------------------------------|
|-------------------------------------|--------------------------------------|
|-------------------------------------|--------------------------------------|
|
|                       ~~~~~~~          ~~             ~~~~~~~~~~
|  H            +E   E  Q    Q    Q      H        E  E  Q     +Q      +E   E
|-------------------------------------|-------------20-18----(18)----(18)\-3S|
|-20tr22-------(20)-18-17---18---20---|-18-----------------------------------|
|-------------------------------------|----------19--------------------------|
|-------------------------------------|--------------------------------------|
|-------------------------------------|--------------------------------------|
|-------------------------------------|--------------------------------------|


  (C)                  (F)
 --------------------------------------|
   E  E  E     E  E  E  E     E E E  E  E
|-----------------------------------------|
|-----------------------------------------|
|-----------------------------------------|
|-----------------------------8-7-8--7----|
|----12-10----12-10-----8---------------8-|
|--8-----------------8--------------------|
|
|  ~~
|  Q     E     E  E  E  H            E  E
|-15-------------20-18-17tr18-------18-20-|
|-------------17--------------------------|
|-------17--------------------------------|
|-----------------------------------------|
|-----------------------------------------|
|-----------------------------------------|
|
|  ~~
|  Q     S  S  E  E  E  H            E  E
|-20-------------24-22-20tr22-------22-24-|
|-------------20--------------------------|
|-------17s21-----------------------------|
|-----------------------------------------|
|-----------------------------------------|
|-----------------------------------------|


  (Bb)                (Em7b5)
   PM-----------------------------------------------
   E     E  E  E  E E  E     E  E  E       E    E
|--------------------------------------------------|
|--------------------------------------------------|
|--------------------------------------------------|
|--------------------------------------------------|
|-------12-10-12-10---------12-10-12------10-------|
|--6----------------6--0------------------------0--|
|
|  ~~~~~
|  H.                  Q.          E      +E   +E
|-20b22---------------22b24-------22b24==(22)r(22)-|
|--------------------------------------------------|
|--------------------------------------------------|
|--------------------------------------------------|
|--------------------------------------------------|
|--------------------------------------------------|
|
|  ~~~~~
|  H.                  Q.          E      +E   +E
|-24b25---------------24b27-------24b27==(24)r(24)-|
|--------------------------------------------------|
|--------------------------------------------------|
|--------------------------------------------------|
|--------------------------------------------------|
|--------------------------------------------------|


  (A)
 -------------------------------------------|
   E E E E   E    E    E       E    E  E  E E
|---------------------------------------------|
|---------------------------------------------|
|---------------------------------------------|
|---------------------------------------------|
|--0-8-7-8---7---------0-------8----7--8--7---|
|-----------------0-------------------------0-|
|
|  ~~~~~~~~~~~~~       ~~~~~~~~~~~~~~~~~~~~~
|  H        +E   +E    E      +E   +Q     Q
|-21-------(21)-(21)\-17b18==(17)r(17)---15---|
|---------------------------------------------|
|---------------------------------------------|
|---------------------------------------------|
|---------------------------------------------|
|---------------------------------------------|
|
|  ~~~~~~~~~~~~~       ~~~~~~~~~~~~~~~~~~~~~
|  H        +E   +E    E      +E   +Q     Q
|-24-------(24)-(24)\-21b22==(21)r(21)---18---|
|---------------------------------------------|
|---------------------------------------------|
|---------------------------------------------|
|---------------------------------------------|
|---------------------------------------------|


  (A)
   PM------------------------------------------------------------------------------------------|
   E        E        E        E        E        E        E        E        E        E        E E
|-------------------------------------------------------------------------------------------------||
|-------------------------------------------------------------------------------------------------||
|-------------------------------------------------------------------------------------------------||
|-----------8--------7--------8--------7--------------------------8--------7--------8--------7----||
|--0-----------------------------------------------------0----------------------------------------||
|-----------------------------------------------0----------------------------------------------0--||
|
|                                                                                            ~~
|  |--3--|  |--3--|  |--3--|  |--3--|  |--3--|  |--3--|  |--3--|  |--3--|  |--3--|  |--3--|
|  S  S  S  S  S  S  S  S  S  S  S  S  S  S  S  S  S  S  S  S  S  S  S  S  S  S  S  S  S  S  Q
|-18-17-15-18-17-15-------------------------------------------------------------------------------||
|-------------------18-17-15-18-17-14-17-15-14-17-15-14-------------------------------------------||
|-------------------------------------------------------15-14-12-15-14-12-------------------------||
|-------------------------------------------------------------------------15-14-12-15-14-12-11----||
|-------------------------------------------------------------------------------------------------||
|-------------------------------------------------------------------------------------------------||
|
|                                                                                            ~~
|  |--3--|  |--3--|  |--3--|  |--3--|  |--3--|  |--3--|  |--3--|  |--3--|  |--3--|  |--3--|
|  S  S  S  S  S  S  S  S  S  S  S  S  S  S  S  S  S  S  S  S  S  S  S  S  S  S  S  S  S  S  Q
|-22-21-18-22-21-18-------------------------------------------------------------------------------||
|-------------------22-20-18-22-20-18-20-18-17-20-18-17-------------------------------------------||
|-------------------------------------------------------19-18-15-19-18-15-------------------------||
|-------------------------------------------------------------------------19-17-15-19-17-15-14----||
|-------------------------------------------------------------------------------------------------||
|-------------------------------------------------------------------------------------------------||


 Outro
  D5                                   Csus2
 5/4
  Gtrs II, III
    H.                  +H               H.                  +H
|------------------------------------|---3-------------------(3)----------|
|---3-------------------(3)----------|---3-------------------(3)----------|
|---2-------------------(2)----------|---5-------------------(5)----------|
|---0-------------------(0)----------|---5-------------------(5)----------|
|---0-------------------(0)----------|---3-------------------(3)----------|
|------------------------------------|------------------------------------|
|
| Gtr IV
|   E   E   E   Q    E   E    E   Q      E   E   E   Q    E   E    E   Q
|------17------18-------17-------18--|------18------17-------18-------17--|
|------------------------------------|------------------------------------|
|------14------15-------14-------15--|------15------14-------15-------14--|
|-(12)----(12)-----(12)-----(12)-----|-(14)----(14)-----(14)-----(14)-----|
|------------------------------------|------------------------------------|
|------------------------------------|------------------------------------|


  D5                                   Csus2
                                                                       PM|
    H.                  +H               H.                  +Q        E E
|------------------------------------|---3-------------------(3)-------------|
|---3-------------------(3)----------|---3-------------------(3)-------------|
|---2-------------------(2)----------|---5-------------------(5)-------------|
|---0-------------------(0)----------|---5-------------------(5)-------5-5---|
|---0-------------------(0)----------|---3-------------------(3)-------3-3---|
|------------------------------------|---------------------------------------|
|
|   E   E   E   Q    E   E    E   Q      E   E   E   Q    E   E    E   Q
|------17------18-------17-------18--|------18------17-------18-------17-----|
|------------------------------------|---------------------------------------|
|------14------15-------14-------15--|------15------14-------15-------14-----|
|-(12)----(12)-----(12)-----(12)-----|-(14)----(14)-----(14)-----(14)--------|
|------------------------------------|---------------------------------------|
|------------------------------------|---------------------------------------|


  Bbsus2                               A5
                                                                       PM|
    H.                  +H               H.                  +Q        E E
|---1-------------------(1)----------|-------------------------------------|
|---1-------------------(1)----------|-------------------------------------|
|---3-------------------(3)----------|---2-------------------(2)-----------|
|---3-------------------(3)----------|---2-------------------(2)-------2-2-|
|---1-------------------(1)----------|---0-------------------(0)-------0-0-|
|------------------------------------|-------------------------------------|
|
|   E   E   E   Q    E   E    E   Q      E   E   E   Q    E   E    E   Q
|------17------15-------17-------15--|------15------13-------15-------13---|
|------------------------------------|-------------------------------------|
|------14------12-------14-------12--|------12------10-------12-------10---|
|-(12)----(12)-----(12)-----(12)-----|-(10)----(10)-----(10)-----(10)------|
|------------------------------------|-------------------------------------|
|------------------------------------|-------------------------------------|


  G5                 F5                 E5
 6/8
   H.                 H.                  H.
|------------------|------------------|--------------------|
|------------------|------------------|--------------------|
|------------------|------------------|--------------------|
|--5---------------|--3---------------|---2----------------|
|--5---------------|--3---------------|---2----------------|
|--3---------------|--1---------------|---0----------------|
|
|  E   E  E   Q.      E   E  E   Q.       E   E   E   Q.
|-----13-----12----|-----12-----10----|--------------------|
|------------------|------------------|------15------14----|
|-----10------9----|------9------7----|--------------------|
|-(8)----(8)-------|-(7)----(7)-------|------12------11----|
|------------------|------------------|-(10)----(10)-------|
|------------------|------------------|--------------------|


               H.=H
  A5   Bb5     A5   Bb5     A      Bb      A
       PM--|        PM--|          PM--|         PM-|
  Q.   e e e   Q.   e e e     Q.   e e e     Q   q  q
|------------|------------|--------------|-------------|
|------------|------------|---2----3-3-3-|---2---------|
|-2----3-3-3-|-2----3-3-3-|---2----3-3-3-|---2---2--2--|
|-2----3-3-3-|-2----3-3-3-|---2----3-3-3-|---2---2--2--|
|-0----1-1-1-|-0----1-1-1-|---0----1-1-1-|---0---0--0--|
|------------|------------|--------------|-------------|
|
| W            W              H.            +H.
|------------|------------|-/29----------|-(29)--------|
|------------|------------|--------------|-------------|
|------------|------------|-/26----------|-(26)--------|
|------------|------------|--------------|-------------|
|------------|------------|--------------|-------------|
|------------|------------|--------------|-------------|


  Q=90
  D5
  Gtrs II, III, IV
                        >
  H.        +H.        +H.        +H.
|---------|----------|----------|--------||
|-3-------|-(3)------|-(3)------|-(3)----||
|-2-------|-(2)------|-(2)------|-(2)----||
|-0-------|-(0)------|-(0)------|-(0)----||
|-0-------|-(0)------|-(0)------|-(0)----||
|---------|----------|----------|--------||


  Q=118
  D5
 5/4
   >
  +H.           +H          +H.           +H
|-------------------------|-------------------------|
|-(3)-----------(3)-------|-(3)-----------(3)-------|
|-(2)-----------(2)-------|-(2)-----------(2)-------|
|-(0)-----------(0)-------|-(0)-----------(0)-------|
|-(0)-----------(0)-------|-(0)-----------(0)-------|
|-------------------------|-------------------------|
|
| Gtr I
|  E  E E E E E  E  E E E    E  E E E E E  E  E E E
|-------------------------|-------------------------|
|-------------------------|-------------------------|
|-----3-2-3-2----3----2-3-|-----3-2-3-2----3----2-3-|
|--0----------0-----0-----|-------------------------|
|-------------------------|--3----------3-----3-----|
|-------------------------|-------------------------|


   >
  +H.           +H          +H.           +H
|-------------------------|---------------------------|
|-(3)-----------(3)-------|-(3)-----------(3)---------|
|-(2)-----------(2)-------|-(2)-----------(2)---------|
|-(0)-----------(0)-------|-(0)-----------(0)---------|
|-(0)-----------(0)-------|-(0)-----------(0)---------|
|-------------------------|---------------------------|
|
|  E  E E E E E  E  E E E    E  E E E E E  E  E E E
|-------------------------|---------------------------|
|-------------------------|---------------------------|
|-----3-2-3-2----3----2-3-|-----3-2-3-2----3----2-3---|
|--0----------0-----0-----|---------------------------|
|-------------------------|--3----------3-----3-------|
|-------------------------|---------------------------|


    (D)                   (C)
    Gtr I
    E E E E E E E E E E   E E E E E E E E E E     W
||----------------------|----------------------||------*|
||o---------------------|---------------------o||------*|
||----3-2-3-2---3---2-3-|---3-2-3-2---3---2-3--||------*|
||--0---------0---0-----|----------------------||------*|
||o---------------------|-3---------3---3-----o||------*|
||----------------------|----------------------||------*|

----------------------------------------------------------------------

7. IN THE NAME OF GOD
Tuning - C,F,Bb,Eb,G,C

Intro
  Q=72
  Amadd9      Fb5   Amadd9      G5     Amadd9      Fb5   Amadd9      G
 4/4
  Gtrs I, II
  E E E E E E E E   E E E E E E  E E   E E E E E E E E   E E E E E E  E E
|---------0-------|---------0--------|---------0-------|---------0------3--|
|-----0-1---0---0-|-----0-1---0----3-|-----0-1---0---0-|-----0-1---0-------|
|-----------------|------------------|-----------------|-------------/4----|
|---2---------3---|---2---------/5---|---2---------3---|---2---------------|
|-0---------------|-0----------------|-0---------------|-0-----------------|
|-----------------|------------------|-----------------|-------------------|


  Amadd9      Fb5   Amadd9      G       Amadd9      Fb5
  E E E E E E E E   E E E E E E E S S   E E E E E E E E
|---------0-------|---------0---------|---------0-------|
|-----0-1---0---0-|-----0-1---0---3p0-|-----0-1---0---0-|
|-----------------|-------------0-----|-----------------|
|---2---------3---|---2---------------|---2---------3---|
|-0---------------|-0-----------------|-0---------------|
|-----------------|-------------------|-----------------|


          H.=H       Q=50 H=H    Q=90
  Amadd9      G
                    4/4
  E E E E E E  E E   +Q   +H     +Q
|---------0------3-|-(3)--(3)----(3)---|
|-----0-1---0------|-------------------|
|-------------/4---|-------------------|
|---2--------------|-------------------|
|-0----------------|-------------------|
|------------------|-------------------|


   Riff 1  0:30
    Q=107
    (E5)
   4/4
    Gtrs III, VI
    E E +E  E E   +E  E E   E E +E  E S S E S S E
||------------------------|-----------------------|
||o-----------------------|-----------------------|
||------------------------|-----------------------|
||------------------------|-----------------------|
||o---7-(7)---7b8r(7)-5-8-|-7-------------2-------|
||--0-------0-------------|---0-(0)-0-4-5---5-4-1-|


  E E +E  E E   +E  E E   E E +E  E S S E S S E   Q  E S S E E E E
|-----------------------|-----------------------|---------------------|
|-----------------------|-----------------------|---------------------|
|-----------------------|-----------------------|---------------------|
|-----------------------|-----------------------|---------------------|
|---7-(7)---7b8r(7)-5-8-|-7---------2-3-5-3-2---|-7----5-7-8-7-5-8----|
|-0-------0-------------|---0-(0)-0-----------0-|----0----------------|


  E E +E  E S S E S S E   E E +E  E E   +E  E E
|-----------------------|-----------------------|
|-----------------------|-----------------------|
|-----------------------|-----------------------|
|-----------------------|-----------------------|
|-7-------------2-------|---7-(7)---7b8r(7)-5-8-|
|---0-(0)-0-4-5---5-0-1-|-0-------0-------------|


 1.                            2.
                                            |-3-|
  S S E S S E E S S S S S S     S S E S S E S S S S S S S S S
|----------------------------||--------------------------------|
|---------------------------o||-------------3h5p3--------------|
|-1-2-4-2-1------------------||-1-2-4-2-1---------5-4-2-1------|
|-----------3-2--------------||-----------3---------------2-3--|
|---------------5-3-2-------o||--------------------------------|
|---------------------5-4-1--||--------------------------------|


 Riff 2  1:06
  E5      G5  F5G5      E5      D5  C5
          PM--------|           PM
  E E E E s s E s s E   E E E E E E E E
|---------------------|-----------------|
|---------------------|-----------------|
|---------------------|-----------7-5-5-|
|-2-2-----------------|-----------7-5-5-|
|-2-2---2-----3-----3-|-2-2---2-5-5-3-3-|
|-0-0---0-3-3-1-3-3-1-|-0-0---0---------|


  E5      G5  F5G5  F5  E5      BbD5  Eb5
          PM--------|
  E E E E s s E s s E   E E S S E E E E E
|---------------------|--------------------|
|---------------------|--------------------|
|---------------------|--------------------|
|-2-2-----------------|---------3-0-0-1-1--|
|-2-2---2-----3-----3-|-2-2-x-x-1-0-0-1-1--|
|-0-0---0-3-3-1-3-3-1-|-0-0-x-x------------|


  E5      G5  F5G5  F5  E5      D5  C5
          PM--------|           PM
  E E E E s s E s s E   E E E E E E E E
|---------------------|-----------------|
|---------------------|-----------------|
|---------------------|-----------7-5-5-|
|-2-------------------|-----------7-5-5-|
|-2-----2-----3-----3-|-2-2---2-5-5-3-3-|
|---0---0-3-3-1-3-3-1-|-0-0---0---------|


  E5      G5  F5G5  F5  E5      BbD5  Eb5
          PM--------|
  E E E E s s E s s E   E E S S E E E E E
|---------------------|--------------------|
|---------------------|--------------------|
|---------------------|--------------------|
|-2-2-----------------|---------3-0-0-1-1--|
|-2-2---2-----3-----3-|-2-2-x-x-1-0-0-1-1--|
|-0-0---0-3-3-1-3-3-1-|-0-0-x-x------------|


 Verse 1  1:24
  Q=108
                    D5  Eb5   E5                                 D5  Eb5
  Wx3          H    E E E E   E E H.        Wx2          Q   Q   E E E E
|------------|--------------|-------------|------------|-----------------|
|------------|--------------|-------------|------------|-----------------|
|------------|--------------|-------------|------------|-----------------|
|------------|------0-0-1-1-|-2-----------|------------|----/5\--0-0-1-1-|
|------------|------0-0-1-1-|-2-----------|------------|---------0-0-1-1-|
|------------|--------------|---0---------|------------|-----------------|


 Riff 1  1:42
  (E5)
  E E +E  E E   +E  E E   E E +E  E S S E S S E
|-----------------------|-----------------------|
|-----------------------|-----------------------|
|-----------------------|-----------------------|
|-----------------------|-----------------------|
|---7-(7)---7b8r(7)-5-8-|-7-------------2-------|
|-0-------0-------------|---0-(0)-0-4-5---5-4-1-|


     ~~
  E  E +E  E E   +E  E E   E E +E  E S S E S S E
|------------------------|-----------------------|
|------------------------|-----------------------|
|------------------------|-----------------------|
|------------------------|-----------------------|
|---/7-(7)---7b8r(7)-5-8-|-7---------2-3-5-3-2---|
|-0--------0-------------|---0-(0)-0-----------0-|


  ~
  Q  E S S E E E E   E E +E  E S S E S S E
|------------------|-----------------------|
|------------------|-----------------------|
|------------------|-----------------------|
|------------------|-----------------------|
|-7----5-7-8-7-5-8-|-7-------------2-------|
|----0-------------|---0-(0)-0-4-5---5-4-1-|


     ~~
                                       |-3-|
  E  E +E  E E   +E  E E   S S E S S E S S S S S S S S S
|------------------------|---------------------------------|
|------------------------|-------------3h5p3---------------|
|------------------------|-1-2-4-2-1---------5-4-2-1-------|
|------------------------|-----------3---------------2-3---|
|---/7-(7)---7b8r(7)-5-8-|---------------------------------|
|-0--------0-------------|---------------------------------|


 Verse 2  2:00
  E5      G5  F5G5  F5  E5      D5  C5
          PM--------|           PM
  E E E E s s E s s E   E E E E E E E E
|---------------------|-----------------|
|---------------------|-----------------|
|---------------------|-----------7-5-5-|
|-2-2-----------------|-----------7-5-5-|
|-2-2---2-----3-----3-|-2-2---2-5-5-3-3-|
|-0-0---0-3-3-1-3-3-1-|-0-0---0---------|


  E5      G5  F5G5  F5  E5      BbD5  Eb5
          PM--------|
  E E E E s s E s s E   E E S S E E E E E
|---------------------|--------------------|
|---------------------|--------------------|
|---------------------|--------------------|
|-2-2-----------------|---------3-0-0-1-1--|
|-2-2---2-----3-----3-|-2-2-x-x-1-0-0-1-1--|
|-0-0---0-3-3-1-3-3-1-|-0-0-x-x------------|


  E5      G5  F5    F5  E5      D5  C5
          PM--------|           PM
  E E E E s s E s s E   E E E E E E E E
|---------------------|-----------------|
|---------------------|-----------------|
|---------------------|-----------7-5-5-|
|-2-------------------|-----------7-5-5-|
|-2-----2-----3-----3-|-2-2---2-5-5-3-3-|
|---0---0-3-3-1-3-3-1-|-0-0---0---------|


  E5      G5  F5G5  F5  E5      BbD5  Eb5
          PM--------|
  E E E E s s E s s E   E E S S E E E E E
|---------------------|--------------------|
|---------------------|--------------------|
|---------------------|--------------------|
|-2-2-----------------|---------3-0-0-1-1--|
|-2-2---2-----3-----3-|-2-2-x-x-1-0-0-1-1--|
|-0-0---0-3-3-1-3-3-1-|-0-0-x-x------------|


 Pre-Chorus 2:17
  Q=100
  Am                               B7sus4b9        C6
  Gtr V
  Q   Q   Q  Q     Q   Q   Q  Q    Q   Q   Q  Q    Q   Q  Q   Q
|---------2-----|--3-------7-----|---------2-----|-3------8--------|
|-5-------------|----------8-----|-5-------------|--------8--------|
|-5--(5)--5--5--|--5---5--10--5--|-5--(5)--5--5--|-5---5--6--(5)---|
|-2-------2-----|--2-------------|-2-------2-----|-2---------------|
|----(2)-----2--|------2------2--|----(2)-----2--|-----2-----(2)---|
|---------------|----------------|---------------|-----------------|
|---------------|----------------|---------------|-----------------|
|
| Gtrs III, VI
|                                  ~
|                                                             |3-|
| W               +W               W               H.        +Q  E
|---------------|----------------|---------------|-----------------|
|---------------|----------------|---------------|-----------------|
|---------------|----------------|---------------|-5---------(5)---|
|-2-------------|-(2)------------|---------------|-5---------(5)-5-|
|-0-------------|-(0)------------|-2-------------|-3---------(3)-3-|
|---------------|----------------|---------------|-----------------|


                                         Q=97
  Fmaj7                        G5        C5 G/B   C5
                              6/8
  Q   Q   Q  Q    Q  H.        H.        Q  E +E  Q
|---------2-----|-3----------|-5-------|-3--2-(2)-3--|
|-5-------------|------------|-3-------|-3--3-(3)-3--|
|-5--(5)--5--5--|-5--5-------|-3-------|-1--0-(0)-1--|
|-2-------2-----|-2----------|---------|-------------|
|----(2)-----2--|----2-------|-5-------|-------------|
|---------------|------------|---------|-3--2-(2)-3--|
|---------------|------------|---------|-------------|
|
| W               W            H.        Q  E +E  Q
|---------------|-1----------|---------|-3--3-(3)-3--|
|---------------|-1----------|-3-------|-1--0-(0)-1--|
|---------------|------------|-0-------|-------------|
|---------------|------------|-0-------|-------------|
|-3-------------|------------|---------|-------------|
|-1-------------|------------|-3-------|-------------|


   Chorus 2:35
    Q=99
    $
    Amadd9        Cmaj7         Fmaj7add11    Dm
    Gtrs III, VI
    E E E E E E   E E E E E E   E E E E E E   Q  E +E  E E
||--------0-----|-------0-----|-------0-----|--------------|
||o-----0---0---|-----0---0---|-----0---0---|--------------|
||----4-------5-|---4-------5-|---4-------5-|-2--2-(2)-----|
||--------------|-------------|-------------|-0--0-(0)-----|
||o-0-----------|-3-----------|-------------|----------3-2-|
||--------------|-------------|-1-----------|--------------|


                                           1.             2.
                                                             To Coda
  Amadd9        Cmaj7         Fmaj7add11    G              G
                                                  ~~~            ~~~
  E E E E E E   E E E E E E   E E E E E E   Q.    Q.       Q.    Q.
|-------0-----|-------0-----|-------0-----|-------------||-------------|
|-----0---0---|-----0---0---|-----0---0---|------------o||-------------|
|---4-------5-|---4-------5-|---4-------5-|-------------||-------------|
|-------------|-------------|-------------|-------------||-------------|
|-0-----------|-3-----------|-------------|-5----------o||-5-----------|
|-------------|-------------|-1-----------|-3----/7-----||-3----/7-----|


   Riff 3 3:04
    Q=99
    (A5)
   12/16
    S E E S S E E S   S E E S S S S S S S
||------------------|---------------------|
||o-----------------|---------------------|
||------------------|---------------------|
||------------------|---------------------|
||o-3-0-0-0-3-0-0-0-|-3-0-0-0-7-3-6-3-3-5-|
||------------------|---------------------|


  S E E S S E E S   S E E S S S S S S S
|-----------------|----------------------||
|-----------------|---------------------o||
|-----------------|----------------------||
|-----------------|---------3-1-2-----1--||
|-3-0-0-0-3-0-0-0-|-3-0-0-0-------3-2---o||
|-----------------|----------------------||


 Verse 3  3:19
  S S S E S S E E S     S E E S S S S S S S   S E E S S E E S
|-------------------||----------------------|-----------------|
|-------------------||o---------------------|-----------------|
|-------------------||----------------------|-----------------|
|-------------------||----------------------|-----------------|
|-3-0-0-0-0-3-0-0-0-||o-3-0-0-0-7-3-6-3-3-5-|-3-0-0-0-3-0-0-0-|
|-------------------||----------------------|-----------------|


  1.                                       2.
  S E E S S S S S S S   S E E S S E E S     S E E S S S S S S S
|---------------------|------------------||---------------------|
|---------------------|-----------------o||---------------------|
|---------------------|------------------||---------------------|
|---------3-1-2-----1-|------------------||---------3-1-2-------|
|-3-0-0-0-------3-2---|-3-0-0-0-3-0-0-0-o||-3-0-0-0-------3-2-0-|
|---------------------|------------------||---------------------|


                         1.,2.,3.                  4.
    (E5)
    S S S E S S S S E S   S S S E S S S S S S S  4x S S S E S S S S S S S
||----------------------|------------------------||-----------------------|
||o---------------------|-----------------------o||-----------------------|
||----------------------|------------------------||-----------------------|
||----------------------|------------------------||-----------------------|
||o-------2-2-------2-2-|-------2-2-----------5-o||-------2-2-----7-5-----|
||--3-0-0-0-0-3-0-0-0-0-|-3-0-0-0-0-3-0-5-6-7----||-3-0-0-0-0-3-0-----7-6-|


  F#5
  S S S E S S S S E S   S S S E S S S S S S S
|---------------------|-----------------------|
|---------------------|-----------------------|
|---------------------|-----------------------|
|---------------------|-----------------------|
|---------------------|---------------3-2-3-2-|
|-5-2-2-2-2-5-2-2-2-2-|-5-2-2-2-2-0-2---------|


  S S S E S S S S E S   S S S E S S S S S S S
|---------------------|------------------------|
|---------------------|------------------------|
|---------------------|------------------------|
|---------------------|---------------4-2------|
|---------------------|-------------------3-2--|
|-5-2-2-2-2-5-2-2-2-2-|-5-2-2-2-2-0-2----------|


  S E E S S E E S   S E E S S S S S S S
|-----------------|---------------------|
|-----------------|---------------------|
|-----------------|---------------------|
|-----------------|---------------------|
|-----------------|-------------3-2-3-2-|
|-5-2-2-2-5-2-2-2-|-5-2-2-2-0-2---------|


                          D.S. al Coda
  S E E S S E E S   S E E S S S S S S S
|-----------------|----------------------|
|-----------------|----------------------|
|-----------------|----------------------|
|-----------------|-------------4-2------|
|-----------------|-----------------3-2--|
|-5-2-2-2-5-2-2-2-|-5-2-2-2-0-2----------|


 Bridge 4:32
  &
  E5                D5E5   F5            C5    F5
 12/8
             ~
  Q  E E E E Q  E E E E    Q  E E E E Q  E +E  Q
|------0---0------------||------------------------|
|-5------0--------5-----||-6--6-------------------|
|-4---------------4-2-4-||-5--5-0-----------------|
|-2--2-------2--2-2-0-2-||-3------3-3----------3--|
|-----------------------||------------5--3-(3)-3--|
|-----------------------||---------------3-(3)----|


  E5                D5E5  F5         D5 C5    G/B
             ~
  Q  E E E E Q  E E E E   Q  E E E E Q  E +E  Q
|------0---0------------|------------------------|
|-5------0--------5-----|-6------0---------------|
|-4---------------4-2-4-|-5----0---5-------------|
|-2--2-------2--2-2-0-2-|-3--3-------7--5-(5)-5--|
|-----------------------|------------5--3-(3)-2--|
|-----------------------|------------------------|


 Pre-Chorus 4:47
  Q=98
  A5                    G5
  Q.   Q.   Q.   Q.     Q.   Q.   Q.   Q.
|---------------------|---------------------|
|---------------------|---------------------|
|-2----2----2----2----|---------------------|
|-2----2----2----2----|-5----5----5----5----|
|-0----0----0----0----|-5----5----5----5----|
|---------------------|-3----3----3----3----|


  F5
                          ~~~~~~~~~    ~~
  Q.   E E E Q.   E E E   Q.   +E  E E Q.    Q.
|------------1----------|--------------------------|
|--------0-0-1----------|--------------------------|
|-----------------2-----|--------------------------|
|-3----3------------3---|-------------------/6\----|
|-3----3--------------5-|-2----(2)-2---------------|
|-1----1----------------|------------5-4-----------|


   Chorus 5:02
    Q=99
    Amadd9        Cmaj7         Fmaj7add11    Dm
   6/8
    E E E E E E   E E E E E E   E E E E E E   Q  E +E  E E
||--------0-----|-------0-----|-------0-----|--------------|
||o-----0---0---|-----0---0---|-----0---0---|--------------|
||----4-------5-|---4-------5-|---4-------5-|-2--2-(2)-----|
||--------------|-------------|-------------|-0--0-(0)-----|
||o-0-----------|-3-----------|-------------|----------3-2-|
||--------------|-------------|-1-----------|--------------|


                                           1.             2Q=90
  Amadd9        Cmaj7         Fmaj7add11    G              G5
                                                          12/8
I want to post or [tab]
guest
You may want to rate the tab now too:
select rating
Please do not post tabs as comments. Select "correction" instead!