Oops, an error
Loading. Please wait.

Train Of Thought Tab

ver2
ver2

Album

More versions @911Tabs.com
2,802 views 3 this week
2 commentsread comments
1 2 3 4 5
please rate
add to favorites launch autoscroll
font size
0
reset
Autoscroll
+/-
esc
set tempo
stop
Contributor
Difficulty
advanced
WARNING: You are trying to view
                                    content from Ultimate-Guitar.com
                                    in an unauthorized application,
                                    which is prohibited.

                                    Please use an official Ultimate
                                    Guitar Tabs application for iPhone,
                                    iPad or Android to access legitimate
                                    chords, guitar, bass, and drum tabs
                                    from Ultimate-Guitar.com database.

                                    Type "ultimate guitar tabs" in Apple
                                    App Store's or Android Market's
                                    search to find the application.
Dream Theater: Train Of Thought

Transcribed by: Andrew Zara (disturbedfreak0520@yahoo.com)

Date last modified: June 18, 2007

PLEASE DO NOT COPY THIS TAB TO ANOTHER SITE
WITHOUT AUTHORS' PERMISSION. THANK YOU.

Tracks: 1. As I Am                 (B,E,A,D,G,B,E)
        2. This Dying Soul         (B,E,A,D,G,B,E)
        3. Endless Sacrifice       (D,G,C,F,A,D)
        4. Honor Thy Father        (C,F,A#,D#,G,C)
        5. Vacant                  (No guitar)
        6. Stream Of Consciousness (D#,G#,C#,F#,A#,D#)
        7. In The Name Of God      (C,F,A#,D#,G,C)

*******************************************************************************

1. AS I AM

Guitar 1

W                   W                   W                 
E||-------------------|-------------------|-------------------|
B||-------------------|-------------------|-------------------|
G||-------------------|-------------------|-------------------|
D||-------------------|-------------------|-------------------|
A||-------------------|-------------------|-------------------|
E||-------------------|-------------------|-------------------|
B||-------------------|-------------------|-------------------|


  W                    W                   W                 
-------------------||-------------------|-------------------|
-------------------||-------------------|-------------------|
-------------------||-------------------|-------------------|
-------------------||-------------------|-------------------|
-------------------||-------------------|-------------------|
-------------------||-------------------|-------------------|
-------------------||-------------------|-------------------|


  W                   W                     W                 
-------------------|--------------------||-------------------|
-------------------|--------------------||-------------------|
-------------------|--------------------||-------------------|
-------------------|--------------------||-------------------|
-------------------|--------------------||-------------------|
-------------------|--------------------||--3----------------|
-------------------|--------------------||--1----------------|


  W                   W                   W                   W                 
-------------------|-------------------|-------------------|-------------------|
-------------------|-------------------|-------------------|-------------------|
-------------------|-------------------|-------------------|-------------------|
-------------------|-------------------|-------------------|-------------------|
-------------------|-------------------|-------------------|-------------------|
--L----------------|--3----------------|--L----------------|--3----------------|
--L----------------|--1----------------|--L----------------|--1----------------|


  W                   W                   W                 
-------------------|-------------------|-------------------|
-------------------|-------------------|-------------------|
-------------------|-------------------|-------------------|
-------------------|-------------------|-------------------|
-------------------|-------------------|-------------------|
--L----------------|--3----------------|--L----------------|
--L----------------|--1----------------|--L----------------|


  Q.     E  E  E  E  E     W                   Q.     E  E  E  E  E   
------------------------|-------------------|------------------------|
------------------------|-------------------|------------------------|
------------------------|-------------------|------------------------|
------------------------|-------------------|------------------------|
------------3-----3-----|-------------------|------------3-----3-----|
--3------3-----3-----2--|--L----------------|--3------3-----3-----2--|
--1------1-----1--------|-------------------|--1------1-----1--------|


  W                   Q.     E  E  E  E  E     W                 
-------------------|------------------------|-------------------|
-------------------|------------------------|-------------------|
-------------------|------------------------|-------------------|
-------------------|------------------------|-------------------|
-------------------|------------3-----3-----|-------------------|
--L----------------|--3------3-----3-----2--|--L----------------|
-------------------|--1------1-----1--------|-------------------|


  Q.     E  E  E  E  E     W                    E  E  E  E  E  E  E  E    
------------------------|-------------------||---------------------------|
------------------------|-------------------||---------------------------|
------------------------|-------------------||---------------------------|
------------------------|-------------------||---------------------------|
------------3-----3-----|-------------------||--------------3-----3------|
--3------3-----3-----2--|--L----------------||--3--3--3--3-----------2~--|
--1------1-----1--------|-------------------||--1--1--1--1-----1---------|


  Q    E  Q     E  Q        E  E  E  E  E  E  E  E    
-------------------------|---------------------------|
-------------------------|---------------------------|
-------------------------|---------------------------|
-------------------------|---------------------------|
-------3--------3--------|--------------3-----3------|
--L-------1~-------------|--3--3--3--3-----------2~--|
-------------------4~----|--1--1--1--1-----1---------|


  Q    E  Q     E  Q         Q    E  Q     E  Q     
-------------------------||------------------------|
-------------------------||------------------------|
-------------------------||------------------------|
-------------------------||------------------------|
-------3-----------------||-------3----------------|
--L-------1~----3--------||----------1~----3-------|
----------------1--4-----||----------------1--4----|


  E  E  E  E  S S S S S S E     E  E  E  E  S S S S S S E   
-----------------------------|-----------------------------|
-----------------------------|-----------------------------|
-----------------------------|-----------------------------|
-----------------------------|-----------------------------|
--------------4-3-1-4-3-1-4--|--3-----------4-3-1-4-3-1-3--|
-----------------------------|-----------------------------|
--1--1--1--1-----------------|-----1--1--1-----------------|


  E  E  E  E  S S S S S S E     E  E  E  E  S S E  S S E   
-----------------------------|----------------------------|
-----------------------------|----------------------------|
-----------------------------|----------------------------|
-----------------------------|----------------------------|
--------------4-3-1-4-3-1-4--|--3-------------------------|
-----------------------------|----------------------------|
--1--1--1--1-----------------|-----1--1--1--4-4-4--2-2-2--|


  E  E  E  E  S S S S S S E     E  E  E  E  S S S S S S E   
-----------------------------|-----------------------------|
-----------------------------|-----------------------------|
-----------------------------|-----------------------------|
-----------------------------|-----------------------------|
--------------4-3-1-4-3-1-4--|--3-----------4-3-1-4-3-1-3--|
-----------------------------|-----------------------------|
--1--1--1--1-----------------|-----1--1--1-----------------|


  E  E  E  E  S S S S S S E     E  E  E  E  S S E  S S E   
-----------------------------|----------------------------|
-----------------------------|----------------------------|
-----------------------------|----------------------------|
-----------------------------|----------------------------|
--------------4-3-1-4-3-1-4--|--3-------------------------|
-----------------------------|----------------------------|
--1--1--1--1-----------------|-----1--1--1--4-4-4--2-2-2--|


   E  E  E  E  S S S S S S E     E  E  E  E  S S S S S S E   
|-----------------------------|-----------------------------|
|-----------------------------|-----------------------------|
|-----------------------------|-----------------------------|
|-----------------------------|-----------------------------|
|--------------4-3-1-4-3-1-4--|--3-----------4-3-1-4-3-1-3--|
|-----------------------------|-----------------------------|
|--1--1--1--1-----------------|-----1--1--1-----------------|


  E  E  E  E  S S S S S S E     E  E  E  E  S S E  S S E     
-----------------------------|-----------------------------||
-----------------------------|-----------------------------||
-----------------------------|-----------------------------||
-----------------------------|-----------------------------||
--------------4-3-1-4-3-1-4--|--3--------------------------||
-----------------------------|-----------------------------||
--1--1--1--1-----------------|-----1--1--1--4-4-4--2-2-2---||


  E  E  E  E  S S E  S S E      E  E  E  E  S S S S S S E   
----------------------------||-----------------------------|
----------------------------||-----------------------------|
----------------------------||-----------------------------|
----------------------------||-----------------------------|
--3-------------------------||--------------4-3-1-4-3-1-4--|
----------------------------||-----------------------------|
-----1--1--1--4-4-4--2-2-2--||--1--1--1--1-----------------|


  E  E  E  E  S S S S S S E     E  E  E  E  S S S S S S E   
-----------------------------|-----------------------------|
-----------------------------|-----------------------------|
-----------------------------|-----------------------------|
-----------------------------|-----------------------------|
--3-----------4-3-1-4-3-1-3--|--------------4-3-1-4-3-1-4--|
-----------------------------|-----------------------------|
-----1--1--1-----------------|--1--1--1--1-----------------|


  E  E  E  E  S S E  S S E       E  E  E  E  S S E  S S E   
-----------------------------||----------------------------|
-----------------------------||----------------------------|
-----------------------------||----------------------------|
-----------------------------||----------------------------|
--3--------------------------||--3-------------------------|
-----------------------------||----------------------------|
-----1--1--1--4-4-4--2-2-2---||-----1--1--1--4-4-4--2-2-2--|


  Q    Q    Q    E  E     E  Q    Q    E  Q       Q    Q    Q    E  E   
-----------------------|-----------------------|-----------------------|
-----------------------|-----------------------|-----------------------|
-------0---------0-----|-----0---------0-------|-------0---------0-----|
-----------------------|-----------------------|-----------------------|
-----------------------|-----------------------|-----------------------|
--3--------------------|----------1-------4----|--3--------------------|
------------4-------3--|--L--------------------|------------4-------3--|


  E  E  Q    Q       Q    Q    Q    E  E     E  Q    Q    E  Q    Q     
------------------|-----------------------|----------------------------|
------------------|-----------------------|----------------------------|
-----0-------0----|-------0---------0-----|-----0---------0-------0----|
------------------|-----------------------|----------------------------|
------------------|-----------------------|----------------------------|
------------------|--3--------------------|----------1-------4---------|
--L--L--1---------|------------4-------3--|--L-------------------------|


  Q    Q    Q    E  E     E  E  Q    H           Q    Q    Q    E  E   
-----------------------|----------------------|-----------------------|
-----------------------|----------------------|-----------------------|
-------0---------0-----|-----0-------0--------|-------0---------0-----|
-----------------------|----------------------|-----------------------|
-----------------------|----------------------|-----------------------|
--3--------------------|----------------------|--3----L---------------|
------------4-------3--|--L-----1-------------|------------4----L--3--|


  E  Q    Q    E  Q       Q    Q    Q    E  E     E  E  Q    Q     
-----------------------|-----------------------|------------------|
-----------------------|-----------------------|------------------|
-----0---------0-------|-------0---------0-----|-----0-------0----|
-----------------------|-----------------------|------------------|
-----------------------|-----------------------|------------------|
----------1----L--4----|--3----L---------------|------------------|
--L--L-----------------|------------4----L--3--|--L--L--1----L----|


  Q    Q    Q    E  E     E  Q    Q    E  Q    Q       Q    Q    Q    E  E   
-----------------------|----------------------------|-----------------------|
-----------------------|----------------------------|-----------------------|
-------0---------0-----|-----0---------0-------0----|-------0---------0--L--|
-----------------------|----------------------------|-----------------------|
-----------------------|----------------------------|-----------------------|
--3----L---------------|----------1-------4----L----|--3----L---------------|
------------4----L--3--|--L--L----------------------|------------4----L--3--|


  E  E  E  E  Q       H.               H        E  E  E     H        E  E  E   
-------------------|---------------||--------------------|--------------------|
-------------------|---------------||--------------------|--------------------|
--L----------------|---------------||--------------------|--------------------|
-------------------|---------------||--------------------|--------------------|
-------------------|---------------||--------------------|--------------------|
-----6--5--4--L----|--L------------||--3--------L--------|--6--------L--3-----|
--L--4--3--2--L----|--L------------||--1--------L--1--3--|--4--------L-----4--|


  H        E  E  E     Q    E  E  E  Q     E  E       H        E  E  E   
--------------------|-----------------------------||--------------------|
--------------------|-----------------------------||--------------------|
--------------------|-----------------------------||--------------------|
--------------------|-----------------------------||--------------------|
--------------------|-----------------------------||--------------------|
--5--------L--3-----|--4----L--6--5--4~----1--3---||--5--------L--3-----|
--3--------L-----3--|--2----2---------------------||--3--------L-----3--|


  E  E  E  E  E  E  E  E  E      H        E  E  E  E     H        E  E  E  E   
-----------------------------||-----------------------|-----------------------|
-----------------------------||-----------------------|-----------------------|
-----------------------------||-----------------------|-----------------------|
-----------------------------||-----------------------|-----------------------|
-----------------------------||-----------------------|-----------------------|
--------------4-----4-----4--||--3--------L--------6--|--L--------L--3-----5--|
--2-----2--------------------||--1--------L--1--3--4--|--L--------L-----4--3--|


  H        E  E  E  E     Q    E  E  Q     E  E       H        E  E  E  E   
-----------------------|--------------------------||-----------------------|
-----------------------|--------------------------||-----------------------|
-----------------------|--------------------------||-----------------------|
-----------------------|--------------------------||-----------------------|
-----------------------|--------------------------||-----------------------|
--L--------L--3-----4--|--L----6--5--4~----1--3---||--------------3--------|
--L--------L-----3--2--|--L-----------------------||-----------------3--2--|


  E  E  E  E  E  E     E  E  E  E  E  E  E  E      Q    E  Q     E  Q      
--------------------|---------------------------|-------------------------|
--------------------|---------------------------|-------------------------|
--------------------|---------------------------|-------------------------|
--------------------|---------------------------|-------------------------|
--------------------|--------------3-----3------|-------3--------3--------|
-----------4-----4--|--3--3--3--3-----------2~--|--L-------1~-------------|
-----2--------------|--1--1--1--1-----1---------|-------------------4~----|


  E  E  E  E  E  E  E  E      Q    E  Q     E  Q      
---------------------------|-------------------------|
---------------------------|-------------------------|
---------------------------|-------------------------|
---------------------------|-------------------------|
--------------3-----3------|-------3--------3--------|
--3--3--3--3-----------2~--|--L-------1~-------------|
--1--1--1--1-----1---------|-------------------4~----|


  E  E  E  E  E  E  E  E      Q    E  Q     E  Q      
---------------------------|-------------------------|
---------------------------|-------------------------|
---------------------------|-------------------------|
---------------------------|-------------------------|
--------------3-----3------|-------3--------3--------|
--3--3--3--3-----------2~--|--L-------1~-------------|
--1--1--1--1-----1---------|-------------------4~----|


  E  E  E  E  E  E  E  E      Q    E  Q     E  Q      
---------------------------|-------------------------|
---------------------------|-------------------------|
---------------------------|-------------------------|
---------------------------|-------------------------|
--------------3-----3------|-------3--------3--------|
--3--3--3--3-----------2~--|--L-------1~-------------|
--1--1--1--1-----1---------|-------------------4~----|


  E  E  E  E  S S S S S S E     E  E  E  E  S S S S S S E   
-----------------------------|-----------------------------|
-----------------------------|-----------------------------|
-----------------------------|-----------------------------|
-----------------------------|-----------------------------|
--------------4-3-1-4-3-1-4--|--3-----------4-3-1-4-3-1-3--|
-----------------------------|-----------------------------|
--1--1--1--1-----------------|-----1--1--1-----------------|


  E  E  E  E  S S S S S S E     E  E  E  E  S S E  S S E   
-----------------------------|----------------------------|
-----------------------------|----------------------------|
-----------------------------|----------------------------|
-----------------------------|----------------------------|
--------------4-3-1-4-3-1-4--|--3-------------------------|
-----------------------------|----------------------------|
--1--1--1--1-----------------|-----1--1--1--4-4-4--2-2-2--|


  E  E  E  E  S S S S S S E     E  E  E  E  S S S S S S  
-----------------------------|--------------------------|
-----------------------------|--------------------------|
-----------------------------|--------------------------|
-----------------------------|--------------------------|
--------------4-3-1-4-3-1-4--|--3-----------4-3-1-4-3-1-|
-----------------------------|--------------------------|
--1--1--1--1-----------------|-----1--1--1--------------|


  E  E  E  E  S S S S S S E     E  E  E  E  S S E  S S E   
-----------------------------|----------------------------|
-----------------------------|----------------------------|
-----------------------------|----------------------------|
-----------------------------|----------------------------|
--3-----------4-3-1-4-3-1-4--|--3-------------------------|
-----------------------------|---------------------3-3-3--|
-----1--1--1-----------------|-----1--1--1--4-4-4---------|


  E  E  E  E  S S S S S S E     E  E  E  E  S S S S S S E   
-----------------------------|-----------------------------|
-----------------------------|-----------------------------|
-----------------------------|-----------------------------|
-----------------------------|-----------------------------|
--------------4-3-1-4-3-1-4--|--3-----------4-3-1-4-3-1-3--|
-----------------------------|-----------------------------|
--1--1--1--1-----------------|-----1--1--1-----------------|


  E  E  E  E  S S S S S S E     E  E  E  E  S S E  S S E   
-----------------------------|----------------------------|
-----------------------------|----------------------------|
-----------------------------|----------------------------|
-----------------------------|----------------------------|
--------------4-3-1-4-3-1-4--|--3-------------------------|
-----------------------------|----------------------------|
--1--1--1--1-----------------|-----1--1--1--4-4-4--2-2-2--|


  E  E  E  E  S S S S S S E     E  E  E  E  S S S S S S  
-----------------------------|--------------------------|
-----------------------------|--------------------------|
-----------------------------|--------------------------|
-----------------------------|--------------------------|
--------------4-3-1-4-3-1-4--|--3-----------4-3-1-4-3-1-|
-----------------------------|--------------------------|
--1--1--1--1-----------------|-----1--1--1--------------|


  E  E  E  E  S S S S S S E     E  E  E  E  S S E  S S E   
-----------------------------|----------------------------|
-----------------------------|----------------------------|
-----------------------------|----------------------------|
-----------------------------|----------------------------|
--3-----------4-3-1-4-3-1-4--|--3-------------------------|
-----------------------------|---------------------3-3-3--|
-----1--1--1-----------------|-----1--1--1--4-4-4---------|


  Q    Q    Q    E  E     E  Q    Q    E  Q       Q    Q    Q    E  E   
-----------------------|-----------------------|-----------------------|
-----------------------|-----------------------|-----------------------|
-------0---------0-----|-----0---------0-------|-------0---------0-----|
-----------------------|-----------------------|-----------------------|
-----------------------|-----------------------|-----------------------|
--3--------------------|----------1-------4----|--3--------------------|
------------4-------3--|--L--------------------|------------4-------3--|


  E  E  Q    Q       Q    Q    Q    E  E     E  Q    Q    E  Q    Q     
------------------|-----------------------|----------------------------|
------------------|-----------------------|----------------------------|
-----0-------0----|-------0---------0-----|-----0---------0-------0----|
------------------|-----------------------|----------------------------|
------------------|-----------------------|----------------------------|
------------------|--3--------------------|----------1-------4---------|
--L--L--1---------|------------4-------3--|--L-------------------------|


  Q    Q    Q    E  E     E  E  Q    H           Q    Q    Q    E  E   
-----------------------|----------------------|-----------------------|
-----------------------|----------------------|-----------------------|
-------0---------0-----|-----0-------0--------|-------0---------0-----|
-----------------------|----------------------|-----------------------|
-----------------------|----------------------|-----------------------|
--3--------------------|----------------------|--3----L---------------|
------------4-------3--|--L-----1-------------|------------4----L--3--|


  E  Q    Q    E  Q       Q    Q    Q    E  E     E  E  Q    Q     
-----------------------|-----------------------|------------------|
-----------------------|-----------------------|------------------|
-----0---------0-------|-------0---------0-----|-----0-------0----|
-----------------------|-----------------------|------------------|
-----------------------|-----------------------|------------------|
----------1----L--4----|--3----L---------------|------------------|
--L--L-----------------|------------4----L--3--|--L--L--1----L----|


  Q    Q    Q    E  E     E  Q    Q    E  Q    Q       Q    Q    Q    E  E   
-----------------------|----------------------------|-----------------------|
-----------------------|----------------------------|-----------------------|
-------0---------0-----|-----0---------0-------0----|-------0---------0--L--|
-----------------------|----------------------------|-----------------------|
-----------------------|----------------------------|-----------------------|
--3----L---------------|----------1-------4----L----|--3----L---------------|
------------4----L--3--|--L--L----------------------|------------4----L--3--|


  E  E  E  E  Q       H.               H        E  E  E     H        E  E  E   
-------------------|---------------||--------------------|--------------------|
-------------------|---------------||--------------------|--------------------|
--L----------------|---------------||--------------------|--------------------|
-------------------|---------------||--------------------|--------------------|
-------------------|---------------||--------------------|--------------------|
-----6--5--4--L----|--L------------||--3--------L--------|--6--------L--3-----|
--L--4--3--2--L----|--L------------||--1--------L--1--3--|--4--------L-----4--|


  H        E  E  E     Q    E  E  E  Q     E  E       H        E  E  E   
--------------------|-----------------------------||--------------------|
--------------------|-----------------------------||--------------------|
--------------------|-----------------------------||--------------------|
--------------------|-----------------------------||--------------------|
--------------------|-----------------------------||--------------------|
--5--------L--3-----|--4----L--6--5--4~----1--3---||--5--------L--3-----|
--3--------L-----3--|--2----2---------------------||--3--------L-----3--|


  E  E  E  E  E  E  E  E  E      H        E  E  E  E     H        E  E  E  E   
-----------------------------||-----------------------|-----------------------|
-----------------------------||-----------------------|-----------------------|
-----------------------------||-----------------------|-----------------------|
-----------------------------||-----------------------|-----------------------|
-----------------------------||-----------------------|-----------------------|
--------------4-----4-----4--||--3--------L--------6--|--L--------L--3-----5--|
--2-----2--------------------||--1--------L--1--3--4--|--L--------L-----4--3--|


  H        E  E  E  E     Q    E  E  Q     E  E       H        E  E  E  E   
-----------------------|--------------------------||-----------------------|
-----------------------|--------------------------||-----------------------|
-----------------------|--------------------------||-----------------------|
-----------------------|--------------------------||-----------------------|
-----------------------|--------------------------||-----------------------|
--L--------L--3-----4--|--L----6--5--4~----1--3---||--------------3--------|
--L--------L-----3--2--|--L-----------------------||-----------------3--2--|


  E  E  E  E  E  E     H.            E  E      H.           E  E   
--------------------|-----------------------|---------------------|
--------------------|-----------------------|---------------------|
--------------------|-----------------------|---------------------|
--------------------|-----------------------|---------------------|
--------------------|-----------------------|---------------------|
-----------4-----4--|-------------------2~--|--L------------------|
-----2--------------|--1~------------L------|---------------1--2--|


  H         E  E  E  E      H.           E  E     H.            E  E    
-------------------------|---------------------|-----------------------|
-------------------------|---------------------|-----------------------|
-------------------------|---------------------|-----------------------|
-------------------------|---------------------|-----------------------|
-------------------------|---------------------|-----------------------|
---------------6--5--4~--|--L------------------|-------------------2~--|
--3~--------L------------|---------------3--4--|--1~------------L------|


  H.           E  E     H         E  E  E  E      Q    E  Q    Q.      
---------------------|-------------------------|----------------------|
---------------------|-------------------------|----------------------|
---------------------|-------------------------|----------------------|
---------------------|-------------------------|----------------------|
---------------------|-------------------------|---------------6------|
--L------------------|---------------6--5--4~--|--L----L--7-----------|
---------------1--2--|--3~--------L------------|----------------------|


  H.            E  E      H.           E  E     H         E  E  E  E    
-----------------------|---------------------|-------------------------|
-----------------------|---------------------|-------------------------|
-----------------------|---------------------|-------------------------|
-----------------------|---------------------|-------------------------|
-----------------------|---------------------|-------------------------|
-------------------2~--|--L------------------|---------------6--5--4~--|
--1~------------L------|---------------1--2--|--3~--------L------------|


  H.           E  E     H.            E  E      H.           E  E   
---------------------|-----------------------|---------------------|
---------------------|-----------------------|---------------------|
---------------------|-----------------------|---------------------|
---------------------|-----------------------|---------------------|
---------------------|-----------------------|---------------------|
--L------------------|-------------------2~--|--L------------------|
---------------3--4--|--1~------------L------|---------------1--2--|


  H         E  E  E  E     E  E  E  E  E  E         H          Q.      E    
------------------------|--------------------|-----------------------------|
------------------------|--------------------|------------------------16~--|
------------------------|--------------------|----------------13-----------|
------------------------|--------------------|--13g15~---------------------|
------------------------|--------------------|-----------------------------|
---------------6--5--4--|-----4-----4-----4--|-----------------------------|
--3~--------L-----------|--------------------|-----------------------------|


  E   E   Q      E   E   E   E    
---------15b----15--13------13~--|
--L--13-----------------16-------|
---------------------------------|
---------------------------------|
---------------------------------|
---------------------------------|
---------------------------------|


      |--3--|  |--3-|         |--3--|  |--3--|  |--3--|  
  E   S  S  S  E    Q     E   S  S  S  S  S  S  S  S  S  
--L--13-------16b--16~----L--13-15-13-------16-13-------|
--------16-13-------------------------16-13-------16-13-|
--------------------------------------------------------|
--------------------------------------------------------|
--------------------------------------------------------|
--------------------------------------------------------|
--------------------------------------------------------|


   |--3--|  |--3--|  |--3--|  |--3--|  |--3--|            
   S  S  S  S  S  S  S  S  S  S  S  S  S  S  S  E   Q     
--18-13-------16-13-------15-13--------------------------|
--------16-13-------16-13-------16-13--------------------|
--------------------------------------15-13--------------|
--------------------------------------------15-15~--L----|
---------------------------------------------------------|
---------------------------------------------------------|
---------------------------------------------------------|


   |--3--|  |--3--|  |--3--|  |--3--|  |--3--|  |--3--|  |--3--|  |--3--|  
   S  S  S  S  S  S  S  S  S  S  S  S  S  S  S  S  S  S  S  S  S  S  S  S  
--------------------------------------------------------------------------|
--------------------------------------------------------------------------|
--------------------------------------15-14-13----------------------------|
-----------------------------15-14-13----------15-14-13----------13-12-11-|
-----------13-12-11-15-14-13----------------------------15-14-13----------|
--13-12-11----------------------------------------------------------------|
--------------------------------------------------------------------------|


   |--3--|  |--3--|  |--3--|  |--3--|  |--3--|  |--3--|  |--3--|  |--3--|  
   S  S  S  S  S  S  S  S  S  S  S  S  S  S  S  S  S  S  S  S  S  S  S  S  
--------------------13-12-11----------------------------13-12-11-19-18-16-|
-----------13-12-11----------15-14-13----------13-12-11-------------------|
--15-14-13----------------------------15-14-13----------------------------|
--------------------------------------------------------------------------|
--------------------------------------------------------------------------|
--------------------------------------------------------------------------|
--------------------------------------------------------------------------|


   |--3--|  |--3--|  |--3--|  |--3--|  |--3--|  |--3--|  |--3--|  |--3--|  
   S  S  S  S  S  S  S  S  S  S  S  S  S  S  S  S  S  S  S  S  S  S  S  S  
--19-18-16-19-18-16-19-18-16-19-18-16-19-18-16-19-18-16-16-15-13-13-------|
--------------------------------------------------------------------16-13-|
--------------------------------------------------------------------------|
--------------------------------------------------------------------------|
--------------------------------------------------------------------------|
--------------------------------------------------------------------------|
--------------------------------------------------------------------------|


   |--3--|  |--3--|  |--3--|  |--3--|  |--3--|  |--3--|  |--3--|  |--3--|  
   S  S  S  S  S  S  S  S  S  S  S  S  S  S  S  S  S  S  S  S  S  S  S  S  
--16-15-13-13-------16-15-13-13-------16-15-13-13-------------------------|
--------------16-13-------------16-13-------------16-13-16-15-13----------|
-----------------------------------------------------------------15-13----|
-----------------------------------------------------------------------15-|
--------------------------------------------------------------------------|
--------------------------------------------------------------------------|
--------------------------------------------------------------------------|


             |---3---|   |---3---|                                 |---3---|   
   H         E   E   E   E   E   E       E.   S  S  S  S  E   E.   E   E   E   
--------------------------------------|------------13-16-18--21b---L--20--19--|
--------------------------------------|------13-16----------------------------|
--13~--------L--------------17--17b~--|--L------------------------------------|
--------------------13--15------------|---------------------------------------|
----------------15--------------------|---------------------------------------|
--------------------------------------|---------------------------------------|
--------------------------------------|---------------------------------------|


   |---3---|                                                     
   E   E   E   Q    S  T  T  T  T  T  T  T  T  T  T  T  T  T  T  
--18--16--18----------------------------------------------------|
--------------18----L-------------------------------13-13----13-|
----------------------------13-13----13-15-15-13-15-------15----|
----------------------13-15-------15----------------------------|
----------------------------------------------------------------|
----------------------------------------------------------------|
----------------------------------------------------------------|


   T  T  T  T  T  T  T  T  T  T  T  T  T  T  T  T  T  T  T  T  T  T  T  T  Q    
--------------------------------------------------------------------------------
--16-16-13-16-16-13-------13-13-------13-13-------13-16-13----------------------
--------------------15-15-------15-15-------13-15----------15-13----------------
-----------------------------------------------------------------15-13----------
-----------------------------------------------------------------------15-------
--------------------------------------------------------------------------------
--------------------------------------------------------------------------16~---


   |--3--|  |--3--|  |--3--|  |--3--|  |--3--|  |--3--|  |--3--|  |--3--|  
   S  S  S  S  S  S  S  S  S  S  S  S  S  S  S  S  S  S  S  S  S  S  S  S  
--------------------------------------------------------------------------|
--------------------------------------------------------------------------|
--------------------------------------------------------------------------|
--------------------------------------------------------13-------13-15----|
--------------------13-------13-15----13-15-16-13-15-16----15-16-------16-|
--13-15-16-13-15-16----15-16-------16-------------------------------------|
--------------------------------------------------------------------------|


   |--3--|  |--3--|  |--3--|  |--3--|  |--3--|  |--3--|  |--3--|  |--3--|  
   S  S  S  S  S  S  S  S  S  S  S  S  S  S  S  S  S  S  S  S  S  S  S  S  
--------------------------------------------------------------------------|
--------------------------------------------13-------13-14----13-14-16-13-|
--------12-------12-13----12-13-15-12-13-15----13-15-------15-------------|
--13-15----13-15-------15-------------------------------------------------|
--------------------------------------------------------------------------|
--------------------------------------------------------------------------|
--------------------------------------------------------------------------|


   |--3--|  |--3--|  |--3--|  |--3--|  |--3--|  |--3--|  |--3--|  |--3--|  
   S  S  S  S  S  S  S  S  S  S  S  S  S  S  S  S  S  S  S  S  S  S  S  S  
--------13-------13-15----13-15-16-13-18-15----15-18-15----15-18-15----15-|
--14-16----14-16-------16-------------------18----------18----------18----|
--------------------------------------------------------------------------|
--------------------------------------------------------------------------|
--------------------------------------------------------------------------|
--------------------------------------------------------------------------|
--------------------------------------------------------------------------|


   |--3--|  |--3--|  |--3--|  |--3--|  |--3--|  |--3--|  |--3--|  |--3--|  
   S  S  S  S  S  S  S  S  S  S  S  S  S  S  S  S  S  S  S  S  S  S  S  S  
--18-15----15-18-15----15-18-15----15-19-15----15-19-15----15-19-15----15-|
--------18----------18----------18----------18----------18----------18----|
--------------------------------------------------------------------------|
--------------------------------------------------------------------------|
--------------------------------------------------------------------------|
--------------------------------------------------------------------------|
--------------------------------------------------------------------------|


   |--3--|  |--3--|  |--3--|  |--3--|  |--3--|  |--3--|  |--3--|  |--3--|  
   S  S  S  S  S  S  S  S  S  S  S  S  S  S  S  S  S  S  S  S  S  S  S  S  
--20-15----15-20-15----15-20-15----15-20-15----15-20-15----15-20-15----15-|
--------18----------18----------18----------18----------18----------18----|
--------------------------------------------------------------------------|
--------------------------------------------------------------------------|
--------------------------------------------------------------------------|
--------------------------------------------------------------------------|
--------------------------------------------------------------------------|


   |--3--|  |--3--|  |--3--|  |--3--|  |--3--|  |--3--|  |--3--|  |--3--|  
   S  S  S  S  S  S  S  S  S  S  S  S  S  S  S  S  S  S  S  S  S  S  S  S  
--18-15-14-15-18-15-14-15-18-15-14-15-18-15-14-15-18-15-14-15-18-15-14-15-|
--------------------------------------------------------------------------|
--------------------------------------------------------------------------|
--------------------------------------------------------------------------|
--------------------------------------------------------------------------|
--------------------------------------------------------------------------|
--------------------------------------------------------------------------|


   |--3--|  |--3--|  |--3--|  |--3--|  |--3--|  |--3--|  |--3--|  |--3--|  
   S  S  S  S  S  S  S  S  S  S  S  S  S  S  S  S  S  S  S  S  S  S  S  S  
-----------14-13-12----------14-13-12----------14-13-12----------14-13-12-|
--16-13-16----------16-13-16----------16-13-16----------16-13-16----------|
--------------------------------------------------------------------------|
--------------------------------------------------------------------------|
--------------------------------------------------------------------------|
--------------------------------------------------------------------------|
--------------------------------------------------------------------------|


   |--3--|  |--3--|  |--3--|  |--3--|  |--3--|  |--3--|  |--3--|  |--3--|  
   S  S  S  S  S  S  S  S  S  S  S  S  S  S  S  S  S  S  S  S  S  S  S  S  
-----------14-13-12----------14-13-12----------14-13-12----------14-13-12-|
--16-13-16----------16-13-16----------16-13-16----------16-13-16----------|
--------------------------------------------------------------------------|
--------------------------------------------------------------------------|
--------------------------------------------------------------------------|
--------------------------------------------------------------------------|
--------------------------------------------------------------------------|


   H          E     S  S  S  S  S  S  
-------------------------------------|
-------------------------------------|
-------------------------------------|
-------------13br--15----15----------|
--15~--------15-------18----18-15----|
----------------------------------18-|
-------------------------------------|


                   |--3--|  |--3--|  |--3--|        
   E    S  S  E    S  S  S  S  S  S  S  S  S  Q     
---------------------------------------------------|
---------------------------18-16-------------------|
-------17----15b--17-15----------17-15-------------|
--15b-----17------------17-------------18-17-17----|
---------------------------------------------------|
---------------------------------------------------|
---------------------------------------------------|


   |--3--|  |--3--|  |--3--|  |--3--|  |--3--|  |--3--|  |--3--|  |--3--|  
   S  S  S  S  S  S  S  S  S  S  S  S  S  S  S  S  S  S  S  S  S  S  S  S  
--------------------------------------------------------15-13----------13-|
--16-15-13----13-15-16-15-13-18-16-15----15-16-18-16-15-------16-15-16----|
-----------15-------------------------17----------------------------------|
--------------------------------------------------------------------------|
--------------------------------------------------------------------------|
--------------------------------------------------------------------------|
--------------------------------------------------------------------------|


   |--3--|  |--3--|  |--3--|  |--3--|  |--3--|  |--3--|  |--3--|  |--3--|  
   S  S  S  S  S  S  S  S  S  S  S  S  S  S  S  S  S  S  S  S  S  S  S  S  
--15-13----16-15-13----13-15-16-15-13-18-16-15----15-16-18-16-15----16-18-|
--------16----------16-------------------------18----------------18-------|
--------------------------------------------------------------------------|
--------------------------------------------------------------------------|
--------------------------------------------------------------------------|
--------------------------------------------------------------------------|
--------------------------------------------------------------------------|


   H.            E     H.           E     H.           E     H.           E   
--20~------------L--|------------------|------------------|------------------|
--------------------|--1------------L--|--1------------L--|--1------------L--|
--------------------|--0------------L--|--0------------L--|--0------------L--|
--------------------|------------------|------------------|------------------|
--------------------|------------------|------------------|------------------|
--------------------|------------------|------------------|------------------|
--------------------|------------------|------------------|------------------|


  H.           E     H.           E     H.           E   
------------------|------------------|------------------|
--1------------L--|--1------------L--|--1------------L--|
--0------------L--|--0------------L--|--0------------L--|
------------------|------------------|------------------|
------------------|------------------|------------------|
------------------|------------------|------------------|
------------------|------------------|------------------|


  E  E  E  E  E  E  E      H        E  E  E     H        E  E  E   
-----------------------||--------------------|--------------------|
-----------------------||--------------------|--------------------|
--6-----6-----6-----6--||--------------------|--------------------|
--6-----6-----6-----6--||--------------------|--------------------|
--4-----4-----4-----4--||--------------------|--------------------|
-----------------------||--3--------L--------|--6--------L--3-----|
-----------------------||--1--------L--1--3--|--4--------L-----4--|


  H        E  E  E     Q    E  E  E  Q     E  E       H        E  E  E   
--------------------|-----------------------------||--------------------|
--------------------|-----------------------------||--------------------|
--------------------|-----------------------------||--------------------|
--------------------|-----------------------------||--------------------|
--------------------|-----------------------------||--------------------|
--5--------L--3-----|--4----L--6--5--4~----1--3---||--5--------L--3-----|
--3--------L-----3--|--2----2---------------------||--3--------L-----3--|


  E  E  E  E  E  E  E  E  E      H        E  E  E  E     H        E  E  E  E   
-----------------------------||-----------------------|-----------------------|
-----------------------------||-----------------------|-----------------------|
-----------------------------||-----------------------|-----------------------|
-----------------------------||-----------------------|-----------------------|
-----------------------------||-----------------------|-----------------------|
--------------4-----4-----4--||--3--------L--------6--|--L--------L--3-----5--|
--2-----2--------------------||--1--------L--1--3--4--|--L--------L-----4--3--|


  H        E  E  E  E     Q    E  E  Q     E  E       H        E  E  E  E   
-----------------------|--------------------------||-----------------------|
-----------------------|--------------------------||-----------------------|
-----------------------|--------------------------||-----------------------|
-----------------------|--------------------------||-----------------------|
-----------------------|--------------------------||-----------------------|
--L--------L--3-----4--|--L----6--5--4~----1--3---||--L--------L--3-----5--|
--L--------L-----3--2--|--L-----------------------||-----------------4--3--|


  H        E  E  E  E     E  E  E  E  E  E     E  E  E  E  E  E  E  E    
-----------------------|--------------------|---------------------------|
-----------------------|--------------------|---------------------------|
-----------------------|--------------------|---------------------------|
-----------------------|--------------------|---------------------------|
-----------------------|--------------------|--------------3-----3------|
--L--------L--3--------|-----------4-----4--|--3--3--3--3-----------2~--|
--L--------L-----3--2--|-----2--------------|--1--1--1--1-----1---------|


  Q    E  Q     E  Q        E  E  E  E  E  E  E  E      Q    E  Q     E  Q      
-------------------------|---------------------------|-------------------------|
-------------------------|---------------------------|-------------------------|
-------------------------|---------------------------|-------------------------|
-------------------------|---------------------------|-------------------------|
-------3--------3--------|--------------3-----3------|-------3--------3--------|
--L-------1~-------------|--3--3--3--3-----------2~--|--L-------1~-------------|
-------------------4~----|--1--1--1--1-----1---------|-------------------4~----|


  E  E  E  E  E  E  E  E      Q    E  Q     E  Q      
---------------------------|-------------------------|
---------------------------|-------------------------|
---------------------------|-------------------------|
---------------------------|-------------------------|
--------------3-----3------|-------3--------3--------|
--3--3--3--3-----------2~--|--L-------1~-------------|
--1--1--1--1-----1---------|-------------------4~----|


  E  E  E  E  E  E  E  E      Q    E  Q     E  Q      
---------------------------|-------------------------|
---------------------------|-------------------------|
---------------------------|-------------------------|
---------------------------|-------------------------|
--------------3-----3------|-------3--------3--------|
--3--3--3--3-----------2~--|--L-------1~-------------|
--1--1--1--1-----1---------|-------------------4~----|


  E  E  E  E  E  E  E  E      Q    E  Q     E  Q      
---------------------------|-------------------------|
---------------------------|-------------------------|
---------------------------|-------------------------|
---------------------------|-------------------------|
--------------3-----3------|-------3--------3--------|
--3--3--3--3-----------2~--|--L-------1~-------------|
--1--1--1--1-----1---------|-------------------4~----|


  E  E  E  E  E  E  E  E      Q    E  Q     E  Q      
---------------------------|-------------------------|
---------------------------|-------------------------|
---------------------------|-------------------------|
---------------------------|-------------------------|
--------------3-----3------|-------3--------3--------|
--3--3--3--3-----------2~--|--L-------1~-------------|
--1--1--1--1-----1---------|-------------------4~----|


  E  E  E  E  E  E  E  E      Q    E  Q     E  Q      
---------------------------|-------------------------|
---------------------------|-------------------------|
---------------------------|-------------------------|
---------------------------|-------------------------|
--------------3-----3------|-------3--------3--------|
--3--3--3--3-----------2~--|--L-------1~-------------|
--1--1--1--1-----1---------|-------------------4~----|


  E  E  E  E  E  E  E  E      Q    E  Q     E  Q        W                 
---------------------------|-------------------------|-------------------|
---------------------------|-------------------------|-------------------|
---------------------------|-------------------------|-------------------|
---------------------------|-------------------------|--5----------------|
--------------3-----3------|-------3--------3--------|--3----------------|
--3--3--3--3-----------2~--|--L-------1~-------------|--3----------------|
--1--1--1--1-----1---------|-------------------4~----|-------------------|


  W                   W                  
-------------------|-------------------||
-------------------|-------------------||
-------------------|-------------------||
--L----------------|--L----------------||
--L----------------|--L----------------||
--L----------------|--L----------------||
-------------------|-------------------||

****************************************************
****************************************************
****************************************************

Guitar 2

 W                   W                   W                 
E||-------------------|-------------------|-------------------|
B||-------------------|-------------------|-------------------|
G||-------------------|-------------------|-------------------|
D||-------------------|-------------------|-------------------|
A||-------------------|-------------------|-------------------|
E||-------------------|-------------------|-------------------|
B||-------------------|-------------------|-------------------|


  W                    W                   W                 
-------------------||-------------------|-------------------|
-------------------||-------------------|-------------------|
-------------------||-------------------|-------------------|
-------------------||-------------------|-------------------|
-------------------||-------------------|-------------------|
-------------------||-------------------|-------------------|
-------------------||-------------------|-------------------|


  W                   W                     H        Q.     E   
-------------------|--------------------||---------------------|
-------------------|--------------------||---------------------|
-------------------|--------------------||-----------5------5--|
-------------------|--------------------||-----------5------4--|
-------------------|--------------------||---------------------|
-------------------|--------------------||---------------------|
-------------------|--------------------||---------------------|


  W                   H        Q.     E     W                 
-------------------|---------------------|-------------------|
-------------------|---------------------|-------------------|
--L----------------|-----------5------5--|--L----------------|
--L----------------|-----------5------4--|--L----------------|
-------------------|---------------------|-------------------|
-------------------|---------------------|-------------------|
-------------------|---------------------|-------------------|


  H        Q.     E     W                   H        Q.     E   
---------------------|-------------------|---------------------|
---------------------|-------------------|---------------------|
-----------5------5--|--L----------------|-----------5------5--|
-----------5------4--|--L----------------|-----------5------4--|
---------------------|-------------------|---------------------|
---------------------|-------------------|---------------------|
---------------------|-------------------|---------------------|


  W                   Q.     E  E  E  E  E     W                 
-------------------|------------------------|-------------------|
-------------------|------------------------|-------------------|
--L----------------|------------------------|-------------------|
--L----------------|------------------------|-------------------|
-------------------|------------3-----3-----|-------------------|
-------------------|--3------3-----3-----2--|--L----------------|
-------------------|--1------1-----1--------|-------------------|


  Q.     E  E  E  E  E     W                   Q.     E  E  E  E  E   
------------------------|-------------------|------------------------|
------------------------|-------------------|------------------------|
------------------------|-------------------|------------------------|
------------------------|-------------------|------------------------|
------------3-----3-----|-------------------|------------3-----3-----|
--3------3-----3-----2--|--L----------------|--3------3-----3-----2--|
--1------1-----1--------|-------------------|--1------1-----1--------|


  W                   Q.     E  E  E  E  E     W                 
-------------------|------------------------|-------------------|
-------------------|------------------------|-------------------|
-------------------|------------------------|-------------------|
-------------------|------------------------|-------------------|
-------------------|------------3-----3-----|-------------------|
--L----------------|--3------3-----3-----2--|--L----------------|
-------------------|--1------1-----1--------|-------------------|


   E  E  E  E  E  E  E  E      Q    E  Q     E  Q      
|---------------------------|-------------------------|
|---------------------------|-------------------------|
|---------------------------|-------------------------|
|---------------------------|-------------------------|
|--------------3-----3------|-------3--------3--------|
|--3--3--3--3-----------2~--|--L-------1~-------------|
|--1--1--1--1-----1---------|-------------------4~----|


  E  E  E  E  E  E  E  E      Q    E  Q     E  Q         Q    E  Q     E  Q     
---------------------------|-------------------------||------------------------|
---------------------------|-------------------------||------------------------|
---------------------------|-------------------------||------------------------|
---------------------------|-------------------------||------------------------|
--------------3-----3------|-------3-----------------||-------3----------------|
--3--3--3--3-----------2~--|--L-------1~----3--------||----------1~----3-------|
--1--1--1--1-----1---------|----------------1--4-----||----------------1--4----|


  E  E  E  E  S S S S S S E     E  E  E  E  S S S S S S E   
-----------------------------|-----------------------------|
-----------------------------|-----------------------------|
-----------------------------|-----------------------------|
-----------------------------|-----------------------------|
--------------4-3-1-4-3-1-4--|--3-----------4-3-1-4-3-1-3--|
-----------------------------|-----------------------------|
--1--1--1--1-----------------|-----1--1--1-----------------|


  E  E  E  E  S S S S S S E     E  E  E  E  S S E  S S E   
-----------------------------|----------------------------|
-----------------------------|----------------------------|
-----------------------------|----------------------------|
-----------------------------|----------------------------|
--------------4-3-1-4-3-1-4--|--3-------------------------|
-----------------------------|----------------------------|
--1--1--1--1-----------------|-----1--1--1--4-4-4--2-2-2--|


  E  E  E  E  S S S S S S E     E  E  E  E  S S S S S S E   
-----------------------------|-----------------------------|
-----------------------------|-----------------------------|
-----------------------------|-----------------------------|
-----------------------------|-----------------------------|
--------------4-3-1-4-3-1-4--|--3-----------4-3-1-4-3-1-3--|
-----------------------------|-----------------------------|
--1--1--1--1-----------------|-----1--1--1-----------------|


  E  E  E  E  S S S S S S E     E  E  E  E  S S E  S S E   
-----------------------------|----------------------------|
-----------------------------|----------------------------|
-----------------------------|----------------------------|
-----------------------------|----------------------------|
--------------4-3-1-4-3-1-4--|--3-------------------------|
-----------------------------|----------------------------|
--1--1--1--1-----------------|-----1--1--1--4-4-4--2-2-2--|


   E  E  E  E  S S S S S S E     E  E  E  E  S S S S S S E   
|-----------------------------|-----------------------------|
|-----------------------------|-----------------------------|
|-----------------------------|-----------------------------|
|-----------------------------|-----------------------------|
|--------------4-3-1-4-3-1-4--|--3-----------4-3-1-4-3-1-3--|
|-----------------------------|-----------------------------|
|--1--1--1--1-----------------|-----1--1--1-----------------|


  E  E  E  E  S S S S S S E     E  E  E  E  S S E  S S E     
-----------------------------|-----------------------------||
-----------------------------|-----------------------------||
-----------------------------|-----------------------------||
-----------------------------|-----------------------------||
--------------4-3-1-4-3-1-4--|--3--------------------------||
-----------------------------|-----------------------------||
--1--1--1--1-----------------|-----1--1--1--4-4-4--2-2-2---||


  E  E  E  E  S S E  S S E      E  E  E  E  S S S S S S E   
----------------------------||-----------------------------|
----------------------------||-----------------------------|
----------------------------||-----------------------------|
----------------------------||-----------------------------|
--3-------------------------||--------------4-3-1-4-3-1-4--|
----------------------------||-----------------------------|
-----1--1--1--4-4-4--2-2-2--||--1--1--1--1-----------------|


  E  E  E  E  S S S S S S E     E  E  E  E  S S S S S S E   
-----------------------------|-----------------------------|
-----------------------------|-----------------------------|
-----------------------------|-----------------------------|
-----------------------------|-----------------------------|
--3-----------4-3-1-4-3-1-3--|--------------4-3-1-4-3-1-4--|
-----------------------------|-----------------------------|
-----1--1--1-----------------|--1--1--1--1-----------------|


  E  E  E  E  S S E  S S E       E  E  E  E  S S E  S S E   
-----------------------------||----------------------------|
-----------------------------||----------------------------|
-----------------------------||----------------------------|
-----------------------------||----------------------------|
--3--------------------------||--3-------------------------|
-----------------------------||----------------------------|
-----1--1--1--4-4-4--2-2-2---||-----1--1--1--4-4-4--2-2-2--|


  Q    Q    Q    E  E     E  Q    Q    E  Q       Q    Q    Q    E  E   
-----------------------|-----------------------|-----------------------|
-----------------------|-----------------------|-----------------------|
-------0---------0-----|-----0---------0-------|-------0---------0-----|
-----------------------|-----------------------|-----------------------|
-----------------------|-----------------------|-----------------------|
--3--------------------|----------1-------4----|--3--------------------|
------------4-------3--|--L--------------------|------------4-------3--|


  E  E  Q    Q       Q    Q    Q    E  E     E  Q    Q    E  Q    Q     
------------------|-----------------------|----------------------------|
------------------|-----------------------|----------------------------|
-----0-------0----|-------0---------0-----|-----0---------0-------0----|
------------------|-----------------------|----------------------------|
------------------|-----------------------|----------------------------|
------------------|--3--------------------|----------1-------4---------|
--L--L--1---------|------------4-------3--|--L-------------------------|


  Q    Q    Q    E  E     E  E  Q    H           Q    Q    Q    E  E   
-----------------------|----------------------|-----------------------|
-----------------------|----------------------|-----------------------|
-------0---------0-----|-----0-------0--------|-------0---------0-----|
-----------------------|----------------------|-----------------------|
-----------------------|----------------------|-----------------------|
--3--------------------|----------------------|--3----L---------------|
------------4-------3--|--L-----1-------------|------------4----L--3--|


  E  Q    Q    E  Q       Q    Q    Q    E  E     E  E  Q    Q     
-----------------------|-----------------------|------------------|
-----------------------|-----------------------|------------------|
-----0---------0-------|-------0---------0-----|-----0-------0----|
-----------------------|-----------------------|------------------|
-----------------------|-----------------------|------------------|
----------1----L--4----|--3----L---------------|------------------|
--L--L-----------------|------------4----L--3--|--L--L--1----L----|


  Q    Q    Q    E  E     E  Q    Q    E  Q    Q       Q    Q    Q    E  E   
-----------------------|----------------------------|-----------------------|
-----------------------|----------------------------|-----------------------|
-------0---------0-----|-----0---------0-------0----|-------0---------0--L--|
-----------------------|----------------------------|-----------------------|
-----------------------|----------------------------|-----------------------|
--3----L---------------|----------1-------4----L----|--3----L---------------|
------------4----L--3--|--L--L----------------------|------------4----L--3--|


  E  E  E  E  Q       H.               H        E  E  E     H        E  E  E   
-------------------|---------------||--------------------|--------------------|
-------------------|---------------||--------------------|--------------------|
--L----------------|---------------||--------------------|--------------------|
-------------------|---------------||--------------------|--------------------|
-------------------|---------------||--------------------|--------------------|
-----6--5--4--L----|--L------------||--3--------L--------|--6--------L--3-----|
--L--4--3--2--L----|--L------------||--1--------L--1--3--|--4--------L-----4--|


  H        E  E  E     Q    E  E  E  Q     E  E       H        E  E  E   
--------------------|-----------------------------||--------------------|
--------------------|-----------------------------||--------------------|
--------------------|-----------------------------||--------------------|
--------------------|-----------------------------||--------------------|
--------------------|-----------------------------||--------------------|
--5--------L--3-----|--4----L--6--5--4~----1--3---||--5--------L--3-----|
--3--------L-----3--|--2----2---------------------||--3--------L-----3--|


  E  E  E  E  E  E  E  E  E      E  E  E  E  Q.     E   
-----------------------------||------------------------|
-----------------------------||------------------------|
-----------------------------||-----------0--L---------|
-----------------------------||------------------------|
-----------------------------||--------3--L--L---------|
--------------4-----4-----4--||-----3--L--L--L---------|
--2-----2--------------------||--1--L--L--L--L------4--|


  E  E  E  E  Q.     E     E  E  E  E  Q.     E     Q    E  E  Q     E  E     
------------------------|------------------------|--------------------------||
------------------------|------------------------|--------------------------||
-----------0--L---------|-----------0--L---------|--------------------------||
------------------------|------------------------|--------------------------||
--------6--L--L---------|--------5--L--L---------|--------------------------||
-----6--L--L--L---------|-----5--L--L--L---------|-------6--5--4~----1--3---||
--4--L--L--L--L------3--|--3--L--L--L--L------2--|--2-----------------------||


  E  E  E  E  Q.     E     E  E  E  E  E  E     E  E  E  E  E  E  E  E    
------------------------|--------------------|---------------------------|
------------------------|--------------------|---------------------------|
-----------0--L---------|--------------------|---------------------------|
------------------------|--------------------|---------------------------|
--------5--L--L---------|--------------------|--------------3-----3------|
-----5--L--L--L---------|-----------4-----4--|--3--3--3--3-----------2~--|
--3--L--L--L--L------2--|-----2--------------|--1--1--1--1-----1---------|


  Q    E  Q     E  Q        E  E  E  E  E  E  E  E      Q    E  Q     E  Q      
-------------------------|---------------------------|-------------------------|
-------------------------|---------------------------|-------------------------|
-------------------------|---------------------------|-------------------------|
-------------------------|---------------------------|-------------------------|
-------3--------3--------|--------------3-----3------|-------3--------3--------|
--L-------1~-------------|--3--3--3--3-----------2~--|--L-------1~-------------|
-------------------4~----|--1--1--1--1-----1---------|-------------------4~----|


  E  E  E  E  E  E  E  E      Q    E  Q     E  Q      
---------------------------|-------------------------|
---------------------------|-------------------------|
---------------------------|-------------------------|
---------------------------|-------------------------|
--------------3-----3------|-------3--------3--------|
--3--3--3--3-----------2~--|--L-------1~-------------|
--1--1--1--1-----1---------|-------------------4~----|


  E  E  E  E  E  E  E  E      Q    E  Q     E  Q      
---------------------------|-------------------------|
---------------------------|-------------------------|
---------------------------|-------------------------|
---------------------------|-------------------------|
--------------3-----3------|-------3--------3--------|
--3--3--3--3-----------2~--|--L-------1~-------------|
--1--1--1--1-----1---------|-------------------4~----|


  E  E  E  E  S S S S S S E     E  E  E  E  S S S S S S E   
-----------------------------|-----------------------------|
-----------------------------|-----------------------------|
-----------------------------|-----------------------------|
-----------------------------|-----------------------------|
--------------4-3-1-4-3-1-4--|--3-----------4-3-1-4-3-1-3--|
-----------------------------|-----------------------------|
--1--1--1--1-----------------|-----1--1--1-----------------|


  E  E  E  E  S S S S S S E     E  E  E  E  S S E  S S E   
-----------------------------|----------------------------|
-----------------------------|----------------------------|
-----------------------------|----------------------------|
-----------------------------|----------------------------|
--------------4-3-1-4-3-1-4--|--3-------------------------|
-----------------------------|----------------------------|
--1--1--1--1-----------------|-----1--1--1--4-4-4--2-2-2--|


  E  E  E  E  S S S S S S E     E  E  E  E  S S S S S S  
-----------------------------|--------------------------|
-----------------------------|--------------------------|
-----------------------------|--------------------------|
-----------------------------|--------------------------|
--------------4-3-1-4-3-1-4--|--3-----------4-3-1-4-3-1-|
-----------------------------|--------------------------|
--1--1--1--1-----------------|-----1--1--1--------------|


  E  E  E  E  S S S S S S E     E  E  E  E  S S E  S S E   
-----------------------------|----------------------------|
-----------------------------|----------------------------|
-----------------------------|----------------------------|
-----------------------------|----------------------------|
--3-----------4-3-1-4-3-1-4--|--3-------------------------|
-----------------------------|---------------------3-3-3--|
-----1--1--1-----------------|-----1--1--1--4-4-4---------|


  E  E  E  E  S S S S S S E     E  E  E  E  S S S S S S E   
-----------------------------|-----------------------------|
-----------------------------|-----------------------------|
-----------------------------|-----------------------------|
-----------------------------|-----------------------------|
--------------4-3-1-4-3-1-4--|--3-----------4-3-1-4-3-1-3--|
-----------------------------|-----------------------------|
--1--1--1--1-----------------|-----1--1--1-----------------|


  E  E  E  E  S S S S S S E     E  E  E  E  S S E  S S E   
-----------------------------|----------------------------|
-----------------------------|----------------------------|
-----------------------------|----------------------------|
-----------------------------|----------------------------|
--------------4-3-1-4-3-1-4--|--3-------------------------|
-----------------------------|----------------------------|
--1--1--1--1-----------------|-----1--1--1--4-4-4--2-2-2--|


  E  E  E  E  S S S S S S E     E  E  E  E  S S S S S S  
-----------------------------|--------------------------|
-----------------------------|--------------------------|
-----------------------------|--------------------------|
-----------------------------|--------------------------|
--------------4-3-1-4-3-1-4--|--3-----------4-3-1-4-3-1-|
-----------------------------|--------------------------|
--1--1--1--1-----------------|-----1--1--1--------------|


  E  E  E  E  S S S S S S E     E  E  E  E  S S E  S S E   
-----------------------------|----------------------------|
-----------------------------|----------------------------|
-----------------------------|----------------------------|
-----------------------------|----------------------------|
--3-----------4-3-1-4-3-1-4--|--3-------------------------|
-----------------------------|---------------------3-3-3--|
-----1--1--1-----------------|-----1--1--1--4-4-4---------|


  Q    Q    Q    E  E     E  Q    Q    E  Q       Q    Q    Q    E  E   
-----------------------|-----------------------|-----------------------|
-----------------------|-----------------------|-----------------------|
-------0---------0-----|-----0---------0-------|-------0---------0-----|
-----------------------|-----------------------|-----------------------|
-----------------------|-----------------------|-----------------------|
--3--------------------|----------1-------4----|--3--------------------|
------------4-------3--|--L--------------------|------------4-------3--|


  E  E  Q    Q       Q    Q    Q    E  E     E  Q    Q    E  Q    Q     
------------------|-----------------------|----------------------------|
------------------|-----------------------|----------------------------|
-----0-------0----|-------0---------0-----|-----0---------0-------0----|
------------------|-----------------------|----------------------------|
------------------|-----------------------|----------------------------|
------------------|--3--------------------|----------1-------4---------|
--L--L--1---------|------------4-------3--|--L-------------------------|


  Q    Q    Q    E  E     E  E  Q    H           Q    Q    Q    E  E   
-----------------------|----------------------|-----------------------|
-----------------------|----------------------|-----------------------|
-------0---------0-----|-----0-------0--------|-------0---------0-----|
-----------------------|----------------------|-----------------------|
-----------------------|----------------------|-----------------------|
--3--------------------|----------------------|--3----L---------------|
------------4-------3--|--L-----1-------------|------------4----L--3--|


  E  Q    Q    E  Q       Q    Q    Q    E  E     E  E  Q    Q     
-----------------------|-----------------------|------------------|
-----------------------|-----------------------|------------------|
-----0---------0-------|-------0---------0-----|-----0-------0----|
-----------------------|-----------------------|------------------|
-----------------------|-----------------------|------------------|
----------1----L--4----|--3----L---------------|------------------|
--L--L-----------------|------------4----L--3--|--L--L--1----L----|


  Q    Q    Q    E  E     E  Q    Q    E  Q    Q       Q    Q    Q    E  E   
-----------------------|----------------------------|-----------------------|
-----------------------|----------------------------|-----------------------|
-------0---------0-----|-----0---------0-------0----|-------0---------0--L--|
-----------------------|----------------------------|-----------------------|
-----------------------|----------------------------|-----------------------|
--3----L---------------|----------1-------4----L----|--3----L---------------|
------------4----L--3--|--L--L----------------------|------------4----L--3--|


  E  E  E  E  Q       H.               H        E  E  E     H        E  E  E   
-------------------|---------------||--------------------|--------------------|
-------------------|---------------||--------------------|--------------------|
--L----------------|---------------||--------------------|--------------------|
-------------------|---------------||--------------------|--------------------|
-------------------|---------------||--------------------|--------------------|
-----6--5--4--L----|--L------------||--3--------L--------|--6--------L--3-----|
--L--4--3--2--L----|--L------------||--1--------L--1--3--|--4--------L-----4--|


  H        E  E  E     Q    E  E  E  Q     E  E       H        E  E  E   
--------------------|-----------------------------||--------------------|
--------------------|-----------------------------||--------------------|
--------------------|-----------------------------||--------------------|
--------------------|-----------------------------||--------------------|
--------------------|-----------------------------||--------------------|
--5--------L--3-----|--4----L--6--5--4~----1--3---||--5--------L--3-----|
--3--------L-----3--|--2----2---------------------||--3--------L-----3--|


  E  E  E  E  E  E  E  E  E      E  E  E  E  Q.     E   
-----------------------------||------------------------|
-----------------------------||------------------------|
-----------------------------||-----------0--L---------|
-----------------------------||------------------------|
-----------------------------||--------3--L--L---------|
--------------4-----4-----4--||-----3--L--L--L---------|
--2-----2--------------------||--1--L--L--L--L------4--|


  E  E  E  E  Q.     E     E  E  E  E  Q.     E     Q    E  E  Q     E  E     
------------------------|------------------------|--------------------------||
------------------------|------------------------|--------------------------||
-----------0--L---------|-----------0--L---------|--------------------------||
------------------------|------------------------|--------------------------||
--------6--L--L---------|--------5--L--L---------|--------------------------||
-----6--L--L--L---------|-----5--L--L--L---------|-------6--5--4~----1--3---||
--4--L--L--L--L------3--|--3--L--L--L--L------2--|--2-----------------------||


  E  E  E  E  Q.     E     E  E  E  E  E  E     H.            E  E    
------------------------|--------------------|-----------------------|
------------------------|--------------------|-----------------------|
-----------0--L---------|--------------------|-----------------------|
------------------------|--------------------|-----------------------|
--------5--L--L---------|--------------------|-----------------------|
-----5--L--L--L---------|-----------4-----4--|-------------------2~--|
--3--L--L--L--L------2--|-----2--------------|--1~------------L------|


  H.           E  E     H         E  E  E  E      H.           E  E   
---------------------|-------------------------|---------------------|
---------------------|-------------------------|---------------------|
---------------------|-------------------------|---------------------|
---------------------|-------------------------|---------------------|
---------------------|-------------------------|---------------------|
--L------------------|---------------6--5--4~--|--L------------------|
---------------1--2--|--3~--------L------------|---------------3--4--|


  H.            E  E      H.           E  E     H         E  E  E  E    
-----------------------|---------------------|-------------------------|
-----------------------|---------------------|-------------------------|
-----------------------|---------------------|-------------------------|
-----------------------|---------------------|-------------------------|
-----------------------|---------------------|-------------------------|
-------------------2~--|--L------------------|---------------6--5--4~--|
--1~------------L------|---------------1--2--|--3~--------L------------|


  Q    E  Q    Q.        H.            E  E      H.           E  E   
----------------------|-----------------------|---------------------|
----------------------|-----------------------|---------------------|
----------------------|-----------------------|---------------------|
----------------------|-----------------------|---------------------|
---------------6------|-----------------------|---------------------|
--L----L--7-----------|-------------------2~--|--L------------------|
----------------------|--1~------------L------|---------------1--2--|


  H         E  E  E  E      H.           E  E     H.            E  E    
-------------------------|---------------------|-----------------------|
-------------------------|---------------------|-----------------------|
-------------------------|---------------------|-----------------------|
-------------------------|---------------------|-----------------------|
-------------------------|---------------------|-----------------------|
---------------6--5--4~--|--L------------------|-------------------2~--|
--3~--------L------------|---------------3--4--|--1~------------L------|


  H.           E  E     H         E  E  E  E     E  E  E  E  E  E   
---------------------|------------------------|--------------------|
---------------------|------------------------|--------------------|
---------------------|------------------------|--------------------|
---------------------|------------------------|--------------------|
---------------------|------------------------|--------------------|
--L------------------|---------------6--5--4--|-----4-----4-----4--|
---------------1--2--|--3~--------L-----------|--------------------|


  W                   W                   W                   W                 
-------------------|-------------------|-------------------|-------------------|
-------------------|-------------------|-------------------|-------------------|
-------------------|-------------------|-------------------|-------------------|
-------------------|-------------------|-------------------|-------------------|
-------------------|-------------------|-------------------|-------------------|
-------------------|-------------------|-------------------|-------------------|
-------------------|-------------------|-------------------|-------------------|


  W                   W                   W                   W                 
-------------------|-------------------|-------------------|-------------------|
-------------------|-------------------|-------------------|-------------------|
-------------------|-------------------|-------------------|-------------------|
-------------------|-------------------|-------------------|-------------------|
-------------------|-------------------|-------------------|-------------------|
-------------------|-------------------|-------------------|-------------------|
-------------------|-------------------|-------------------|-------------------|


  W                   W                   W                   W                 
-------------------|-------------------|-------------------|-------------------|
-------------------|-------------------|-------------------|-------------------|
-------------------|-------------------|-------------------|-------------------|
-------------------|-------------------|-------------------|-------------------|
-------------------|-------------------|-------------------|-------------------|
-------------------|-------------------|-------------------|-------------------|
-------------------|-------------------|-------------------|-------------------|


  W                   W                   W                   W                 
-------------------|-------------------|-------------------|-------------------|
-------------------|-------------------|-------------------|-------------------|
-------------------|-------------------|-------------------|-------------------|
-------------------|-------------------|-------------------|-------------------|
-------------------|-------------------|-------------------|-------------------|
-------------------|-------------------|-------------------|-------------------|
-------------------|-------------------|-------------------|-------------------|


  E  E  E  E  E  E  E  E      Q    E  Q     E  Q      
---------------------------|-------------------------|
---------------------------|-------------------------|
---------------------------|-------------------------|
---------------------------|-------------------------|
--------------3-----3------|-------3--------3--------|
--3--3--3--3-----------2~--|--L-------1~-------------|
--1--1--1--1-----1---------|-------------------4~----|


  E  E  E  E  E  E  E  E      Q    E  Q     E  Q     
---------------------------|------------------------|
---------------------------|------------------------|
---------------------------|------------------------|
---------------------------|------------------------|
--------------3-----3------|-------3----------------|
--3--3--3--3-----------2~--|--L-------1~----3-------|
--1--1--1--1-----1---------|----------------1--4----|


  E  E  E  E  E  E  E  E      Q    E  Q     E  Q      
---------------------------|-------------------------|
---------------------------|-------------------------|
---------------------------|-------------------------|
---------------------------|-------------------------|
--------------3-----3------|-------3--------3--------|
--3--3--3--3-----------2~--|--L-------1~-------------|
--1--1--1--1-----1---------|-------------------4~----|


  E  E  E  E  E  E  E  E      Q    E  Q     E  Q       H.           E   
---------------------------|------------------------|------------------|
---------------------------|------------------------|------------------|
---------------------------|------------------------|------------------|
---------------------------|------------------------|------------------|
--------------3-----3------|-------3----------------|--3------------L--|
--3--3--3--3-----------2~--|--L-------1~----3-------|--3------------L--|
--1--1--1--1-----1---------|----------------1--4----|--1------------L--|


  H.           E     H.           E     H.           E     H.           E   
------------------|------------------|------------------|------------------|
------------------|------------------|------------------|------------------|
------------------|------------------|------------------|------------------|
------------------|------------------|------------------|------------------|
--6------------L--|--5------------L--|--4------------L--|--3------------L--|
--6------------L--|--5------------L--|--4------------L--|--3------------L--|
--4------------L--|--3------------L--|--2------------L--|--1------------L--|


  H.           E     H.           E     E  E  E  E  E  E  E   
------------------|------------------|-----------------------|
------------------|------------------|-----------------------|
------------------|------------------|-----------------------|
------------------|------------------|-----------------------|
--6------------L--|--5------------L--|--4-----4-----4-----4--|
--6------------L--|--5------------L--|--4-----4-----4-----4--|
--4------------L--|--3------------L--|--2-----2-----2-----2--|


   H        E  E  E     H        E  E  E     H        E  E  E   
|--------------------|--------------------|--------------------|
|--------------------|--------------------|--------------------|
|--------------------|--------------------|--------------------|
|--------------------|--------------------|--------------------|
|--------------------|--------------------|--------------------|
|--3--------L--------|--6--------L--3-----|--5--------L--3-----|
|--1--------L--1--3--|--4--------L-----4--|--3--------L-----3--|


  Q    E  E  E  Q     E  E       H        E  E  E   
-----------------------------||--------------------|
-----------------------------||--------------------|
-----------------------------||--------------------|
-----------------------------||--------------------|
-----------------------------||--------------------|
--4----L--6--5--4~----1--3---||--5--------L--3-----|
--2----2---------------------||--3--------L-----3--|


  E  E  E  E  E  E  E  E  E      E  E  E  E  Q.     E   
-----------------------------||------------------------|
-----------------------------||------------------------|
-----------------------------||-----------0--L---------|
-----------------------------||------------------------|
-----------------------------||--------3--L--L---------|
--------------4-----4-----4--||-----3--L--L--L---------|
--2-----2--------------------||--1--L--L--L--L------4--|


  E  E  E  E  Q.     E     E  E  E  E  Q.     E     Q    E  E  Q     E  E     
------------------------|------------------------|--------------------------||
------------------------|------------------------|--------------------------||
-----------0--L---------|-----------0--L---------|--------------------------||
------------------------|------------------------|--------------------------||
--------6--L--L---------|--------5--L--L---------|--------------------------||
-----6--L--L--L---------|-----5--L--L--L---------|-------6--5--4~----1--3---||
--4--L--L--L--L------3--|--3--L--L--L--L------2--|--2-----------------------||


  E  E  E  E  Q.     E     E  E  E  E  Q.     E     E  E  E  E  E  E   
------------------------|------------------------|--------------------|
------------------------|------------------------|--------------------|
-----------0--L---------|-----------0--L---------|--------------------|
------------------------|------------------------|--------------------|
--------6--L--L---------|--------5--L--L---------|--------------------|
-----6--L--L--L---------|-----5--L--L--L---------|-----------4-----4--|
--4--L--L--L--L------3--|--3--L--L--L--L------2--|-----2--------------|


  E  E  E  E  E  E  E  E      Q    E  Q     E  Q      
---------------------------|-------------------------|
---------------------------|-------------------------|
---------------------------|-------------------------|
---------------------------|-------------------------|
--------------3-----3------|-------3--------3--------|
--3--3--3--3-----------2~--|--L-------1~-------------|
--1--1--1--1-----1---------|-------------------4~----|


  E  E  E  E  E  E  E  E      Q    E  Q     E  Q      
---------------------------|-------------------------|
---------------------------|-------------------------|
---------------------------|-------------------------|
---------------------------|-------------------------|
--------------3-----3------|-------3--------3--------|
--3--3--3--3-----------2~--|--L-------1~-------------|
--1--1--1--1-----1---------|-------------------4~----|


  E  E  E  E  E  E  E  E      Q    E  Q     E  Q      
---------------------------|-------------------------|
---------------------------|-------------------------|
---------------------------|-------------------------|
---------------------------|-------------------------|
--------------3-----3------|-------3--------3--------|
--3--3--3--3-----------2~--|--L-------1~-------------|
--1--1--1--1-----1---------|-------------------4~----|


  E  E  E  E  E  E  E  E      Q    E  Q     E  Q      
---------------------------|-------------------------|
---------------------------|-------------------------|
---------------------------|-------------------------|
---------------------------|-------------------------|
--------------3-----3------|-------3--------3--------|
--3--3--3--3-----------2~--|--L-------1~-------------|
--1--1--1--1-----1---------|-------------------4~----|


  E  E  E  E  E  E  E  E      Q    E  Q     E  Q      
---------------------------|-------------------------|
---------------------------|-------------------------|
---------------------------|-------------------------|
---------------------------|-------------------------|
--------------3-----3------|-------3--------3--------|
--3--3--3--3-----------2~--|--L-------1~-------------|
--1--1--1--1-----1---------|-------------------4~----|


  E  E  E  E  E  E  E  E      Q    E  Q     E  Q      
---------------------------|-------------------------|
---------------------------|-------------------------|
---------------------------|-------------------------|
---------------------------|-------------------------|
--------------3-----3------|-------3--------3--------|
--3--3--3--3-----------2~--|--L-------1~-------------|
--1--1--1--1-----1---------|-------------------4~----|


  E  E  E  E  E  E  E  E      Q    E  Q     E  Q      
---------------------------|-------------------------|
---------------------------|-------------------------|
---------------------------|-------------------------|
---------------------------|-------------------------|
--------------3-----3------|-------3--------3--------|
--3--3--3--3-----------2~--|--L-------1~-------------|
--1--1--1--1-----1---------|-------------------4~----|


  E  E  E  E  E  E  E  E      Q    E  Q     E  Q        W                 
---------------------------|-------------------------|-------------------|
---------------------------|-------------------------|-------------------|
---------------------------|-------------------------|-------------------|
---------------------------|-------------------------|-------------------|
--------------3-----3------|-------3--------3--------|--3----------------|
--3--3--3--3-----------2~--|--L-------1~-------------|--3----------------|
--1--1--1--1-----1---------|-------------------4~----|--1----------------|


  W                   W                  
-------------------|-------------------||
-------------------|-------------------||
-------------------|-------------------||
-------------------|-------------------||
--L----------------|--L----------------||
--L----------------|--L----------------||
--L----------------|--L----------------||

*****************************************************************************

2. THIS DYING SOUL

Guitar 1

E  Q     E  Q        W                   W                 
E||--------------------|-------------------|-------------------|
B||--------------------|-------------------|-------------------|
G||--------------------|-------------------|-------------------|
D||--------------------|-------------------|-------------------|
A||--------------------|--2----------------|--L----------------|
E||--4--------4--------|--2----------------|--L----------------|
B||-----3~-------2~----|--0----------------|--L----------------|


  W                   W                   W                   W                 
-------------------|-------------------|-------------------|-------------------|
-------------------|-------------------|-------------------|-------------------|
-------------------|-------------------|-------------------|-------------------|
-------------------|-------------------|-------------------|-------------------|
--L----------------|--L----------------|--L----------------|--L----------------|
--L----------------|--L----------------|--L----------------|--L----------------|
--L----------------|--L----------------|--L----------------|--L----------------|


                      Pickslide                                            
                                          PM PM PM PM PM PM PM PM PM       
  W                   W                   S  S  S  S  E  S  E  S  E  Q     
-------------------|-------------------|----------------------------------|
-------------------|-------------------|----------------------------------|
-------------------|-------------------|----------------------------------|
-------------------|-------------------|----------------------------------|
--L----------------|--L----------------|----------------------------------|
--L----------------|--L----------------|----------------------------------|
--L----------------|--L----------------|--0--0--0--0--0--0--0--0--0-------|


  PM PM PM PM PM PM PM PM PM         PM PM PM PM PM PM PM PM PM       
  S  S  S  S  E  S  E  S  E  Q       S  S  S  S  E  S  E  S  E  Q     
----------------------------------|----------------------------------|
----------------------------------|----------------------------------|
----------------------------------|----------------------------------|
----------------------------------|----------------------------------|
----------------------------------|----------------------------------|
----------------------------------|----------------------------------|
--0--0--0--0--0--0--0--0--0-------|--0--0--0--0--0--0--0--0--0-------|


  PM PM PM PM PM PM PM PM PM         PM PM PM PM PM PM PM PM PM       
  S  S  S  S  E  S  E  S  E  Q       S  S  S  S  E  S  E  S  E  Q     
----------------------------------|----------------------------------|
----------------------------------|----------------------------------|
-----------------------------5----|----------------------------------|
-----------------------------4----|----------------------------------|
-----------------------------3----|----------------------------------|
----------------------------------|----------------------------------|
--0--0--0--0--0--0--0--0--0-------|--0--0--0--0--0--0--0--0--0-------|


  PM PM PM PM PM PM PM PM PM         PM PM PM PM PM PM PM PM PM       
  S  S  S  S  E  S  E  S  E  Q       S  S  S  S  E  S  E  S  E  Q     
----------------------------------|----------------------------------|
----------------------------------|----------------------------------|
----------------------------------|----------------------------------|
----------------------------------|----------------------------------|
----------------------------------|----------------------------------|
----------------------------------|----------------------------------|
--0--0--0--0--0--0--0--0--0-------|--0--0--0--0--0--0--0--0--0-------|


  PM PM PM PM PM PM PM PM PM         PM PM PM PM PM PM PM PM PM       
  S  S  S  S  E  S  E  S  E  Q       S  S  S  S  E  S  E  S  E  Q     
----------------------------------|----------------------------------|
----------------------------------|----------------------------------|
-----------------------------5----|----------------------------------|
-----------------------------4----|----------------------------------|
-----------------------------3----|----------------------------------|
----------------------------------|----------------------------------|
--0--0--0--0--0--0--0--0--0-------|--0--0--0--0--0--0--0--0--0-------|


  PM PM PM PM PM PM PM PM PM         PM PM PM PM PM PM PM PM PM       
  S  S  S  S  E  S  E  S  E  Q       S  S  S  S  E  S  E  S  E  Q     
----------------------------------|----------------------------------|
----------------------------------|----------------------------------|
-----------------------------5----|----------------------------------|
-----------------------------4----|----------------------------------|
-----------------------------3----|----------------------------------|
----------------------------------|----------------------------------|
--0--0--0--0--0--0--0--0--0-------|--0--0--0--0--0--0--0--0--0-------|


  PM PM PM PM PM PM PM PM PM PM PM PM PM    PM PM PM PM PM PM PM PM PM       
  S  S  S  S  E  S  S  S  S  S  S  S  S     S  S  S  S  E  S  E  S  E  Q     
-----------------------------------------|----------------------------------|
-----------------------------------------|----------------------------------|
-----------------------------------------|----------------------------------|
-----------------------------------------|----------------------------------|
-----------------------------------------|----------------------------------|
-----------------------------------------|----------------------------------|
--0--0--0--0--0--0--0--3--2--0--3--2--0--|--0--0--0--0--0--0--0--0--0-------|


  PM PM PM PM PM PM PM PM PM         PM PM PM PM PM PM PM PM PM       
  S  S  S  S  E  S  E  S  E  Q       S  S  S  S  E  S  E  S  E  Q     
----------------------------------|----------------------------------|
----------------------------------|----------------------------------|
-----------------------------5----|----------------------------------|
-----------------------------4----|----------------------------------|
-----------------------------3----|----------------------------------|
----------------------------------|----------------------------------|
--0--0--0--0--0--0--0--0--0-------|--0--0--0--0--0--0--0--0--0-------|


  PM PM PM PM PM PM PM PM   PM   PM   PM PM PM                            
                       |----3----|    |--3--|                             
  S  S  S  S  E  S  S  Q    Q    Q    E  E  E      E    E   H.            
-----------------------------------------------|-------------------------|
-----------------------------------------------|--12b---L---L------------|
-----------------------------------------------|-------------------------|
-----------------------------------------------|-------------------------|
-----------------------------------------------|-------------------------|
-----------------------3----4----5----4--5--6--|-------------------------|
--0--0--0--0--0--0--0--1----2----3----2--3--4--|-------------------------|


                                           |----3----|      
   Q.     H         E     E   E   E   E    Q    Q    Q      
-----------------------|-----------------------------------|
--14------9~--------L--|--L--/9--10--12S--10----9----7S----|
-----------------------|-----------------------------------|
-----------------------|-----------------------------------|
-----------------------|-----------------------------------|
-----------------------|-----------------------------------|
-----------------------|-----------------------------------|


   W                  
---------------------|
--18~----------------|
---------------------|
---------------------|
---------------------|
---------------------|
---------------------|


                  T                       T     T                       T       
                     |--3--|              |--3--|              |--3--|          
  S.  T  T  T  T  T  S  S  S  T  T  T  T  S  S  S  T  T  T  T  S  S  S  T  T  T 
--------17-19-21-22-21-19-17----17-19-21-22-21-22-21-19-17----17-19-21-22-21-19-
-----21----------------------21----------------------------21-------------------
--------------------------------------------------------------------------------
--------------------------------------------------------------------------------
--------------------------------------------------------------------------------
--------------------------------------------------------------------------------
--------------------------------------------------------------------------------


               T     T                                                          
               |--3--|  |--3--|  |--3--|                                      |-
   T  T  T  T  S  S  S  S  S  S  S  S  S  T  T  T  T  T  T  T  T  T  T  T  T  S 
-----17-19-21-22-21-22-19-17-16-------16-17-19-17-16----------16-17-19-17-19-17-
--21----------------------------18-19----------------19-18-19-------------------
--------------------------------------------------------------------------------
--------------------------------------------------------------------------------
--------------------------------------------------------------------------------
--------------------------------------------------------------------------------
--------------------------------------------------------------------------------


                                                   |--6--|  |--6--|  |--6--|  |-
   T  T  T  T  T  T  T  T  T  T  T  T  T  T  T  T  S  S  S  S  S  S  S  S  S  S 
--------16-17-19-17-16-------14-16-17-19-17-19-17-16-14-13-------13-14-13-------
--18-19----------------19-18-------------------------------14-15----------15-14-
--------------------------------------------------------------------------------
--------------------------------------------------------------------------------
--------------------------------------------------------------------------------
--------------------------------------------------------------------------------
--------------------------------------------------------------------------------


   T     T                T             T     T          T     T          
   |--6--|  |--6-|  |-----7-----| 7  7 --- |--6--|  |--6-|  |--6--|  6 6  
   S  S  S  S  S S  S  S  S  S  S S  S  S  S  S  S  S S  S  S  S  S  S S  
--16-13-16-13-10-9-10-13-17-13-10-9-10-19-13-19-13-10-9-21-13-21-13-10-9-|
-------------------------------------------------------------------------|
-------------------------------------------------------------------------|
-------------------------------------------------------------------------|
-------------------------------------------------------------------------|
-------------------------------------------------------------------------|
-------------------------------------------------------------------------|


   S  S  S  S  Q      E   E   E   E   Q     S  S  S  S  
-------------------------------------------------------|
--12-13-12----12~----12------12--13--12----12-13-12----|
-----------14------------14-------------------------14-|
-------------------------------------------------------|
-------------------------------------------------------|
-------------------------------------------------------|
-------------------------------------------------------|


   E    E   Q     E   E   E   E   H          
--------------------------------------------|
--12S--19--19----19------19--20--19~--------|
---------------------21---------------------|
--------------------------------------------|
--------------------------------------------|
--------------------------------------------|
--------------------------------------------|


   S  S  S  S  Q      E   E   E   E   Q      E   E   
----------------------------------------------------|
--12-13-12----12~----12------12--13--12S----19--20--|
-----------14------------14-------------------------|
----------------------------------------------------|
----------------------------------------------------|
----------------------------------------------------|
----------------------------------------------------|


                  |--3--|                      
   H          E   S  S  S  H          E    E   
----------------------------------------------|
--22~--------20--19-20-19---------------------|
--------------------------21~--------21S--14--|
----------------------------------------------|
----------------------------------------------|
----------------------------------------------|
----------------------------------------------|


   S  S  S  S  Q      E  S S  S S  S S  S S  S S  S S  S S  
-----------------------------------------------------------|
--12-13-12----12~----12--0-0-15-0-13-0-12-0-10-0-12-0-13-0-|
-----------14----------------------------------------------|
-----------------------------------------------------------|
-----------------------------------------------------------|
-----------------------------------------------------------|
-----------------------------------------------------------|


   S  S  S  S  E    E   E   E   S  S  S  S  Q     S  S  S  S  
----------------------------------------------------------20-|
--12-13-12----12S--19--19------19-20-19----19----19-20-22----|
-----------14--------------21-----------21-------------------|
-------------------------------------------------------------|
-------------------------------------------------------------|
-------------------------------------------------------------|
-------------------------------------------------------------|


   |--3--|                                |--3--|                               
   S  S  S  S  S  S  S  S  S  S  S  S  S  S  S  S  S  S  S  S  S  S  S  S  S  S 
--19-20-19----19----------------19-20-22----------------------------------------
-----------22----22-20-19-20-22----------19-20-19----19----------------19-20-22-
--------------------------------------------------21----21-19----19-21----------
--------------------------------------------------------------22----------------
--------------------------------------------------------------------------------
--------------------------------------------------------------------------------
--------------------------------------------------------------------------------


   |--3--|                                                                    
   S  S  S  S  S  S  S  S  S  S  S  S  S  S  S  S  S  S  S  S  S  S  S  S  S  
--------------------------------------------------17-19-20-17-19-20-19-20-22-|
-----------------------------------------17-19-20----------------------------|
--16-17-16----16----------------16-17-19-------------------------------------|
-----------19----19-17-16-17-19----------------------------------------------|
-----------------------------------------------------------------------------|
-----------------------------------------------------------------------------|
-----------------------------------------------------------------------------|


   H          E   H        E     W                Q     
--24~--------24\--------------|------------------------|
------------------------------|------------------------|
------------------------------|------------------------|
------------------------------|------------------------|
------------------------------|------------------------|
------------------------------|------------------------|
------------------------------|------------------------|


  W                Q       W                Q       W                Q     
------------------------|------------------------|------------------------|
------------------------|------------------------|------------------------|
------------------------|------------------------|------------------------|
------------------------|------------------------|------------------------|
------------------------|------------------------|------------------------|
------------------------|------------------------|------------------------|
------------------------|------------------------|------------------------|


  W                Q       W                Q       W                H         
------------------------|------------------------|----------------------------|
------------------------|------------------------|----------------------------|
------------------------|------------------------|----------------------------|
------------------------|------------------------|----------------------------|
------------------------|------------------------|----------------------------|
------------------------|------------------------|----------------------------|
------------------------|------------------------|----------------------------|


  W                Q       W                Q       W                Q     
------------------------|------------------------|------------------------|
------------------------|------------------------|------------------------|
------------------------|------------------------|------------------------|
------------------------|------------------------|------------------------|
------------------------|------------------------|------------------------|
------------------------|------------------------|------------------------|
------------------------|------------------------|------------------------|


  W                Q       W                Q       W                Q     
------------------------|------------------------|------------------------|
------------------------|------------------------|------------------------|
------------------------|------------------------|------------------------|
------------------------|------------------------|------------------------|
------------------------|------------------------|------------------------|
------------------------|------------------------|------------------------|
------------------------|------------------------|------------------------|


  W                Q       W                H         
------------------------|----------------------------|
------------------------|----------------------------|
------------------------|----------------------------|
------------------------|----------------------------|
------------------------|----------------------------|
------------------------|----------------------------|
------------------------|----------------------------|


  W                H           W                H         
----------------------------|----------------------------|
----------------------------|----------------------------|
----------------------------|----------------------------|
----------------------------|----------------------------|
----------------------------|----------------------------|
----------------------------|----------------------------|
----------------------------|----------------------------|


  W                H           W                H         
----------------------------|----------------------------|
----------------------------|----------------------------|
----------------------------|----------------------------|
----------------------------|----------------------------|
----------------------------|----------------------------|
----------------------------|----------------------------|
----------------------------|----------------------------|


  W                H           W                H         
----------------------------|----------------------------|
----------------------------|----------------------------|
----------------------------|----------------------------|
----------------------------|----------------------------|
----------------------------|----------------------------|
----------------------------|----------------------------|
----------------------------|----------------------------|


  W                H           W                H         
----------------------------|----------------------------|
----------------------------|----------------------------|
----------------------------|----------------------------|
----------------------------|----------------------------|
----------------------------|----------------------------|
----------------------------|----------------------------|
----------------------------|----------------------------|


  E   E  E  Q    E  E  E  E  Q    E     E   E  E  Q    E  E  E  E  E  Q     
------------7-------8--7-----7-------|------------7-------8--7-------------|
-------------------------------------|-----------------------------8--7----|
------------4-------5--4-----4-------|------------4-------5--4-------------|
-------------------------------------|-----------------------------5--4----|
--0h--2--2-------2--------2-------2--|--0h--2--2-------2--------2----------|
-------------------------------------|-------------------------------------|
-------------------------------------|-------------------------------------|


  E   E  E  Q    E  E  E  E  Q    E     E   E  E  Q    E  E  E  E  E  Q     
------------7-------8--7-----7-------|------------7-------8--7-------------|
-------------------------------------|-----------------------------8--7----|
------------4-------5--4-----4-------|------------4-------5--4-------------|
-------------------------------------|-----------------------------5--4----|
--0h--2--2-------2--------2-------2--|--0h--2--2-------2--------2----------|
-------------------------------------|-------------------------------------|
-------------------------------------|-------------------------------------|


  E   E  E  Q    E  E  E  E  Q    E     E   E  E  Q    E  E  E  E  E  Q     
------------7-------8--7-----7-------|------------7-------8--7-------------|
-------------------------------------|-----------------------------8--7----|
------------4-------5--4-----4-------|------------4-------5--4-------------|
-------------------------------------|-----------------------------5--4----|
--0h--2--2-------2--------2-------2--|--0h--2--2-------2--------2----------|
-------------------------------------|-------------------------------------|
-------------------------------------|-------------------------------------|


  E   E  E  Q    E  E  E  E  Q    E     E   E  E  Q    E  E  E  E  E  Q     
------------7-------8--7-----7-------|------------7-------8--7-------------|
-------------------------------------|-----------------------------8--7----|
------------4-------5--4-----4-------|------------4-------5--4-------------|
-------------------------------------|-----------------------------5--4----|
--0h--2--2-------2--------2-------2--|--0h--2--2-------2--------2----------|
-------------------------------------|-------------------------------------|
-------------------------------------|-------------------------------------|


  E   E  E  Q    E  E  E  E  Q    E     E   E  E  Q    E  E  E  E  E  Q     
------------7-------8--7-----7-------|------------7-------8--7-------------|
-------------------------------------|-----------------------------8--7----|
------------4-------5--4-----4-------|------------4-------5--4-------------|
-------------------------------------|-----------------------------5--4----|
--0h--2--2-------2--------2-------2--|--0h--2--2-------2--------2----------|
-------------------------------------|-------------------------------------|
-------------------------------------|-------------------------------------|


  E   E  E  Q    E  E  E  E  Q    E     E   E  E  Q    E  E  E  E  E  Q     
------------7-------8--7-----7-------|------------7-------8--7-------------|
-------------------------------------|-----------------------------8--7----|
------------4-------5--4-----4-------|------------4-------5--4-------------|
-------------------------------------|-----------------------------5--4----|
--0h--2--2-------2--------2-------2--|--0h--2--2-------2--------2----------|
-------------------------------------|-------------------------------------|
-------------------------------------|-------------------------------------|


  E  E  E  Q    H        Q    E     W                H         
---------------------------------|----------------------------|
---------------------------------|----------------------------|
---------------------------------|----------------------------|
---------------------------------|----------------------------|
--2--2-----2---------------------|----------------------------|
--2--2-----2---------------------|----------------------------|
--0--0-----0---------------------|----------------------------|


                                                   PM       PM          
  E  E  E  Q    H        Q    E     E  E  E  E  E  E  E  E  E  E  Q     
---------------------------------|-------------------------------------|
---------------------------------|-------------------------------------|
---------------------------------|-------------------------------------|
---------------------------------|-------------------------------------|
--2--2-----2---------------------|--2--2-----2-----------------5--4----|
--2--2-----2---------------------|--2--2-----2--------3--2-----3--2----|
--0--0-----0---------------------|--0--0-----0-----0--1--0--0----------|


  E  E  E  Q.      E  E  E  Q.         E  E  E  Q.      E  E  E   E  Q      
------------------------------------|--------------------------------------|
------------------------------------|--------------------------------------|
------------------------------------|--------------------------------------|
------------------------------------|--------------------------------------|
------------------------------------|----------------------------10--9~----|
--5--7-----7~------8--7-----7~------|--5--7-----7~------8--7---------------|
--------0----------------0----------|--------0----------------0------------|


  E  E  E  Q.      E  E  E  Q.         E  E  E  Q.      E  E  E  E  Q      
------------------------------------|-------------------------------------|
------------------------------------|-------------------------------------|
------------------------------------|-------------------------------------|
------------------------------------|-------------------------------------|
------------------------------------|-------------------------------------|
--5--7-----7~------8--7-----7~------|--5--7-----7~------8--7-----3--2~----|
--------0----------------0----------|--------0----------------0-----------|


  E  E  E  Q.      E  E  E  Q.         E  E  E  Q.      E  E  E   E  Q      
------------------------------------|--------------------------------------|
------------------------------------|--------------------------------------|
------------------------------------|--------------------------------------|
------------------------------------|--------------------------------------|
------------------------------------|----------------------------10--9~----|
--5--7-----7~------8--7-----7~------|--5--7-----7~------8--7---------------|
--------0----------------0----------|--------0----------------0------------|


  E  E  E  Q.      E  E  E  Q.         E  E  E  Q.      E  E  E  E  Q      
------------------------------------|-------------------------------------|
------------------------------------|-------------------------------------|
------------------------------------|-------------------------------------|
------------------------------------|-------------------------------------|
------------------------------------|-------------------------------------|
--5--7-----7~------8--7-----7~------|--5--7-----7~------8--7-----3--2~----|
--------0----------------0----------|--------0----------------0-----------|


  E  E  E  Q    E  E  E  E  E  Q       E  E  E  Q    E  E  E  E  E  Q     
------------------------------------|------------------------------------|
------------------------------------|------------------------------------|
-----------4-------5--4-----4-------|-----------4-------5--4-------------|
------------------------------------|----------------------------5--4----|
--0--2--2-------2--------2-----2----|--0--2--2-------2--------2----------|
------------------------------------|------------------------------------|
------------------------------------|------------------------------------|


  Q    E  Q    E  E  E  E  E  Q       Q    E  E  E  E  Q    E  E  E  E   
-----------------------------------|------------------------------------|
-----------------------------------|------------------------------------|
----------4-------5--4-----4-------|----------4-----4----------4-----4--|
----------2------------------------|-------0----------------2-----------|
-------2---------------------------|--5----------------0----------0-----|
--0------------0--------0-----0----|--3----------3----------------------|
-----------------------------------|------------------------------------|


  E  E  E  Q    E  E  E  E  E  Q       E  E  E  E  Q    Q    E  E  Q     
------------------------------------|-----------------------------------|
------------------------------------|-----------------------------------|
-----------4-------5--4-----4-------|-----------4---------------4-------|
------------------------------------|------------------------0----------|
--0--2--2-------2--------2-----2----|--0--2--2-----2----5---------------|
------------------------------------|-------------------3----------3----|
------------------------------------|-----------------------------------|


  Q    E  Q    E  E  E  E  E  Q       E  E  E  E  Q    Q    E  E  Q     
-----------------------------------|-----------------------------------|
-----------------------------------|-----------------------------------|
----------4-------5--4-----5-------|-----------4---------------4-------|
-----------------------------------|--------2---------------0----------|
-----------------------------------|-----2-----------------------------|
--2----2-------2--------2-----2----|--0-----------0--------------------|
-----------------------------------|-------------------3----L-----3----|


   S  S  S  S  Q      E   E   E   E   Q     S  S  S  S  
-------------------------------------------------------|
--12-13-12----12~----12------12--13--12----12-13-12----|
-----------14------------14-------------------------14-|
-------------------------------------------------------|
-------------------------------------------------------|
-------------------------------------------------------|
-------------------------------------------------------|


   E    E   Q     E   E   E   E   H          
--------------------------------------------|
--12S--19--19----19------19--20--19~--------|
---------------------21---------------------|
--------------------------------------------|
--------------------------------------------|
--------------------------------------------|
--------------------------------------------|


   S  S  S  S  Q      E   E   E   E   Q      E   E   
----------------------------------------------------|
--12-13-12----12~----12------12--13--12S----19--20--|
-----------14------------14-------------------------|
----------------------------------------------------|
----------------------------------------------------|
----------------------------------------------------|
----------------------------------------------------|


                  |--3--|                      
   H          E   S  S  S  H          E    E   
----------------------------------------------|
--22~--------20--19-20-19---------------------|
--------------------------21~--------21S--14--|
----------------------------------------------|
----------------------------------------------|
----------------------------------------------|
----------------------------------------------|


   S  S  S  S  Q      E  S S  S S  S S  S S  S S  S S  S S  
-----------------------------------------------------------|
--12-13-12----12~----12--0-0-15-0-13-0-12-0-10-0-12-0-13-0-|
-----------14----------------------------------------------|
-----------------------------------------------------------|
-----------------------------------------------------------|
-----------------------------------------------------------|
-----------------------------------------------------------|


   S  S  S  S  E    E   E   E   S  S  S  S  Q     S  S  S  S  
----------------------------------------------------------20-|
--12-13-12----12S--19--19------19-20-19----19----19-20-22----|
-----------14--------------21-----------21-------------------|
-------------------------------------------------------------|
-------------------------------------------------------------|
-------------------------------------------------------------|
-------------------------------------------------------------|


   S  S  S  S  Q     E   E   E   E   Q     E   E   
--19-20-19----19----19------19--20--19----20--22--|
-----------22-----------22------------------------|
--------------------------------------------------|
--------------------------------------------------|
--------------------------------------------------|
--------------------------------------------------|
--------------------------------------------------|


               |--3--|                            
   Q       E   S  S  S  E   E   H          Q      
--22br----20--19-20-19-----19--------------------|
-----------------------22------22~--------22\----|
-------------------------------------------------|
-------------------------------------------------|
-------------------------------------------------|
-------------------------------------------------|
-------------------------------------------------|


                                           PM PM PM PM PM PM PM PM PM       
   |-6-|  |-6-| |-6-| |-6-|                                                 
   S S S  S S S S S S S S S S E  Q    S    S  S  S  S  E  S  E  S  E  Q     
----------------------------------------|----------------------------------|
----------------------------------------|----------------------------------|
----------------------------------------|----------------------------------|
----------------------------------------|----------------------------------|
--10-9-7--------9-7-5-------------------|----------------------------------|
---------10-8-7-------8-7-5-------------|----------------------------------|
----------------------------8-7---------|--0--0--0--0--0--0--0--0--0-------|


  PM PM PM PM PM PM PM PM PM         PM PM PM PM PM PM PM PM PM       
  S  S  S  S  E  S  E  S  E  Q       S  S  S  S  E  S  E  S  E  Q     
----------------------------------|----------------------------------|
----------------------------------|----------------------------------|
-----------------------------5----|----------------------------------|
-----------------------------4----|----------------------------------|
-----------------------------3----|----------------------------------|
----------------------------------|----------------------------------|
--0--0--0--0--0--0--0--0--0-------|--0--0--0--0--0--0--0--0--0-------|


  PM PM PM PM PM PM PM PM PM PM PM PM PM    PM PM PM PM PM PM PM PM PM       
  S  S  S  S  E  S  S  S  S  S  S  S  S     S  S  S  S  E  S  E  S  E  Q     
-----------------------------------------|----------------------------------|
-----------------------------------------|----------------------------------|
-----------------------------------------|----------------------------------|
-----------------------------------------|----------------------------------|
-----------------------------------------|----------------------------------|
-----------------------------------------|----------------------------------|
--0--0--0--0--0--0--0--3--2--0--3--2--0--|--0--0--0--0--0--0--0--0--0-------|


  PM PM PM PM PM PM PM PM PM         PM PM PM PM PM PM PM PM PM       
  S  S  S  S  E  S  E  S  E  Q       S  S  S  S  E  S  E  S  E  Q     
----------------------------------|----------------------------------|
----------------------------------|----------------------------------|
-----------------------------5----|----------------------------------|
-----------------------------4----|----------------------------------|
-----------------------------3----|----------------------------------|
----------------------------------|----------------------------------|
--0--0--0--0--0--0--0--0--0-------|--0--0--0--0--0--0--0--0--0-------|


  PM PM PM PM PM PM PM PM   PM   PM      PM PM PM PM PM PM PM PM PM       
                       |----3----|                                        
  S  S  S  S  E  S  S  Q    Q    Q       S  S  S  S  E  S  E  S  E  Q     
--------------------------------------|----------------------------------|
--------------------------------------|----------------------------------|
--------------------------------------|----------------------------------|
--------------------------------------|----------------------------------|
--------------------------------------|----------------------------------|
-----------------------3----4----5----|----------------------------------|
--0--0--0--0--0--0--0--1----2----3----|--0--0--0--0--0--0--0--0--0-------|


  PM PM PM PM PM PM PM PM PM         PM PM PM PM PM PM PM PM PM       
  S  S  S  S  E  S  E  S  E  Q       S  S  S  S  E  S  E  S  E  Q     
----------------------------------|----------------------------------|
----------------------------------|----------------------------------|
-----------------------------5----|----------------------------------|
-----------------------------4----|----------------------------------|
-----------------------------3----|----------------------------------|
----------------------------------|----------------------------------|
--0--0--0--0--0--0--0--0--0-------|--0--0--0--0--0--0--0--0--0-------|


  PM PM PM PM PM PM PM PM PM PM PM PM PM    PM PM PM PM PM PM PM PM PM       
  S  S  S  S  E  S  S  S  S  S  S  S  S     S  S  S  S  E  S  E  S  E  Q     
-----------------------------------------|----------------------------------|
-----------------------------------------|----------------------------------|
-----------------------------------------|----------------------------------|
-----------------------------------------|----------------------------------|
-----------------------------------------|----------------------------------|
-----------------------------------------|----------------------------------|
--0--0--0--0--0--0--0--3--2--0--3--2--0--|--0--0--0--0--0--0--0--0--0-------|


  PM PM PM PM PM PM PM PM PM         PM PM PM PM PM PM PM PM PM       
  S  S  S  S  E  S  E  S  E  Q       S  S  S  S  E  S  E  S  E  Q     
----------------------------------|----------------------------------|
----------------------------------|----------------------------------|
-----------------------------5----|----------------------------------|
-----------------------------4----|----------------------------------|
-----------------------------3----|----------------------------------|
----------------------------------|----------------------------------|
--0--0--0--0--0--0--0--0--0-------|--0--0--0--0--0--0--0--0--0-------|


  PM PM PM PM PM PM PM PM   PM   PM   PM PM PM                             
                       |----3----|    |--3--|                              
  S  S  S  S  E  S  S  Q    Q    Q    E  E  E     E  E  E  E  E  E  E  E   
-----------------------------------------------|--------------------------|
-----------------------------------------------|--------------------------|
-----------------------------------------------|--------------------------|
-----------------------------------------------|--------------------------|
-----------------------------------------------|--------------------------|
-----------------------3----4----5----4--5--6--|--2--4-----4-----4--5--4--|
--0--0--0--0--0--0--0--1----2----3----2--3--4--|--0--2-----2-----2--3--2--|


  E  E  H        Q       E  E  E  E  E  E  E  E     E  E  E  E  E  Q.      
----------------------|--------------------------|------------------------|
----------------------|--------------------------|------------------------|
----------------------|--------------------------|------------------------|
----------------------|--------------------------|------------------------|
----------------------|--------------------------|------------------------|
-----4----------------|--2--4-----4-----4--5--4--|-----4-----2--4--2------|
-----2----------------|--0--2-----2-----2--3--2--|-----2-----0--2--0------|


  E  E  E  E  E  E  E  E     E  E  H        Q       E  E  E  E  E  E  E  E   
--------------------------|----------------------|--------------------------|
--------------------------|----------------------|--------------------------|
--------------------------|----------------------|--------------------------|
--------------------------|----------------------|--------------------------|
--------------------------|----------------------|--------------------------|
--2--4-----4-----4--5--4--|-----4----------------|--2--4-----4-----4--5--4--|
--0--2-----2-----2--3--2--|-----2----------------|--0--2-----2-----2--3--2--|


                NH   NH   NH   NH                                       
  E  E  E  E    E    E    E    E     E  E  E  Q.      E  E  E  Q.       
----------------------------------|------------------------------------|
----------------------------------|------------------------------------|
--------------<>4--<>4--<>4--<>4--|------------------------------------|
----------------------------------|------------------------------------|
----------------------------------|------------------------------------|
-----4----------------------------|--5--7-----7~------8--7-----7~------|
-----2-----0----------------------|--------0----------------0----------|


  E  E  E  Q.      E  E  E   E  Q        E  E  E  Q.      E  E  E  Q.       
--------------------------------------|------------------------------------|
--------------------------------------|------------------------------------|
--------------------------------------|------------------------------------|
--------------------------------------|------------------------------------|
----------------------------10--9~----|------------------------------------|
--5--7-----7~------8--7---------------|--5--7-----7~------8--7-----7~------|
--------0----------------0------------|--------0----------------0----------|


                                        PM PM PM PM PM PM PM   PM PM       
  E  E  E  Q.      E  E  E  E  Q        S  S  S  S  E  S  S  S S  E  Q     
-------------------------------------|------------------------------------|
-------------------------------------|------------------------------------|
-------------------------------------|------------------------------------|
-------------------------------------|------------------------------------|
-------------------------------------|------------------------------------|
--5--7-----7~------8--7-----3--2~----|------------------------------------|
--------0----------------0-----------|--2--2--2--2--2--2--2----2--2-------|


  PM PM PM PM PM PM PM   PM PM         PM PM PM PM PM PM PM   PM PM       
  S  S  S  S  E  S  S  S S  E  Q       S  S  S  S  E  S  S  S S  E  Q     
------------------------------------|------------------------------------|
------------------------------------|------------------------------------|
-------------------------------7----|------------------------------------|
-------------------------------6----|------------------------------------|
-------------------------------5----|------------------------------------|
------------------------------------|------------------------------------|
--2--2--2--2--2--2--2----2--2-------|--2--2--2--2--2--2--2----2--2-------|


  PM PM PM PM PM PM PM                PM PM PM PM PM PM PM   PM PM       
  S  S  S  S  E  S  S  S S S S S S    S  S  S  S  E  S  S  S S  E  Q     
-----------------------------------|------------------------------------|
-----------------------------------|------------------------------------|
-----------------------------------|------------------------------------|
-----------------------------------|------------------------------------|
-----------------------------------|------------------------------------|
-----------------------------------|------------------------------------|
--2--2--2--2--2--2--2--5-4-2-5-4-2-|--2--2--2--2--2--2--2----2--2-------|


  PM PM PM PM PM PM PM   PM PM         PM PM PM PM PM PM PM   PM PM       
  S  S  S  S  E  S  S  S S  E  Q       S  S  S  S  E  S  S  S S  E  Q     
------------------------------------|------------------------------------|
------------------------------------|------------------------------------|
-------------------------------7----|------------------------------------|
-------------------------------6----|------------------------------------|
-------------------------------5----|------------------------------------|
------------------------------------|------------------------------------|
--2--2--2--2--2--2--2----2--2-------|--2--2--2--2--2--2--2----2--2-------|


  PM PM PM PM PM PM PM PM   PM   PM   PM PM PM                             
                       |----3----|    |--3--|                              
  S  S  S  S  E  S  S  Q    Q    Q    E  E  E     E  E  E  E  E  E  E  E   
-----------------------------------------------|--------------------------|
-----------------------------------------------|--------------------------|
-----------------------------------------------|--------------------------|
-----------------------------------------------|--------------------------|
-----------------------------------------------|--------------------------|
-----------------------5----6----7----6--7--8--|--4--6-----6-----6--7--6--|
--2--2--2--2--2--2--2--3----4----5----4--5--6--|--2--4-----4-----4--5--4--|


  E  E  H        Q       E  E  E  E  E  E  E  E     E  E  Q    E  E  E  E   
----------------------|--------------------------|-------------------------|
----------------------|--------------------------|-------------------------|
----------------------|--------------------------|-------------------------|
----------------------|--------------------------|-------------------------|
----------------------|--------------------------|-------------4--6--------|
-----6----------------|--4--6-----6-----6--7--6--|-----6-------------7--6--|
-----4----------------|--2--4-----4-----4--5--4--|-----4-------------------|


  E  E  E  E  E  E  E  E     E  E  H        Q       E  E  E  E  E  E  E  E   
--------------------------|----------------------|--------------------------|
--------------------------|----------------------|--------------------------|
--------------------------|----------------------|--------------------------|
--------------------------|----------------------|--------------------------|
--------------------------|----------------------|--------------------------|
--4--6-----6-----6--7--6--|-----6----------------|--4--6-----6-----6--7--6--|
--2--4-----4-----4--5--4--|-----4----------------|--2--4-----4-----4--5--4--|


  E  E  Q    E  E  E  E     E  E  E  Q.      E  E  E  Q.       
-------------------------|------------------------------------|
-------------------------|------------------------------------|
-------------------------|------------------------------------|
-------------------------|------------------------------------|
-------------4-----2--1--|------------------------------------|
-----6-------------------|--5--7-----7~------8--7-----7~------|
-----4----------2--------|--------0----------------0----------|


  E  E  E  Q.      E  E  E   E  Q        E  E  E  Q.      E  E  E  Q.       
--------------------------------------|------------------------------------|
--------------------------------------|------------------------------------|
--------------------------------------|------------------------------------|
--------------------------------------|------------------------------------|
----------------------------10--9~----|------------------------------------|
--5--7-----7~------8--7---------------|--5--7-----7~------8--7-----7~------|
--------0----------------0------------|--------0----------------0----------|


  E  E  E  Q.      E  E  E  E  Q        E  E  E  Q    E  E  E  E  E  Q     
-------------------------------------|------------------------------------|
-------------------------------------|------------------------------------|
-------------------------------------|-----------4-------5--4-----4-------|
-------------------------------------|------------------------------------|
-------------------------------------|--0--2--2-------2--------2-----2----|
--5--7-----7~------8--7-----3--2~----|------------------------------------|
--------0----------------0-----------|------------------------------------|


  E  E  E  Q    E  E  E  E  E  Q       Q    E  Q    E  E  E  E  E  Q     
------------------------------------|-----------------------------------|
------------------------------------|-----------------------------------|
-----------4-------5--4-------------|----------4-------5--4-----4-------|
----------------------------5--4----|----------2------------------------|
--0--2--2-------2--------2----------|-------2---------------------------|
------------------------------------|--0------------0--------0-----0----|
------------------------------------|-----------------------------------|


  Q    E  E  E  E  Q    E  E  E  E     E  E  E  Q    E  E  E  E  E  Q     
------------------------------------|------------------------------------|
------------------------------------|------------------------------------|
----------4-----4----------4-----4--|-----------4-------5--4-----4-------|
-------0----------------2-----------|------------------------------------|
--5----------------0----------0-----|--0--2--2-------2--------2-----2----|
--3----------3----------------------|------------------------------------|
------------------------------------|------------------------------------|


  E  E  E  E  Q    Q    E  E  Q       Q    E  Q    E  E  E  E  E  Q     
-----------------------------------|-----------------------------------|
-----------------------------------|-----------------------------------|
-----------4---------------4-------|----------4-------5--4-----5-------|
------------------------0----------|-----------------------------------|
--0--2--2-----2----5---------------|-----------------------------------|
-------------------3----------3----|--2----2-------2--------2-----2----|
-----------------------------------|-----------------------------------|


  E  E  E  E  Q    Q    E  E  Q     
-----------------------------------|
-----------------------------------|
-----------4---------------4-------|
--------2---------------0----------|
-----2-----------------------------|
--0-----------0--------------------|
-------------------3----L-----3----|


   S  S  S  S  Q      E   E   E   E   Q     S  S  S  S  
-------------------------------------------------------|
--12-13-12----12~----12------12--13--12----12-13-12----|
-----------14------------14-------------------------14-|
-------------------------------------------------------|
-------------------------------------------------------|
-------------------------------------------------------|
-------------------------------------------------------|


   E    E   Q     E   E   E   E   H          
--------------------------------------------|
--12S--19--19----19------19--20--19~--------|
---------------------21---------------------|
--------------------------------------------|
--------------------------------------------|
--------------------------------------------|
--------------------------------------------|


   S  S  S  S  Q      E   E   E   E   Q      E   E   
----------------------------------------------------|
--12-13-12----12~----12------12--13--12S----19--20--|
-----------14------------14-------------------------|
----------------------------------------------------|
----------------------------------------------------|
----------------------------------------------------|
----------------------------------------------------|


                  |--3--|                      
   H          E   S  S  S  H          E    E   
----------------------------------------------|
--22~--------20--19-20-19---------------------|
--------------------------21~--------21S--14--|
----------------------------------------------|
----------------------------------------------|
----------------------------------------------|
----------------------------------------------|


   S  S  S  S  Q      E  S S  S S  S S  S S  S S  S S  S S  
-----------------------------------------------------------|
--12-13-12----12~----12--0-0-15-0-13-0-12-0-10-0-12-0-13-0-|
-----------14----------------------------------------------|
-----------------------------------------------------------|
-----------------------------------------------------------|
-----------------------------------------------------------|
-----------------------------------------------------------|


   S  S  S  S  E    E   E   E   S  S  S  S  Q     S  S  S  S  
----------------------------------------------------------20-|
--12-13-12----12S--19--19------19-20-19----19----19-20-22----|
-----------14--------------21-----------21-------------------|
-------------------------------------------------------------|
-------------------------------------------------------------|
-------------------------------------------------------------|
-------------------------------------------------------------|


   |--3--|                                |--3--|                               
   S  S  S  S  S  S  S  S  S  S  S  S  S  S  S  S  S  S  S  S  S  S  S  S  S  S 
--19-20-19----19----------------19-20-22----------------------------------------
-----------22----22-20-19-20-22----------19-20-19----19----------------19-20-22-
--------------------------------------------------21----21-19----19-21----------
--------------------------------------------------------------22----------------
--------------------------------------------------------------------------------
--------------------------------------------------------------------------------
--------------------------------------------------------------------------------


   |--3--|                                                                    
   S  S  S  S  S  S  S  S  S  S  S  S  S  S  S  S  S  S  S  S  S  S  S  S  S  
--------------------------------------------------17-19-20-17-19-20-19-20-22-|
-----------------------------------------17-19-20----------------------------|
--16-17-16----16----------------16-17-19-------------------------------------|
-----------19----19-17-16-17-19----------------------------------------------|
-----------------------------------------------------------------------------|
-----------------------------------------------------------------------------|
-----------------------------------------------------------------------------|


   H         E   H        E     Q.     Q    E  Q    E  E   
--24--------24\--------------|----------------------------|
-----------------------------|----------------------------|
-----------------------------|----------------------------|
-----------------------------|----------------------------|
-----------------------------|----------------------------|
-----------------------------|----------------------------|
-----------------------------|--2------2----2--2----2--0--|


  Q.     Q    E  Q    E  E  E  E     Q.     Q.     Q     
----------------------------------|---------------------|
----------------------------------|---------------------|
----------------------------------|---------------------|
----------------------------------|---------------------|
--3------3----3--3----3--3--3--3--|----------------2----|
--3------3----3--3----3--3--3--3--|--2------3-----------|
--1------1----1--1----1--1--1--1--|---------------------|


  Q.     Q    E  Q    E  E     Q.     Q    E  Q    E  E   
----------------------------|----------------------------|
-----------------5----5-----|----------------------------|
-----------------4----4-----|----------------------------|
--2------2-------2----2-----|--5------5----5--5----5-----|
--2------2-------2----2-----|--4------4----4--4----4--x--|
--0------0----0-------------|--2------2----2--2----2--x--|
-------------------------0--|--2------2----2--2----2--x--|


                                                        PM   PM   PM    
                                                        |----3----|     
  Q.     Q    E  Q    E  E  E  E     Q.     Q.     Q    Q    Q    Q     
----------------------------------|------------------------------------|
----------------------------------|------------------------------------|
----------------------------------|------------------------------------|
----------------------------------|--7------7------7----5----4----5----|
--3------3----3--3----3--3--3--3--|--7------7------7----5----4----5----|
--3------3----3--3----3--3--3--3--|--5------5------5----3----2----3----|
--1------1----1--1----1--1--1--1--|------------------------------------|


  Q.     Q    E  Q    E  E     Q.     Q    E  Q    E  E   
----------------------------|----------------------------|
-----------------5----5-----|----------------------------|
-----------------4----4-----|----------------------------|
--2------2-------2----2-----|----------------------------|
--2------2-------2----2-----|----------------------------|
--0------0----0----------4--|----------------------------|
----------------------------|--2------2----2--2----2--0--|


  Q.     Q    E  H.              Q.     Q.      Q     
------------------------------|----------------------|
------------------------------|----------------------|
------------------------------|----------------------|
-----------------5------------|----------------------|
--3------3----3--3------------|----------------------|
--3------3----3--3------------|--2------3------/7----|
--1------1----1--1------------|----------------------|


  Q.     Q    E  Q    E  E     Q.     Q    E  Q    E  E   
----------------------------|----------------------------|
-----------------5----5-----|----------------------------|
-----------------4----4-----|----------------------------|
--2------2-------2----2-----|--5------5----5--5----5-----|
--2------2-------2----2-----|--4------4----4--4----4--x--|
--0------0----0-------------|--2------2----2--2----2--x--|
-------------------------0--|--2------2----2--2----2--x--|


  Q.     Q    E  H.              Q.     Q.     Q     
------------------------------|---------------------|
------------------------------|---------------------|
------------------------------|---------------------|
-----------------5------------|---------------------|
--3------3----3--3------------|---------------------|
--3------3----3--3------------|--5------3------2----|
--1------1----1--1------------|---------------------|


  Q.     Q    E  Q    E  E     Q.     Q    E  Q    E  E   
----------------------------|----------------------------|
-----------------5----5-----|----------------------------|
-----------------4----4-----|----------------------------|
--2------2-------2----2-----|----------------------------|
--2------2-------2----2-----|----------------------------|
--0------0----0----------4--|----------------------------|
----------------------------|--2------2----2--2----2--0--|


  Q.     Q    E  H.              Q.     Q.      Q     
------------------------------|----------------------|
------------------------------|----------------------|
------------------------------|----------------------|
-----------------5------------|----------------------|
--3------3----3--3------------|----------------------|
--3------3----3--3------------|--2------3------/7----|
--1------1----1--1------------|----------------------|


  Q.     Q    E  Q    E  E     Q.     Q    E  Q    E  E   
----------------------------|----------------------------|
-----------------5----5-----|----------------------------|
-----------------4----4-----|----------------------------|
--2------2-------2----2-----|--5------5----5--5----5-----|
--2------2-------2----2-----|--4------4----4--4----4--x--|
--0------0----0-------------|--2------2----2--2----2--x--|
-------------------------0--|--2------2----2--2----2--x--|


  Q.     Q    E  H.              Q.     Q.     Q       Q.     Q.     Q     
------------------------------|---------------------|---------------------|
------------------------------|---------------------|---------------------|
------------------------------|---------------------|---------------------|
-----------------5------------|---------------------|---------------------|
--3------3----3--3------------|---------------------|---------------------|
--3------3----3--3------------|--5------3------2----|---------------------|
--1------1----1--1------------|---------------------|--5------3------2----|


  |---3--|                     |---3--|                   
  E   E  E  E.  E.  E.  E.     E   E  E  E.  E.  E.  E.   
----------------------------|----------------------------|
----------------------------|----------------------------|
----------------------------|----------------------------|
----------------------------|----------------------------|
----------------------------|----------------------------|
---------2--2-------2---2---|---------2--2-------2---2---|
--1p--0--0--0-------0---0---|--1p--0--0--0-------0---0---|


  |---3--|                     |---3--|                   
  E   E  E  E.  E.  E.  E.     E   E  E  E.  E.  E.  E.   
----------------------------|----------------------------|
----------------------------|----------------------------|
----------------------------|----------------------------|
----------------------------|----------------------------|
----------------------------|----------------------------|
---------2--2-------2---2---|---------2--2-------2---2---|
--1p--0--0--0-------0---0---|--1p--0--0--0-------0---0---|


  S  S S S E.  S E  E  S  S S S E.  S E  E   
--------------------------------------------|
--------------------------------------------|
--------------------------------------------|
--------------------------------------------|
--------------------------------------------|
-------2-2-------2--2-------2-2-------2--2--|
--1p-0-0-0-----0-0--0--1p-0-0-0-----0-0--0--|


  S  S S S E.  S E  E  S  S S S E.  S E  E     S S S S S S S S S S S S S S S S  
--------------------------------------------|----------------------------------|
--------------------------------------------|----------------------------------|
--------------------------------------------|----------------------------------|
--------------------------------------------|----------------------------------|
--------------------------------------------|----------------------------------|
-------2-2-------2--2-------2-2-------2--2--|------4-2---5-2---4-2-------------|
--1p-0-0-0-----0-0--0--1p-0-0-0-----0-0--0--|--0-2-----3-----3-----3-2-0-2-3-2-|


  S S S S S S S S S S S S S S S S    S S S S S S S S S S S S S S S S  
----------------------------------|----------------------------------|
----------------------------------|----------------------------------|
----------------------------------|----------------------------------|
----------------------------------|----------------------------------|
----------------------------------|----------------------------------|
------4-2---5-2---4-2-------------|------4-2---5-2---4-2-------------|
--0-2-----3-----3-----3-2-0-2-3-2-|--0-2-----3-----3-----3-2-0-2-3-2-|


  S S S S S S S S S S S S S S S S    S  S S S E.  S  S S S S  
----------------------------------|--------------------------|
----------------------------------|--------------------------|
----------------------------------|--------------------------|
----------------------------------|--------------------------|
------------------4---------------|--------------------------|
------4-2---5-2-----4-5-2-4-----2-|-------2-2----------2-2---|
--0-2-----3-----3-----------3-2---|--1p-0-0-0-----1p-0-0-0---|


  S  S S S E.  S  S S S S    S S S S S S S S S S S S S S S S  
--------------------------|----------------------------------|
--------------------------|----------------------------------|
--------------------------|----------------------------------|
--------------------------|----------------------------------|
--------------------------|----------------------------------|
-------2-2----------2-2---|------4-2---5-2---4-2-------------|
--1p-0-0-0-----1p-0-0-0---|--0-2-----3-----3-----3-2-0-2-3-2-|


  S S S S S S S S S S S S S S S S    S S S S S S S S S S S S S S S S  
----------------------------------|----------------------------------|
----------------------------------|----------------------------------|
----------------------------------|----------------------------------|
----------------------------------|----------------------------------|
------------------4---------------|------4-2---5-2---4-2-------------|
------4-2---5-2-----4-5-2-4-----2-|--0-2-----3-----3-----3-2-0-2-3-2-|
--0-2-----3-----3-----------3-2---|----------------------------------|


  S S S S S S S S S S S S S S S S  
----------------------------------|
----------------------------------|
----------------------------------|
----------------------------------|
------4-2---5-2---4-2-------------|
--0-2-----3-----3-----3-2-0-2-3-2-|
----------------------------------|


  S  S  S  S  S  S  S  S  S  S  S  S S  S  S  S  
------------------------------------------------|
------------------------------------------------|
------------------------------------------------|
------------------------------------------------|
-------16-14----17-14----16-14------------------|
--0-14-------15-------15-------15-14-0-14-15-14-|
------------------------------------------------|


  S  S  S  S  S  S  S  S  S  S  S  S  S  S  S  S  
-------------------------------------------------|
-------------------------------------------------|
-------------------------------------------------|
-------------------------16----------------------|
-------16-14----17-14-------16-17-14-16-------14-|
--0-14-------15-------15----------------15-14----|
-------------------------------------------------|


  PM PM PM PM PM PM PM PM PM PM PM PM PM PM PM PM PM PM PM PM  
  T  T  S  S  S  S  T  T  S  S  S  S  T  T  S  S  S  S  T  T   
--------------------------------------------------------------|
--------------------------------------------------------------|
--------------------------------------------------------------|
--------------------------------------------------------------|
--------------------------------------------------------------|
--3--2--0--0--0--0--8--7--0--0--0--0--3--2--0--0--0--0--8--7--|
--------------------------------------------------------------|


  PM PM PM PM PM PM PM PM PM PM PM PM PM PM PM PM PM PM PM PM PM PM PM PM PM  
  S  T  T  S  S  S  S  T  T  S  S  S  S  T  T  S  S  S  S  T  T  S  T  T  S   
-----------------------------------------------------------------------------|
-----------------------------------------------------------------------------|
-----------------------------------------------------------------------------|
-----------------------------------------------------------------------------|
-----------------------------------------------------------------------------|
--0--3--2--0--0--0--0--8--7--0--0--0--0--3--2--0--0--0--0--6--5--0--5--3--0--|
-----------------------------------------------------------------------------|


  PM PM PM PM PM PM PM PM PM PM PM PM PM PM PM PM PM PM PM PM  
  T  T  S  S  S  S  T  T  S  S  S  S  T  T  S  S  S  S  T  T   
--------------------------------------------------------------|
--------------------------------------------------------------|
--------------------------------------------------------------|
--------------------------------------------------------------|
--------------------------------------------------------------|
--3--2--0--0--0--0--8--7--0--0--0--0--3--2--0--0--0--0--8--7--|
--------------------------------------------------------------|


  PM PM PM PM PM PM PM PM PM PM PM PM PM PM PM PM PM PM PM PM PM PM PM PM PM  
  S  T  T  S  S  S  S  T  T  S  S  S  S  T  T  S  S  S  S  T  T  S  T  T  S   
-----------------------------------------------------------------------------|
-----------------------------------------------------------------------------|
-----------------------------------------------------------------------------|
-----------------------------------------------------------------------------|
-----------------------------------------------------------------------------|
--0--3--2--0--0--0--0--8--7--0--0--0--0--3--2--0--0--0--0--6--5--0--5--3--0--|
-----------------------------------------------------------------------------|


  S S S E  S S E  S S S S S S S  
--------------------------------|
--------------------------------|
--------------------------------|
--------------------------------|
--4-2---5--2---4--2-------------|
------3------3------3-2-0-2-3-2-|
--------------------------------|


  PM PM PM PM PM PM PM PM PM PM PM PM PM PM PM PM PM PM PM PM  
  T  T  S  S  S  S  T  T  S  S  S  S  T  T  S  S  S  S  T  T   
--------------------------------------------------------------|
--------------------------------------------------------------|
--------------------------------------------------------------|
--------------------------------------------------------------|
--------------------------------------------------------------|
--3--2--0--0--0--0--8--7--0--0--0--0--3--2--0--0--0--0--8--7--|
--------------------------------------------------------------|


  PM PM PM PM PM PM PM PM PM PM PM PM PM PM PM PM PM PM PM PM PM PM PM PM PM  
  S  T  T  S  S  S  S  T  T  S  S  S  S  T  T  S  S  S  S  T  T  S  T  T  S   
-----------------------------------------------------------------------------|
-----------------------------------------------------------------------------|
-----------------------------------------------------------------------------|
-----------------------------------------------------------------------------|
-----------------------------------------------------------------------------|
--0--3--2--0--0--0--0--8--7--0--0--0--0--3--2--0--0--0--0--6--5--0--5--3--0--|
-----------------------------------------------------------------------------|


  PM PM PM PM PM PM PM PM PM PM PM PM PM PM PM PM PM PM PM PM  
  T  T  S  S  S  S  T  T  S  S  S  S  T  T  S  S  S  S  T  T   
--------------------------------------------------------------|
--------------------------------------------------------------|
--------------------------------------------------------------|
--------------------------------------------------------------|
--------------------------------------------------------------|
--3--2--0--0--0--0--8--7--0--0--0--0--3--2--0--0--0--0--8--7--|
--------------------------------------------------------------|


  PM PM PM PM PM PM PM PM PM PM PM PM PM PM PM PM PM PM PM PM PM PM PM PM PM  
  S  T  T  S  S  S  S  T  T  S  S  S  S  T  T  S  S  S  S  T  T  S  T  T  S   
-----------------------------------------------------------------------------|
-----------------------------------------------------------------------------|
-----------------------------------------------------------------------------|
-----------------------------------------------------------------------------|
-----------------------------------------------------------------------------|
--0--3--2--0--0--0--0--8--7--0--0--0--0--3--2--0--0--0--0--6--5--0--5--3--0--|
-----------------------------------------------------------------------------|


  S S S E  S S E  S S S S S S S    S S S E  S S E  S S S S S S S  
--------------------------------|--------------------------------|
--------------------------------|--------------------------------|
--------------------------------|--------------------------------|
--------------------------------|--------------------------------|
--4-2---5--2---4--2-------------|--4-2---5--2---4--2-------------|
------3------3------3-2-0-2-3-2-|------3------3------3-2-0-2-3-2-|
--------------------------------|--------------------------------|


  S S S S S S S  S S  S S S S S S  S    S S S S S S S  S S  S S S S S S S  
-------------------------------------|------------------------------------|
-------------------------------------|------------------------------------|
-------------------------------------|------------------------------------|
-------------------------------------|------------------------------------|
--7-9---9-7-9-9-10---10-4-5-5-7-7-10-|--7-9---9-7-9-9-10---10-4-5-5-7-5-4-|
--5-7---7-5-7-7--8----8-2-3-3-5-5--8-|--5-7---7-5-7-7--8----8-2-3-3-5-3-2-|
-------------------------------------|------------------------------------|


  S S S S S S S  S S  S S S S S S  S    S S S S S S S  S S  S S S S S S S  
-------------------------------------|------------------------------------|
-------------------------------------|------------------------------------|
-------------------------------------|------------------------------------|
-------------------------------------|------------------------------------|
--7-9---9-7-9-9-10---10-4-5-5-7-7-10-|--7-9---9-7-9-9-10---10-4-5-5-7-5-4-|
--5-7---7-5-7-7--8----8-2-3-3-5-5--8-|--5-7---7-5-7-7--8----8-2-3-3-5-3-2-|
-------------------------------------|------------------------------------|


  S S S S S S S S S S S S S S S S    S S S S S S S S S S S S S S S S  
----------------------------------|----------------------------------|
----------------------------------|----------------------------------|
----------------------------------|----------------------------------|
----------------------------------|----------------------------------|
------4-2---5-2---4-2-------------|------4-2---5-2---4-2-------------|
--0-2-----3-----3-----3-2-0-2-3-2-|--0-2-----3-----3-----3-2-0-2-3-2-|
----------------------------------|----------------------------------|


  S  S  S  S  S  S  S  S  S  S  S  S S  S  S  S  
------------------------------------------------|
------------------------------------------------|
------------------------------------------------|
------------------------------------------------|
-------16-14----17-14----16-14------------------|
--0-14-------15-------15-------15-14-0-14-15-14-|
------------------------------------------------|


  S  S  S  S  S  S  S  S  S  S  S  S  S  S  S  S  
-------------------------------------------------|
-------------------------------------------------|
-------------------------------------------------|
-------------------------16----------------------|
-------16-14----17-14-------16-17-14-16-------14-|
--0-14-------15-------15----------------15-14----|
-------------------------------------------------|


  PM PM PM PM PM PM PM PM PM PM PM PM PM PM PM PM PM PM PM PM  
  T  T  S  S  S  S  T  T  S  S  S  S  T  T  S  S  S  S  T  T   
--------------------------------------------------------------|
--------------------------------------------------------------|
--------------------------------------------------------------|
--------------------------------------------------------------|
--------------------------------------------------------------|
--3--2--0--0--0--0--8--7--0--0--0--0--3--2--0--0--0--0--8--7--|
--------------------------------------------------------------|


  PM PM PM PM PM PM PM PM PM PM PM PM PM PM PM PM PM PM PM PM PM    
  S  T  T  S  S  S  S  T  T  S  S  S  S  T  T  S  S  S  S  T  T  S  
-------------------------------------------------------------------|
-------------------------------------------------------------------|
-------------------------------------------------------------------|
-------------------------------------------------------------------|
-------------------------------------------------------------------|
--0--3--2--0--0--0--0--8--7--0--0--0--0--3--2--0--0--0--0--6--5--0-|
-------------------------------------------------------------------|


  PM PM PM PM PM PM PM PM PM PM PM PM PM PM PM PM PM PM PM PM  
  T  T  S  T  T  S  S  S  S  T  T  S  S  S  S  T  T  S  S  S   
--------------------------------------------------------------|
--------------------------------------------------------------|
--------------------------------------------------------------|
--------------------------------------------------------------|
--------------------------------------------------------------|
--5--3--0--3--2--0--0--0--0--8--7--0--0--0--0--3--2--0--0--0--|
--------------------------------------------------------------|


  PM PM PM PM PM PM PM PM PM PM PM PM PM PM PM PM PM PM PM PM PM PM PM PM PM PM 
  S  T  T  S  T  T  S  S  S  S  T  T  S  S  S  S  T  T  S  S  S  S  T  T  S  T  
--------------------------------------------------------------------------------
--------------------------------------------------------------------------------
--------------------------------------------------------------------------------
--------------------------------------------------------------------------------
--------------------------------------------------------------------------------
--0--8--7--0--3--2--0--0--0--0--8--7--0--0--0--0--3--2--0--0--0--0--6--5--0--5--
--------------------------------------------------------------------------------


  S S S E  S S E  S S S S S S S  
--------------------------------|
--------------------------------|
--------------------------------|
--------------------------------|
--4-2---5--2---4--2-------------|
------3------3------3-2-0-2-3-2-|
--------------------------------|


  PM PM PM PM PM PM PM PM PM PM PM PM PM PM PM PM PM PM PM PM  
  T  T  S  S  S  S  T  T  S  S  S  S  T  T  S  S  S  S  T  T   
--------------------------------------------------------------|
--------------------------------------------------------------|
--------------------------------------------------------------|
--------------------------------------------------------------|
--------------------------------------------------------------|
--3--2--0--0--0--0--8--7--0--0--0--0--3--2--0--0--0--0--8--7--|
--------------------------------------------------------------|


  PM PM PM PM PM PM PM PM PM PM PM PM PM PM PM PM PM PM PM PM PM    
  S  T  T  S  S  S  S  T  T  S  S  S  S  T  T  S  S  S  S  T  T  S  
-------------------------------------------------------------------|
-------------------------------------------------------------------|
-------------------------------------------------------------------|
-------------------------------------------------------------------|
-------------------------------------------------------------------|
--0--3--2--0--0--0--0--8--7--0--0--0--0--3--2--0--0--0--0--6--5--0-|
-------------------------------------------------------------------|


  PM PM PM PM PM PM PM PM PM PM PM PM PM PM PM PM PM PM PM PM  
  T  T  S  T  T  S  S  S  S  T  T  S  S  S  S  T  T  S  S  S   
--------------------------------------------------------------|
--------------------------------------------------------------|
--------------------------------------------------------------|
--------------------------------------------------------------|
--------------------------------------------------------------|
--5--3--0--3--2--0--0--0--0--8--7--0--0--0--0--3--2--0--0--0--|
--------------------------------------------------------------|


  PM PM PM PM PM PM PM PM PM PM PM PM PM PM PM PM PM PM PM PM PM PM PM PM PM PM 
  S  T  T  S  T  T  S  S  S  S  T  T  S  S  S  S  T  T  S  S  S  S  T  T  S  T  
--------------------------------------------------------------------------------
--------------------------------------------------------------------------------
--------------------------------------------------------------------------------
--------------------------------------------------------------------------------
--------------------------------------------------------------------------------
--0--8--7--0--3--2--0--0--0--0--8--7--0--0--0--0--3--2--0--0--0--0--6--5--0--5--
--------------------------------------------------------------------------------


  S S S E  S S E  S S S S S S S    S S S E  S S E  S S S S S S S  
--------------------------------|--------------------------------|
--------------------------------|--------------------------------|
--------------------------------|--------------------------------|
--------------------------------|--------------------------------|
--4-2---5--2---4--2-------------|--4-2---5--2---4--2-------------|
------3------3------3-2-0-2-3-2-|------3------3------3-2-0-2-3-2-|
--------------------------------|--------------------------------|


  S S S S S S S  S S  S S S S S S  S    S S S S S S S  S S  S S S S S S S  
-------------------------------------|------------------------------------|
-------------------------------------|------------------------------------|
-------------------------------------|------------------------------------|
-------------------------------------|------------------------------------|
--7-9---9-7-9-9-10---10-4-5-5-7-7-10-|--7-9---9-7-9-9-10---10-4-5-5-7-5-4-|
--5-7---7-5-7-7--8----8-2-3-3-5-5--8-|--5-7---7-5-7-7--8----8-2-3-3-5-3-2-|
-------------------------------------|------------------------------------|


  S S S S S S S  S S  S S S S S S  S    S S S S S S S  S S  S S S S S S S  
-------------------------------------|------------------------------------|
-------------------------------------|------------------------------------|
-------------------------------------|------------------------------------|
-------------------------------------|------------------------------------|
--7-9---9-7-9-9-10---10-4-5-5-7-7-10-|--7-9---9-7-9-9-10---10-4-5-5-7-5-4-|
--5-7---7-5-7-7--8----8-2-3-3-5-5--8-|--5-7---7-5-7-7--8----8-2-3-3-5-3-2-|
-------------------------------------|------------------------------------|


                                                             |-6-| |-6-|  
  S S S S S S S S S S S S S S S S    S S S S S S S S S S S S S S S S S S  
----------------------------------|--------------------------------------|
----------------------------------|--------------------------------------|
----------------------------------|--------------------------------------|
----------------------------------|--------------------------------------|
----------------------------------|--------------------------------------|
------4-2---5-2---4-2-------------|------4-2---5-2---4-2-----------------|
--0-2-----3-----3-----3-2-0-2-3-2-|--0-2-----3-----3-----3-2-0-0-2-2-3-2-|


  S S S S S S S S S S S S S S S S    S S S S S S S S S S S S S S S S  
----------------------------------|----------------------------------|
----------------------------------|----------------------------------|
----------------------------------|----------------------------------|
----------------------------------|----------------------------------|
----------------------------------|------------------4---------------|
------4-2---5-2---4-2-------------|------4-2---5-2-----4-5-2-4-----2-|
--0-2-----3-----3-----3-2-0-2-3-2-|--0-2-----3-----3-----------3-2---|


  PM PM PM PM PM PM PM PM    PM PM PM PM PM PM    PM PM PM PM PM PM PM PM  
  S  E  E  S  S  E  E  S     S  E  E  S  E  E     S  E  E  S  S  E  E  S   
--------------------------|--------------------|--------------------------|
--------------------------|--------------------|--------------------------|
--------------------------|--------------------|--------------------------|
--------------------------|--------------3--3--|--------------------------|
--2--4--4--4--5--4--4--4--|--2--4--4--4--1--1--|--2--4--4--4--5--4--4--4--|
--0--2--2--2--3--2--2--2--|--0--2--2--2--------|--0--2--2--2--3--2--2--2--|
--------------------------|--------------------|--------------------------|


  PM PM PM PM        
  S  E  E  S  E  E   
--------------------|
--------------------|
--------------------|
--------------5--5--|
--2--4--4--4--3--3--|
--0--2--2--2--------|
--------------------|


  PM PM PM PM PM PM PM PM PM PM PM PM PM PM PM PM PM PM PM PM PM PM PM PM  
  S  S  S  S  S  S  S  S  S  S  S  S  S  S  S  S  S  S  S  S  S  S  S  S   
--------------------------------------------------------------------------|
--------------------------------------------------------------------------|
--------------------------------------------------------------------------|
--------------------------------------------------------------------------|
--------------------------------------------------------------------------|
--5--4--2--5--4--2--5--4--2--5--4--2--5--4--2--5--4--2--5--4--2--5--4--2--|
--------------------------------------------------------------------------|


  PM PM PM PM PM PM PM PM    PM PM PM PM PM PM    PM PM PM PM PM PM PM PM  
  S  E  E  S  S  E  E  S     S  E  E  S  E  E     S  E  E  S  S  E  E  S   
--------------------------|--------------------|--------------------------|
--------------------------|--------------------|--------------------------|
--------------------------|--------------------|--------------------------|
--------------------------|--------------3--3--|--------------------------|
--2--4--4--4--5--4--4--4--|--2--4--4--4--1--1--|--2--4--4--4--5--4--4--4--|
--0--2--2--2--3--2--2--2--|--0--2--2--2--------|--0--2--2--2--3--2--2--2--|
--------------------------|--------------------|--------------------------|


  PM PM PM PM        
  S  E  E  S  E  E   
--------------------|
--------------------|
--------------------|
--------------5--5--|
--2--4--4--4--3--3--|
--0--2--2--2--------|
--------------------|


  PM PM PM PM PM PM PM PM PM PM PM PM PM PM PM PM PM PM PM PM PM PM PM PM  
  S  S  S  S  S  S  S  S  S  S  S  S  S  S  S  S  S  S  S  S  S  S  S  S   
--------------------------------------------------------------------------|
--------------------------------------------------------------------------|
--------------------------------------------------------------------------|
--------------------------------------------------------------------------|
--------------------------------------------------------------------------|
--5--4--2--5--4--2--5--4--2--5--4--2--5--4--2--5--4--2--5--4--2--5--4--2--|
--------------------------------------------------------------------------|


  PM PM PM PM PM PM PM PM PM PM PM PM PM PM PM PM PM PM PM PM PM PM PM PM  
  S  S  S  S  S  S  S  S  S  S  S  S  S  S  S  S  S  S  S  S  S  S  S  S   
--------------------------------------------------------------------------|
--------------------------------------------------------------------------|
--------------------------------------------------------------------------|
--------------------------------------------------------------------------|
--------------------------------------------------------------------------|
--5--4--2--5--4--2--5--4--2--5--4--2--5--4--2--5--4--2--5--4--2--5--4--2--|
--------------------------------------------------------------------------|


  PM PM PM PM PM PM PM PM    PM PM PM PM PM PM    PM PM PM PM PM PM PM PM  
  S  E  E  S  S  E  E  S     S  E  E  S  E  E     S  E  E  S  S  E  E  S   
--------------------------|--------------------|--------------------------|
--------------------------|--------------------|--------------------------|
--------------------------|--------------------|--------------------------|
--------------------------|--------------3--3--|--------------------------|
--2--4--4--4--5--4--4--4--|--2--4--4--4--1--1--|--2--4--4--4--5--4--4--4--|
--0--2--2--2--3--2--2--2--|--0--2--2--2--------|--0--2--2--2--3--2--2--2--|
--------------------------|--------------------|--------------------------|


  PM PM PM PM          PM PM PM PM PM PM PM PM PM PM PM PM  
  S  E  E  S  E  E     S  S  S  S  S  S  S  S  S  S  S  S   
--------------------|--------------------------------------|
--------------------|--------------------------------------|
--------------------|--------------------------------------|
--------------5--5--|--------------------------------------|
--2--4--4--4--3--3--|--------------------------------------|
--0--2--2--2--------|--5--4--2--5--4--2--5--4--2--5--4--2--|
--------------------|--------------------------------------|


  PM PM PM PM PM PM PM PM PM PM PM PM    PM PM PM PM PM PM PM PM  
  S  S  S  S  S  S  S  S  S  S  S  S     S  E  E  S  S  E  E  S   
--------------------------------------|--------------------------|
--------------------------------------|--------------------------|
--------------------------------------|--------------------------|
--------------------------------------|--------------------------|
--4--2--------4--2--------4--2--------|--2--4--4--4--5--4--4--4--|
--------3--2--------3--2--------3--2--|--0--2--2--2--3--2--2--2--|
--------------------------------------|--------------------------|


  PM PM PM PM PM PM    PM PM PM PM PM PM PM PM    PM PM PM PM        
  S  E  E  S  E  E     S  E  E  S  S  E  E  S     S  E  E  S  E  E   
--------------------|--------------------------|--------------------|
--------------------|--------------------------|--------------------|
--------------------|--------------------------|--------------------|
--------------3--3--|--------------------------|--------------5--5--|
--2--4--4--4--1--1--|--2--4--4--4--5--4--4--4--|--2--4--4--4--3--3--|
--0--2--2--2--------|--0--2--2--2--3--2--2--2--|--0--2--2--2--------|
--------------------|--------------------------|--------------------|


  PM PM PM PM PM PM PM PM PM PM PM PM    PM PM PM PM PM PM PM PM PM PM PM PM  
  S  S  S  S  S  S  S  S  S  S  S  S     S  S  S  S  S  S  S  S  S  S  S  S   
--------------------------------------|--------------------------------------|
--------------------------------------|--------------------------------------|
--------------------------------------|--------------------------------------|
--------------------------------------|--------------------------------------|
--------------------------------------|--4--2--------4--2--------4--2--------|
--5--4--2--5--4--2--5--4--2--5--4--2--|--------3--2--------3--2--------3--2--|
--------------------------------------|--------------------------------------|


  PM PM PM PM PM PM PM PM PM PM PM PM    PM PM PM PM PM PM PM PM PM PM PM PM  
  S  S  S  S  S  S  S  S  S  S  S  S     S  S  S  S  S  S  S  S  S  S  S  S   
--------------------------------------|--------------------------------------|
--------------------------------------|--------------------------------------|
--------------------------------------|--------------------------------------|
--------------------------------------|--------------------------------------|
--------------------------------------|--4--2--------4--2--------4--2--------|
--5--4--2--5--4--2--5--4--2--5--4--2--|--------3--2--------3--2--------3--2--|
--------------------------------------|--------------------------------------|


  PM PM PM PM PM PM PM PM    PM PM PM PM PM PM    PM PM PM PM PM PM PM PM  
  S  E  E  S  S  E  E  S     S  E  E  S  E  E     S  E  E  S  S  E  E  S   
--------------------------|--------------------|--------------------------|
--------------------------|--------------------|--------------------------|
--------------------------|--------------------|--------------------------|
--------------------------|--------------3--3--|--------------------------|
--2--4--4--4--5--4--4--4--|--2--4--4--4--1--1--|--2--4--4--4--5--4--4--4--|
--0--2--2--2--3--2--2--2--|--0--2--2--2--------|--0--2--2--2--3--2--2--2--|
--------------------------|--------------------|--------------------------|


  PM PM PM PM                                                  
  S  E  E  S  E  E     S E  E  S S E  E  S    S E  E  S E  E   
--------------------|----------------------|------------------|
--------------------|----------------------|------------------|
--------------------|----------------------|------------------|
--------------5--5--|----------------------|------------3--3--|
--2--4--4--4--3--3--|--2-4--4--4-5-4--4--4-|--2-4--4--4-1--1--|
--0--2--2--2--------|--0-2--2--2-3-2--2--2-|--0-2--2--2-------|
--------------------|----------------------|------------------|


                                                              |3|  |-3|  
  S E  E  S S E  E  S    S E  E  S E  E     E  E  E  E  E  E  S E  E  S  
----------------------|------------------|------------------------------|
----------------------|------------------|------------------------------|
----------------------|------------------|------------------------------|
----------------------|------------5--5--|------------------------------|
--2-4--4--4-5-4--4--4-|--2-4--4--4-3--3--|-----4--5---------------------|
--0-2--2--2-3-2--2--2-|--0-2--2--2-------|-----------------5--4---------|
----------------------|------------------|--2--------3--2-------0--2--3-|


                    |-3-|                            |3|  |-3|  
  E  E  E  E  E  E  S S S E  E     E  E  E  E  E  E  S E  E  S  
--------------------------------|------------------------------|
--------------------------------|------------------------------|
--------------------------------|------------------------------|
--------------------------------|------------------------------|
-----4--5--------4--2-L---------|-----4--5---------------------|
--------------------------------|-----------------5--4---------|
--2--------3--2---------0-2--3--|--2--------3--2-------0--2--3-|


                    |-3-|                            |3|  |-3|  
  E  E  E  E  E  E  S S S E  E     E  E  E  E  E  E  S E  E  S  
--------------------------------|------------------------------|
--------------------------------|------------------------------|
--------------------------------|------------------------------|
--------------------------------|------------------------------|
-----4--5--------4--2-L---------|-----4--5---------------------|
--------------------------------|-----------------5--4---------|
--2--------3--2---------0-2--3--|--2--------3--2-------0--2--3-|


                    |-3-|                            |3|  |-3|  
  E  E  E  E  E  E  S S S E  E     E  E  E  E  E  E  S E  E  S  
--------------------------------|------------------------------|
--------------------------------|------------------------------|
--------------------------------|------------------------------|
--------------------------------|------------------------------|
-----4--5--------4--2-L---------|-----4--5---------------------|
--------------------------------|-----------------5--4---------|
--2--------3--2---------0-2--3--|--2--------3--2-------0--2--3-|


                    |-3-|                                          
  E  E  E  E  E  E  S S S E  E     S S S S S S S    S S S S S S S  
--------------------------------|----------------|----------------|
--------------------------------|----------------|----------------|
--------------------------------|--6-4-----------|--6-4-----------|
--------------------------------|------6-4-------|------6-4-------|
-----4--5--------4--2-L---------|----------7-5-4-|----------7-5-4-|
--------------------------------|----------------|----------------|
--2--------3--2---------0-2--3--|----------------|----------------|


  S S S S S S S    S S S S S S S  
----------------|----------------|
----------------|----------------|
--6-4-----------|--6-4-----------|
------6-4-------|------6-4-------|
----------7-5-4-|----------7-5-4-|
----------------|----------------|
----------------|----------------|


  |--6-| |--6-| |--6-| |--6-| |--6-| |--6-| |--6-| |--6-| |--6-| |--6-| |--6-| |
  S S  S S S  S S S  S S S  S S S  S S S  S S S  S S S  S S S  S S S  S S S  S S
--------------------------------------------------------------------------------
--8-9-11-8-9-11-8-9-11-8-9-11-8-9-11-8-9-11-8-9-11-8-9-11-8-9-11-8-9-11-8-9-11-8
--------------------------------------------------------------------------------
--------------------------------------------------------------------------------
--------------------------------------------------------------------------------
--------------------------------------------------------------------------------
--------------------------------------------------------------------------------


  |--6--|  |--6--|  |--6-|  |--6--|  |--6--|  |--6-|  |--6--|  |--6--| |--6--|  
  S  S  S  S  S  S  S  S S  S  S  S  S  S  S  S S  S  S  S  S  S  S  S S  S  S  
--------------------------------------------------------------------------------
--9-11-12-14-16-14-12-11-9-11-12-14-16-14-12-11-9-11-12-14-16-14-12-11-9-11-12-1
--------------------------------------------------------------------------------
--------------------------------------------------------------------------------
--------------------------------------------------------------------------------
--------------------------------------------------------------------------------
--------------------------------------------------------------------------------


   7  7  7  7  7  7  7  7  7 7  7 7  7 7 7  7 7 7 7  7 7 7  7 7 7 7  7 7 7 7 7  
   S  S  S  T  T  T  T  S  S S  S S  S S S  S S S S  S S S  S S S S  S S S S S  
--------------------------------------------------------------------------------
--16-14-12-16-14-16-14-12-11-9S-8-9-11-9-8--------------------------------------
-------------------------------------------11-9-8-9-11-9-8----------------------
-----------------------------------------------------------11-9-8-9-11-9-8-9-8S-
--------------------------------------------------------------------------------
--------------------------------------------------------------------------------
--------------------------------------------------------------------------------


  |-6-| |-6-| |-6-| |-6-| |-6-| |-6-| |-6-| |-6-| |-6-| |-6-| |-6-| |-6-| |-6-| 
  S S S S S S S S S S S S S S S S S S S S S S S S S S S S S S S S S S S S S S S 
--------------------------------------------------------------------------------
--------------------------------------------------------------------------------
--------------------------------------------------------------------------------
--------------------------------------------------------------------------------
--6-4-2-4-6-4-6-4-2-------------------------------------------6-6-6-6-6-6-6-6-6-
--------------------6-4-3-4-6-4-6-4-3-------------------------------------------
--------------------------------------5-4-2-4-5-4-5-4-2-4-4-4-------------------


    H.            T T T T  E    Q.      E   
---------------------------------------11--|
--------------------------14b~--L----------|
------------------------x------------------|
----------------------x--------------------|
--<>6~--------------x----------------------|
------------------x------------------------|
-------------------------------------------|


   E    S  S   S  S  S  S  S  S  S  S  S  S  S  S  S  S  S  S  S  S  S  S  Q    
-------11-----11-12-11-12-11----11-12-15-11-12----11----------------------------
--14b-----14b----------------14----------------14----12-14-11-12----11----------
-----------------------------------------------------------------13----13-12~---
--------------------------------------------------------------------------------
--------------------------------------------------------------------------------
--------------------------------------------------------------------------------
--------------------------------------------------------------------------------


   |--6--|  |--6--|  |--6--|  |--6--|  |--6--|  |--6--|  |--6--|  |--6--|  |--6-
   S  S  S  S  S  S  S  S  S  S  S  S  S  S  S  S  S  S  S  S  S  S  S  S  S  S 
--------------------------------------------------------11-12-11----11-12-11----
--16-14-12-14-16-14-12-------------------------11-12-14----------14----------14-
-----------------------15-13-12-13-15-13-12-13----------------------------------
--------------------------------------------------------------------------------
--------------------------------------------------------------------------------
--------------------------------------------------------------------------------
--------------------------------------------------------------------------------


   |--6--|  |--6--|  |--6--|  |--6--|  |--6--|  |--6--|  |--6--|  |--6--|  |--6-
   S  S  S  S  S  S  S  S  S  S  S  S  S  S  S  S  S  S  S  S  S  S  S  S  S  S 
--15-16-15-12-15-16-15-12-------------------------12-15-18-16-15-16-18-16-15----
--------------------------16-14-12-14-16-14-12-16----------------------------17-
--------------------------------------------------------------------------------
--------------------------------------------------------------------------------
--------------------------------------------------------------------------------
--------------------------------------------------------------------------------
--------------------------------------------------------------------------------


  S S S S S S S    S S S S S S S    S S S S S S S    S S S S S S S  
----------------|----------------|----------------|----------------|
----------------|----------------|----------------|----------------|
--8-6-----------|--8-6-----------|--8-6-----------|--8-6-----------|
------8-6-------|------8-6-------|------8-6-------|------8-6-------|
----------9-7-6-|----------9-7-6-|----------9-7-6-|----------9-7-6-|
----------------|----------------|----------------|----------------|
----------------|----------------|----------------|----------------|


  S S S S S E.  Q       S S S S S S S S S S S S S S S S  
---------------------|----------------------------------|
---------------------|----------------------------------|
---------------------|----------------------------------|
------6-8------------|------------------------4-5-7-5-4-|
--7-9-----6----------|--------2-3-5-3-2-3-5-7-----------|
---------------------|--2-3-5---------------------------|
---------------------|----------------------------------|


  S S S S S S S S S S S S S S S S    S S S S S S S S S S S S S S S S  
----------------------------------|----------------------------------|
----------------------------------|----------------------------------|
--------5-7-9-7-5-----------------|----------------------------------|
--5-7-9-----------9-7-5-9-7-5---5-|--------4-5-7-5-4-----------------|
------------------------------9---|--3-5-7-----------7-5-3-7-5-3---3-|
----------------------------------|------------------------------7---|
----------------------------------|----------------------------------|


  S S S S S S S S S S S S S S S S    S S S S S S S S S S S S S S S S  
----------------------------------|----------------------------------|
----------------------------------|----------------------------------|
----------------------------------|----------------------------------|
----------------------------------|------------------------4-5-7-5-4-|
--------2-3-5-3-2-----------------|--------2-3-5-3-2-3-5-7-----------|
--2-3-5-----------5-3-2-5-3-2---2-|--2-3-5---------------------------|
------------------------------5---|----------------------------------|


  S S S S S S S S  S  S  S  S  S  S  S  S  
------------------------------------------|
---------------------------10-12-13-12-10-|
--------5-7-9-7-5S-9-11-12----------------|
--5-7-9-----------------------------------|
------------------------------------------|
------------------------------------------|
------------------------------------------|


   S S S  S S S  S S  S S S S S S S S    S S S S S S S S S S S S S S S S  
--------------------------------------|----------------------------------|
--------------------------------------|----------------------------------|
--11-9-7-11-9-7----7------------------|----------------------------------|
----------------10---10-9-7-5-7-9-7-5-|--4-7-5-4-------------------------|
--------------------------------------|----------7-5-3-7-5-3---5-3-------|
--------------------------------------|----------------------7-----7-5-3-|
--------------------------------------|----------------------------------|


  S S S S S S S S S S S S S S    S S S S S S S S S S S S S S  
------------------------------|------------------------------|
------------------------------|------------------------------|
------------------------------|------------------------------|
------------------------------|------------------------------|
--------2-3-5-3-2-------------|------------------------------|
--2-3-5-----------5-3-2-5-3-2-|--------5-7-8-7-5-------------|
------------------------------|--5-7-8-----------8-7-5-8-7-5-|


  S S S S S S S S S S S S S S  
------------------------------|
------------------------------|
------------------------------|
------------------------------|
------------------------------|
--------3-5-7-5-3-------------|
--3-5-7-----------7-5-3-7-5-3-|


  S S S S S S S S S S S S S S S S S S S S S S S S  
--------------------------------------------------|
--------------------------------------------------|
--------------------------------------------------|
----------------------------------------5-7-9-7-5-|
------------------------3-5-7-5-3-5-7-9-----------|
--------2-3-5-3-2-3-5-7---------------------------|
--1-3-5-------------------------------------------|


  S  S S S  S S S S  S S S  S S S     S  S  S S  S  S S  S  S S  S  S S  S  
----------------------------------|----------------------------------------|
----------------------------------|----------------------------------------|
----------------------------------|----------------------------------------|
--9-10-9-7--------------------7-9-|--10-12-10-9-----------------------9-10-|
-----------10-9-7-9-10-7-9-10-----|-------------12-10-9-12-10-9-10-12------|
----------------------------------|----------------------------------------|
----------------------------------|----------------------------------------|


   S  S  S  S  S  S  S  S  S  S  S  S  S  S  
--------------------------------------------|
--------------------------------------------|
--------------------------------------------|
--12-14-12-10-------------------------10-12-|
--------------14-12-10-14-12-10-12-14-------|
--------------------------------------------|
--------------------------------------------|


   S  S  S  S  S  S  S  S  S  S  S  S  Q      
---------------------------------------------|
---------------------------------------------|
---------------------------------------------|
--16-17-16-14--------------------------------|
--------------17-15-14-17-15-14--------------|
--------------------------------17-15-14~----|
---------------------------------------------|


   S  S S  S  S S  S  S  S  S S  S  S S  S  S  
----------------------------------------------|
----------------------------------------------|
----------------------------------------------|
----------------9-10-12-12-10-9---------------|
--12-10-9-10-12-----------------12-10-9-10-12-|
----------------------------------------------|
----------------------------------------------|


   S  S  S  S  S  S  S  S  S  S  S  S  S  S  S  S  
--------------------------------------------------|
--------------------------------------------------|
--------------------------------------------------|
-----------------------10-12-10-------------------|
--14-12-10----10-12-14----------14-12-10----10-12-|
-----------14----------------------------14-------|
--------------------------------------------------|


   S  S  S  S  S  S  S  S  S  S  S  S  S  S  S  S  
--------------------------------------------------|
--------------------------------------------------|
--------------------------------------------------|
--------------------------------------------------|
--14-12-10----10-12-14-12-10----10-12-14-12-10----|
-----------14----------------14----------------14-|
--------------------------------------------------|


   S  S  S  S  S  S  S  S  S  S  S  S  Q      
---------------------------------------------|
---------------------------------------------|
---------------------------------------------|
-----------10-12-10--------------------------|
--10-12-14----------14-12-10----10-12-14~----|
-----------------------------14--------------|
---------------------------------------------|


   S  S  S  S  S  S  S  S  S  S  S  S  E   S  S  
------------------------------------------------|
--------------------12-13-15-13-12--------------|
--16-14-12----12-14----------------14-12--12-14-|
-----------16-----------------------------------|
------------------------------------------------|
------------------------------------------------|
------------------------------------------------|


   S  S  S  S  S  S  S  S  S  S  S  S  S  S  S  S  
--------------------------------------------------|
--------------------12-13-15-13-12----------------|
--16-14-12----12-14----------------14-12-11-12-14-|
-----------16-------------------------------------|
--------------------------------------------------|
--------------------------------------------------|
--------------------------------------------------|


   S  S  S  S  S  S  S  S  S  S  S  S  S  S  S  S  
--------------------------------------------------|
--------------------------------------------------|
--16-14-12----12-14-16-14-12----12-14-16-14-12----|
-----------16----------------16----------------16-|
--------------------------------------------------|
--------------------------------------------------|
--------------------------------------------------|


   S  S  S  S  S  S  S  S  S  S  S  S  Q      
---------------------------------------------|
--------12-13-15-13-12-----------------------|
--12-14----------------14-12----12-14-16~----|
-----------------------------16--------------|
---------------------------------------------|
---------------------------------------------|
---------------------------------------------|


  S S  S S S  S S S S  S  S S  S  S  S S  
-----------------------------------------|
-----------------------------------------|
----------------------------9-11-12-11-9-|
---------7-9-10-9-7-9-10-12--------------|
--7-9-10---------------------------------|
-----------------------------------------|
-----------------------------------------|


   S  S  S  S  S  S  S  S  S  S  S  S  S  S  S  S  S  S  S  S  
-----------------------------------14-15-17-15-14----------20-|
-----------12-13-15-13-12-13-15-17----------------20-22-24----|
--11-12-14----------------------------------------------------|
--------------------------------------------------------------|
--------------------------------------------------------------|
--------------------------------------------------------------|
--------------------------------------------------------------|


   S  S  S  S  S  S  S  S  S  S  S  S  S  S  S  S  
--22-24-22-20-------------------------------------|
--------------24-22-20-24-22-20-19-22-20-19----19-|
--------------------------------------------21----|
--------------------------------------------------|
--------------------------------------------------|
--------------------------------------------------|
--------------------------------------------------|


   S  S  S  S  S  S  S  S  S  S  S  S  S  S  S  S  
--15-17-15-14-------------------------------------|
--------------17-15-13-17-15-13-12-15-13-12----12-|
--------------------------------------------14----|
--------------------------------------------------|
--------------------------------------------------|
--------------------------------------------------|
--------------------------------------------------|


   S  S  S  S  S  S  S  S  S  S  S  S  S  S  S  S  
--------------------------------------------------|
--13-15-13-12-------------------------------------|
--------------14-12-11-14-12-11----12-11----------|
--------------------------------14-------14-12-14-|
--------------------------------------------------|
--------------------------------------------------|
--------------------------------------------------|


   S  S  S S  S  S S  S  S S  S  S S  S  S S  
---------------------------------------------|
---------------------------------------------|
--11-12-11-9---------------------------------|
-------------12-10-9-12-10-9----10-9---------|
-----------------------------12------12-10-9-|
---------------------------------------------|
---------------------------------------------|


  S S  S S S  S S S S  S  S S  S  S  S S  
-----------------------------------------|
-----------------------------------------|
----------------------------9-11-12-11-9-|
---------7-9-10-9-7-9-10-12--------------|
--7-9-10---------------------------------|
-----------------------------------------|
-----------------------------------------|


   S  S  S  S  S  S  S  S  S  S  S  S  S  S  S  S  S  S  S  S  
-----------------------------------14-15-17-15-14----------20-|
-----------12-13-15-13-12-13-15-17----------------20-22-24----|
--11-12-14----------------------------------------------------|
--------------------------------------------------------------|
--------------------------------------------------------------|
--------------------------------------------------------------|
--------------------------------------------------------------|


   S  S  S  S  S  S  S  S  S  S  S  S  S  S  
--22-24-22-20----------------------------19-|
--------------24-22-20-24-22-20-19-20-22----|
--------------------------------------------|
--------------------------------------------|
--------------------------------------------|
--------------------------------------------|
--------------------------------------------|


   S  S  S  S  S  S  S  S  S  S  S  S  S  S  
--20-22-20-19-------------------------------|
--------------22-20-19-22-20-19----19-20-22-|
--------------------------------21----------|
--------------------------------------------|
--------------------------------------------|
--------------------------------------------|
--------------------------------------------|


   S  S  S  S  S  S  S  S  S  S  S  S  S  S  
--19-20-19-17-------------------------------|
--------------20-19-17-20-19-17----17-19-20-|
--------------------------------19----------|
--------------------------------------------|
--------------------------------------------|
--------------------------------------------|
--------------------------------------------|


   S  S  S  S  S  S  S  S  S  S  S  S  S  S  
--17-19-17-15-------------------------------|
--------------19-17-15-19-17-15----15-17-19-|
--------------------------------17----------|
--------------------------------------------|
--------------------------------------------|
--------------------------------------------|
--------------------------------------------|


   S  S  S  S  S  S  S  S  S  S  S  S  S  S  
--15-17-15-14-------------------------------|
--------------17-15-13-17-15-13-12-13-15-17-|
--------------------------------------------|
--------------------------------------------|
--------------------------------------------|
--------------------------------------------|
--------------------------------------------|


   S  S  S  S  S  S  S  S  S  S  E   S  S S  S  
--14-15-14-12----------------------------------|
--------------15-13-12-15-13-12-13--12-10-8-10-|
-----------------------------------------------|
-----------------------------------------------|
-----------------------------------------------|
-----------------------------------------------|
-----------------------------------------------|


   S  S  S  S  S  S S  S  S S  S  S S  S  S  S  
-----------------------------------------------|
--12-13-12-10----------------------------------|
--------------12-11-9-12-11-9----11-9----------|
------------------------------12------12-10-12-|
-----------------------------------------------|
-----------------------------------------------|
-----------------------------------------------|


  S  S S S  S S S  S S S  S S S  S S  S    S S S S S S S S S S S S S S S S  
----------------------------------------|----------------------------------|
----------------------------------------|----------------------------------|
--9-11-9-7------------------------------|----------------------------------|
-----------10-9-7-10-9-7----9-7---------|--7-9-7-5-------------------------|
-------------------------10-----10-9-10-|----------9-7-5-9-7-5---7-5-------|
----------------------------------------|----------------------8-----8-5-7-|
----------------------------------------|----------------------------------|


  S S S S S S S S S S S S S S S S    S S S S S S S S S S S S S S S S  
----------------------------------|----------------------------------|
----------------------------------|----------------------------------|
----------------------------------|----------------------------------|
----------------------------------|----------------------------------|
----------------------------------|----------------------------------|
--7-8-7-5---------------2---------|--2-3-2-----------2-3-2-----------|
----------8-7-5-8-7-5-3---5-3-1-3-|--------5-3-1-3-5-------5-3-1-0-1-|


  PM PM PM PM PM PM PM PM PM         PM PM PM PM PM PM PM PM PM            
  S  S  S  S  E  S  E  S  E  Q       S  S  S  S  E  S  E  S  E  H          
----------------------------------|--------------------------------------||
----------------------------------|--------------------------------------||
----------------------------------|-----------------------------5--------||
----------------------------------|-----------------------------4--------||
----------------------------------|-----------------------------3--------||
----------------------------------|--------------------------------------||
--0--0--0--0--0--0--0--0--0-------|--0--0--0--0--0--0--0--0--0-----------||

**************************************************
**************************************************
**************************************************

Guitar 2

H        Q       W                   W                   W                 
E||----------------|-------------------|-------------------|-------------------|
B||----------------|-------------------|-------------------|-------------------|
G||----------------|-------------------|-------------------|-------------------|
D||----------------|-------------------|-------------------|-------------------|
A||----------------|-------------------|-------------------|-------------------|
E||----------------|-------------------|-------------------|-------------------|
B||----------------|-------------------|-------------------|-------------------|


  W                   W                   W                   W                 
-------------------|-------------------|-------------------|-------------------|
-------------------|-------------------|-------------------|-------------------|
-------------------|-------------------|-------------------|-------------------|
-------------------|-------------------|-------------------|-------------------|
-------------------|-------------------|-------------------|-------------------|
-------------------|-------------------|-------------------|-------------------|
-------------------|-------------------|-------------------|-------------------|


  W                   W                   W                   W                 
-------------------|-------------------|-------------------|-------------------|
-------------------|-------------------|-------------------|-------------------|
-------------------|-------------------|-------------------|-------------------|
-------------------|-------------------|-------------------|-------------------|
-------------------|-------------------|-------------------|-------------------|
-------------------|-------------------|-------------------|-------------------|
-------------------|-------------------|-------------------|-------------------|


  W                   W                   W                   W                 
-------------------|-------------------|-------------------|-------------------|
-------------------|-------------------|-------------------|-------------------|
-------------------|-------------------|-------------------|-------------------|
-------------------|-------------------|-------------------|-------------------|
-------------------|-------------------|-------------------|-------------------|
-------------------|-------------------|-------------------|-------------------|
-------------------|-------------------|-------------------|-------------------|


  W                   W                   W                   W                 
-------------------|-------------------|-------------------|-------------------|
-------------------|-------------------|-------------------|-------------------|
-------------------|-------------------|-------------------|-------------------|
-------------------|-------------------|-------------------|-------------------|
-------------------|-------------------|-------------------|-------------------|
-------------------|-------------------|-------------------|-------------------|
-------------------|-------------------|-------------------|-------------------|


  H        Q    E     W                   W                   W                 
-------------------|-------------------|-------------------|-------------------|
-------------------|-------------------|-------------------|-------------------|
-------------------|-------------------|-------------------|-------------------|
-------------------|-------------------|-------------------|-------------------|
-------------------|-------------------|-------------------|-------------------|
-------------------|-------------------|-------------------|-------------------|
-------------------|-------------------|-------------------|-------------------|


  W                Q       E  E  E  E  E  E  E  E     E  E  H        Q     
------------------------|--------------------------|----------------------|
------------------------|--------------------------|----------------------|
------------------------|--------------------------|----------------------|
------------------------|--------------------------|----------------------|
------------------------|--------------------------|----------------------|
------------------------|--2--4-----4-----4--5--4--|-----4----------------|
------------------------|--0--2-----2-----2--3--2--|-----2----------------|


  E  E  E  E  E  E  E  E     E  E  H        Q       E  E  E  E  E  E  E  E   
--------------------------|----------------------|--------------------------|
--------------------------|----------------------|--------------------------|
--------------------------|----------------------|--------------------------|
--------------------------|----------------------|--------------------------|
--------------------------|----------------------|--------------------------|
--2--4-----4-----4--5--4--|-----4----------------|--2--4-----4-----4--5--4--|
--0--2-----2-----2--3--2--|-----2----------------|--0--2-----2-----2--3--2--|


  E  E  H        Q       E  E  E  E  E  E  E  E     E  E  H        Q     
----------------------|--------------------------|----------------------|
----------------------|--------------------------|----------------------|
----------------------|--------------------------|----------------------|
----------------------|--------------------------|----------------------|
----------------------|--------------------------|----------------------|
-----4----------------|--2--4-----4-----4--5--4--|-----4----------------|
-----2----------------|--0--2-----2-----2--3--2--|-----2----------------|


  S S S S Q    E  E  E  E  Q    S S S S  
----------------------------------------|
----------------------------------------|
--4-5-4---4----4-----4--5--4----4-5-4---|
--------7---------7-------------------7-|
----------------------------------------|
----------------------------------------|
----------------------------------------|


  E    E   Q     E   E   E   E   H          
-------------------------------------------|
-------------------------------------------|
--4S--11--11----11------11--12--11~--------|
--------------------14---------------------|
-------------------------------------------|
-------------------------------------------|
-------------------------------------------|


  S S S S Q    E  E  E  E  Q     E   E   
----------------------------------------|
--------------------------------15--17--|
--4-5-4---4----4-----4--5--4------------|
--------7---------7---------------------|
----------------------------------------|
----------------------------------------|
----------------------------------------|


                  |--3--|                    
   H          E   S  S  S  H         E   E   
--14~---------------------------------------|
-------------17--15-17-15-------------------|
--------------------------14--------14S--7--|
--------------------------------------------|
--------------------------------------------|
--------------------------------------------|
--------------------------------------------|


  S S S S Q     Q     S S S S S S S S S S S S  
----------------------------------------------|
---------------------10-0-8-0-7-0-5-0-7-0-8-0-|
--4-5-4---4~----4-----------------------------|
--------7-------------------------------------|
----------------------------------------------|
----------------------------------------------|
----------------------------------------------|


  S S S S E    E   E   E   S  S  S  S  Q     S  S  S  S  
-----------------------------------------------------11-|
--7-8-7---7S--12--12------12-13-12----12----12-13-15----|
--------9-------------14-----------14-------------------|
--------------------------------------------------------|
--------------------------------------------------------|
--------------------------------------------------------|
--------------------------------------------------------|


   |--3--|                                |--3--|                               
   S  S  S  S  S  S  S  S  S  S  S  S  S  S  S  S  S  S  S  S  S  S  S  S  S  S 
--12-11-12----12----------------12-14-15----------------------------------------
-----------15----15-13-12-13-15----------12-13-12----12----------------12-13-15-
--------------------------------------------------14----14-12----12-14----------
--------------------------------------------------------------16----------------
--------------------------------------------------------------------------------
--------------------------------------------------------------------------------
--------------------------------------------------------------------------------


   |--3--|                                                                    
   S  S  S  S  S  S  S  S  S  S  S  S  S  S  S  S  S  S  S  S  S  S  S  S  S  
--------------------------------------------------12-14-15-12-14-15-14-15-17-|
-----------------------------------------12-13-15----------------------------|
--11-12-11----11----------------11-12-14-------------------------------------|
-----------14----14-12-10-12-14----------------------------------------------|
-----------------------------------------------------------------------------|
-----------------------------------------------------------------------------|
-----------------------------------------------------------------------------|


   H          Q     H           W                Q       W                Q     
--19~--------19\-------------|------------------------|------------------------|
-----------------------------|------------------------|------------------------|
-----------------------------|------------------------|------------------------|
-----------------------------|------------------------|------------------------|
-----------------------------|------------------------|------------------------|
-----------------------------|------------------------|------------------------|
-----------------------------|------------------------|------------------------|


  W                Q       W                Q       W                Q     
------------------------|------------------------|------------------------|
------------------------|------------------------|------------------------|
------------------------|------------------------|------------------------|
------------------------|------------------------|------------------------|
------------------------|------------------------|------------------------|
------------------------|------------------------|------------------------|
------------------------|------------------------|------------------------|


  W                Q       W                H           W                Q     
------------------------|----------------------------|------------------------|
------------------------|----------------------------|------------------------|
------------------------|----------------------------|------------------------|
------------------------|----------------------------|------------------------|
------------------------|----------------------------|------------------------|
------------------------|----------------------------|------------------------|
------------------------|----------------------------|------------------------|


  W                Q       W                Q       W                Q     
------------------------|------------------------|------------------------|
------------------------|------------------------|------------------------|
------------------------|------------------------|------------------------|
------------------------|------------------------|------------------------|
------------------------|------------------------|------------------------|
------------------------|------------------------|------------------------|
------------------------|------------------------|------------------------|


  W                Q       W                Q       W                Q     
------------------------|------------------------|------------------------|
------------------------|------------------------|------------------------|
------------------------|------------------------|------------------------|
------------------------|------------------------|------------------------|
------------------------|------------------------|------------------------|
------------------------|------------------------|------------------------|
------------------------|------------------------|------------------------|


  W                H           W                H         
----------------------------|----------------------------|
----------------------------|----------------------------|
----------------------------|----------------------------|
----------------------------|----------------------------|
----------------------------|----------------------------|
----------------------------|----------------------------|
----------------------------|----------------------------|


  W                H           W                H         
----------------------------|----------------------------|
----------------------------|----------------------------|
----------------------------|----------------------------|
----------------------------|----------------------------|
----------------------------|----------------------------|
----------------------------|----------------------------|
----------------------------|----------------------------|


  W                H           W                H         
----------------------------|----------------------------|
----------------------------|----------------------------|
----------------------------|----------------------------|
----------------------------|----------------------------|
----------------------------|----------------------------|
----------------------------|----------------------------|
----------------------------|----------------------------|


  W                H           W                H         
----------------------------|----------------------------|
----------------------------|----------------------------|
----------------------------|----------------------------|
----------------------------|----------------------------|
----------------------------|----------------------------|
----------------------------|----------------------------|
----------------------------|----------------------------|


  W                H           W                H         
----------------------------|----------------------------|
----------------------------|----------------------------|
----------------------------|----------------------------|
----------------------------|----------------------------|
----------------------------|----------------------------|
----------------------------|----------------------------|
----------------------------|----------------------------|


  W                H           W                H         
----------------------------|----------------------------|
----------------------------|----------------------------|
----------------------------|----------------------------|
----------------------------|----------------------------|
----------------------------|----------------------------|
----------------------------|----------------------------|
----------------------------|----------------------------|


  W                H           W                H         
----------------------------|----------------------------|
----------------------------|----------------------------|
----------------------------|----------------------------|
----------------------------|----------------------------|
----------------------------|----------------------------|
----------------------------|----------------------------|
----------------------------|----------------------------|


  W                H           W                H         
----------------------------|----------------------------|
----------------------------|----------------------------|
----------------------------|----------------------------|
----------------------------|----------------------------|
----------------------------|----------------------------|
----------------------------|----------------------------|
----------------------------|----------------------------|


  W                H           W                H         
----------------------------|----------------------------|
----------------------------|----------------------------|
----------------------------|----------------------------|
----------------------------|----------------------------|
----------------------------|----------------------------|
----------------------------|----------------------------|
----------------------------|----------------------------|


  W                H           W                H         
----------------------------|----------------------------|
----------------------------|----------------------------|
----------------------------|----------------------------|
----------------------------|----------------------------|
----------------------------|----------------------------|
----------------------------|----------------------------|
----------------------------|----------------------------|


  W                H           W                H         
----------------------------|----------------------------|
----------------------------|----------------------------|
----------------------------|----------------------------|
----------------------------|----------------------------|
----------------------------|----------------------------|
----------------------------|----------------------------|
----------------------------|----------------------------|


  W                H           W                H         
----------------------------|----------------------------|
----------------------------|----------------------------|
----------------------------|----------------------------|
----------------------------|----------------------------|
----------------------------|----------------------------|
----------------------------|----------------------------|
----------------------------|----------------------------|


  W                H           W                H         
----------------------------|----------------------------|
----------------------------|----------------------------|
----------------------------|----------------------------|
----------------------------|----------------------------|
----------------------------|----------------------------|
----------------------------|----------------------------|
----------------------------|----------------------------|


  W                H           W                H         
----------------------------|----------------------------|
----------------------------|----------------------------|
----------------------------|----------------------------|
----------------------------|----------------------------|
----------------------------|----------------------------|
----------------------------|----------------------------|
----------------------------|----------------------------|


  W                H           W                H         
----------------------------|----------------------------|
----------------------------|----------------------------|
----------------------------|----------------------------|
----------------------------|----------------------------|
----------------------------|----------------------------|
----------------------------|----------------------------|
----------------------------|----------------------------|


  W                H           W                H         
----------------------------|----------------------------|
----------------------------|----------------------------|
----------------------------|----------------------------|
----------------------------|----------------------------|
----------------------------|----------------------------|
----------------------------|----------------------------|
----------------------------|----------------------------|


  W                H           W                H         
----------------------------|----------------------------|
----------------------------|----------------------------|
----------------------------|----------------------------|
----------------------------|----------------------------|
----------------------------|----------------------------|
----------------------------|----------------------------|
----------------------------|----------------------------|


  W                H           W                H         
----------------------------|----------------------------|
----------------------------|----------------------------|
----------------------------|----------------------------|
----------------------------|----------------------------|
----------------------------|----------------------------|
----------------------------|----------------------------|
----------------------------|----------------------------|


  W                H           W                H         
----------------------------|----------------------------|
----------------------------|----------------------------|
----------------------------|----------------------------|
----------------------------|----------------------------|
----------------------------|----------------------------|
----------------------------|----------------------------|
----------------------------|----------------------------|


  W                H           W                H         
----------------------------|----------------------------|
----------------------------|----------------------------|
----------------------------|----------------------------|
----------------------------|----------------------------|
----------------------------|----------------------------|
----------------------------|----------------------------|
----------------------------|----------------------------|


  W                H           S S S S Q    E  E  E  E  Q    S S S S  
----------------------------|----------------------------------------|
----------------------------|----------------------------------------|
----------------------------|--4-5-4---4----4-----4--5--4----4-5-4---|
----------------------------|--------7---------7-------------------7-|
----------------------------|----------------------------------------|
----------------------------|----------------------------------------|
----------------------------|----------------------------------------|


  E    E   Q     E   E   E   E   H          
-------------------------------------------|
-------------------------------------------|
--4S--11--11----11------11--12--11~--------|
--------------------14---------------------|
-------------------------------------------|
-------------------------------------------|
-------------------------------------------|


  S S S S Q    E  E  E  E  Q     E   E   
----------------------------------------|
--------------------------------15--17--|
--4-5-4---4----4-----4--5--4------------|
--------7---------7---------------------|
----------------------------------------|
----------------------------------------|
----------------------------------------|


                  |--3--|                    
   H          E   S  S  S  H         E   E   
--14~---------------------------------------|
-------------17--15-17-15-------------------|
--------------------------14--------14S--7--|
--------------------------------------------|
--------------------------------------------|
--------------------------------------------|
--------------------------------------------|


  S S S S Q     Q     S S S S S S S S S S S S  
----------------------------------------------|
---------------------10-0-8-0-7-0-5-0-7-0-8-0-|
--4-5-4---4~----4-----------------------------|
--------7-------------------------------------|
----------------------------------------------|
----------------------------------------------|
----------------------------------------------|


  S S S S E    E   E   E   S  S  S  S  Q     S  S  S  S  
-----------------------------------------------------11-|
--7-8-7---7S--12--12------12-13-12----12----12-13-15----|
--------9-------------14-----------14-------------------|
--------------------------------------------------------|
--------------------------------------------------------|
--------------------------------------------------------|
--------------------------------------------------------|


   S  S  S  S  Q     E   E   E   E   Q     E   E   
--15-17-15----15----15------15--17--15----17--19--|
-----------19-----------19------------------------|
--------------------------------------------------|
--------------------------------------------------|
--------------------------------------------------|
--------------------------------------------------|
--------------------------------------------------|


               |--3--|                                                
   Q       E   S  S  S  E   E   H          Q        W                 
--19br----17--15-17-15-----15--------------------|-------------------|
-----------------------19------19~--------19\----|-------------------|
-------------------------------------------------|-------------------|
-------------------------------------------------|-------------------|
-------------------------------------------------|-------------------|
-------------------------------------------------|-------------------|
-------------------------------------------------|-------------------|


  W                   W                   W                   H        Q    E   
-------------------|-------------------|-------------------|-------------------|
-------------------|-------------------|-------------------|-------------------|
-------------------|-------------------|-------------------|-------------------|
-------------------|-------------------|-------------------|-------------------|
-------------------|-------------------|-------------------|-------------------|
-------------------|-------------------|-------------------|-------------------|
-------------------|-------------------|-------------------|-------------------|


  W                   W                   W                   W                 
-------------------|-------------------|-------------------|-------------------|
-------------------|-------------------|-------------------|-------------------|
-------------------|-------------------|-------------------|-------------------|
-------------------|-------------------|-------------------|-------------------|
-------------------|-------------------|-------------------|-------------------|
-------------------|-------------------|-------------------|-------------------|
-------------------|-------------------|-------------------|-------------------|


  W                   W                   W                   H        Q    E   
-------------------|-------------------|-------------------|-------------------|
-------------------|-------------------|-------------------|-------------------|
-------------------|-------------------|-------------------|-------------------|
-------------------|-------------------|-------------------|-------------------|
-------------------|-------------------|-------------------|-------------------|
-------------------|-------------------|-------------------|-------------------|
-------------------|-------------------|-------------------|-------------------|


  W                   W                   W                 
-------------------|-------------------|-------------------|
-------------------|-------------------|-------------------|
-------------------|-------------------|-------------------|
-------------------|-------------------|-------------------|
-------------------|-------------------|-------------------|
-------------------|-------------------|-------------------|
-------------------|-------------------|-------------------|


  W                Q       W                   W                 
------------------------|-------------------|-------------------|
------------------------|-------------------|-------------------|
------------------------|-------------------|-------------------|
------------------------|-------------------|-------------------|
------------------------|-------------------|-------------------|
------------------------|-------------------|-------------------|
------------------------|-------------------|-------------------|


  W                   W                   W                   W                 
-------------------|-------------------|-------------------|-------------------|
-------------------|-------------------|-------------------|-------------------|
-------------------|-------------------|-------------------|-------------------|
-------------------|-------------------|-------------------|-------------------|
-------------------|-------------------|-------------------|-------------------|
-------------------|-------------------|-------------------|-------------------|
-------------------|-------------------|-------------------|-------------------|


  W                   W                   W                H         
-------------------|-------------------|----------------------------|
-------------------|-------------------|----------------------------|
-------------------|-------------------|----------------------------|
-------------------|-------------------|----------------------------|
-------------------|-------------------|----------------------------|
-------------------|-------------------|----------------------------|
-------------------|-------------------|----------------------------|


  W                H           W                H         
----------------------------|----------------------------|
----------------------------|----------------------------|
----------------------------|----------------------------|
----------------------------|----------------------------|
----------------------------|----------------------------|
----------------------------|----------------------------|
----------------------------|----------------------------|


  W                H           W                   W                 
----------------------------|-------------------|-------------------|
----------------------------|-------------------|-------------------|
----------------------------|-------------------|-------------------|
----------------------------|-------------------|-------------------|
----------------------------|-------------------|-------------------|
----------------------------|-------------------|-------------------|
----------------------------|-------------------|-------------------|


  W                   H        Q    E     W                   W                 
-------------------|-------------------|-------------------|-------------------|
-------------------|-------------------|-------------------|-------------------|
-------------------|-------------------|-------------------|-------------------|
-------------------|-------------------|-------------------|-------------------|
-------------------|-------------------|-------------------|-------------------|
-------------------|-------------------|-------------------|-------------------|
-------------------|-------------------|-------------------|-------------------|


  W                   W                Q       W                 
-------------------|------------------------|-------------------|
-------------------|------------------------|-------------------|
-------------------|------------------------|-------------------|
-------------------|------------------------|-------------------|
-------------------|------------------------|-------------------|
-------------------|------------------------|-------------------|
-------------------|------------------------|-------------------|


  W                   W                   W                   W                 
-------------------|-------------------|-------------------|-------------------|
-------------------|-------------------|-------------------|-------------------|
-------------------|-------------------|-------------------|-------------------|
-------------------|-------------------|-------------------|-------------------|
-------------------|-------------------|-------------------|-------------------|
-------------------|-------------------|-------------------|-------------------|
-------------------|-------------------|-------------------|-------------------|


  W                   W                   W                 
-------------------|-------------------|-------------------|
-------------------|-------------------|-------------------|
-------------------|-------------------|-------------------|
-------------------|-------------------|-------------------|
-------------------|-------------------|-------------------|
-------------------|-------------------|-------------------|
-------------------|-------------------|-------------------|


  W                H           W                H         
----------------------------|----------------------------|
----------------------------|----------------------------|
----------------------------|----------------------------|
----------------------------|----------------------------|
----------------------------|----------------------------|
----------------------------|----------------------------|
----------------------------|----------------------------|


  W                H           W                H         
----------------------------|----------------------------|
----------------------------|----------------------------|
----------------------------|----------------------------|
----------------------------|----------------------------|
----------------------------|----------------------------|
----------------------------|----------------------------|
----------------------------|----------------------------|


  W                H           W                H         
----------------------------|----------------------------|
----------------------------|----------------------------|
----------------------------|----------------------------|
----------------------------|----------------------------|
----------------------------|----------------------------|
----------------------------|----------------------------|
----------------------------|----------------------------|


  W                H           W                H         
----------------------------|----------------------------|
----------------------------|----------------------------|
----------------------------|----------------------------|
----------------------------|----------------------------|
----------------------------|----------------------------|
----------------------------|----------------------------|
----------------------------|----------------------------|


  W                H           W                H         
----------------------------|----------------------------|
----------------------------|----------------------------|
----------------------------|----------------------------|
----------------------------|----------------------------|
----------------------------|----------------------------|
----------------------------|----------------------------|
----------------------------|----------------------------|


  W                H           W                H         
----------------------------|----------------------------|
----------------------------|----------------------------|
----------------------------|----------------------------|
----------------------------|----------------------------|
----------------------------|----------------------------|
----------------------------|----------------------------|
----------------------------|----------------------------|


  S S S S Q    E  E  E  E  Q    S S S S  
----------------------------------------|
----------------------------------------|
--4-5-4---4----4-----4--5--4----4-5-4---|
--------7---------7-------------------7-|
----------------------------------------|
----------------------------------------|
----------------------------------------|


  E    E   Q     E   E   E   E   H          
-------------------------------------------|
-------------------------------------------|
--4S--11--11----11------11--12--11~--------|
--------------------14---------------------|
-------------------------------------------|
-------------------------------------------|
-------------------------------------------|


  S S S S Q    E  E  E  E  Q     E   E   
----------------------------------------|
--------------------------------15--17--|
--4-5-4---4----4-----4--5--4------------|
--------7---------7---------------------|
----------------------------------------|
----------------------------------------|
----------------------------------------|


                  |--3--|                    
   H          E   S  S  S  H         E   E   
--14~---------------------------------------|
-------------17--15-17-15-------------------|
--------------------------14--------14S--7--|
--------------------------------------------|
--------------------------------------------|
--------------------------------------------|
--------------------------------------------|


  S S S S Q     Q     S S S S S S S S S S S S  
----------------------------------------------|
---------------------10-0-8-0-7-0-5-0-7-0-8-0-|
--4-5-4---4~----4-----------------------------|
--------7-------------------------------------|
----------------------------------------------|
----------------------------------------------|
----------------------------------------------|


  S S S S E    E   E   E   S  S  S  S  Q     S  S  S  S  
-----------------------------------------------------11-|
--7-8-7---7S--12--12------12-13-12----12----12-13-15----|
--------9-------------14-----------14-------------------|
--------------------------------------------------------|
--------------------------------------------------------|
--------------------------------------------------------|
--------------------------------------------------------|


   |--3--|                                |--3--|                               
   S  S  S  S  S  S  S  S  S  S  S  S  S  S  S  S  S  S  S  S  S  S  S  S  S  S 
--12-11-12----12----------------12-14-15----------------------------------------
-----------15----15-13-12-13-15----------12-13-12----12----------------12-13-15-
--------------------------------------------------14----14-12----12-14----------
--------------------------------------------------------------16----------------
--------------------------------------------------------------------------------
--------------------------------------------------------------------------------
--------------------------------------------------------------------------------


   |--3--|                                                                    
   S  S  S  S  S  S  S  S  S  S  S  S  S  S  S  S  S  S  S  S  S  S  S  S  S  
--------------------------------------------------12-14-15-12-14-15-14-15-17-|
-----------------------------------------12-13-15----------------------------|
--11-12-11----11----------------11-12-14-------------------------------------|
-----------14----14-12-10-12-14----------------------------------------------|
-----------------------------------------------------------------------------|
-----------------------------------------------------------------------------|
-----------------------------------------------------------------------------|


   H          Q     H           W                Q     
--19~--------19\-------------|------------------------|
-----------------------------|------------------------|
-----------------------------|------------------------|
-----------------------------|------------------------|
-----------------------------|------------------------|
-----------------------------|------------------------|
-----------------------------|------------------------|


  W                H           W                   W                Q     
----------------------------|-------------------|------------------------|
----------------------------|-------------------|------------------------|
----------------------------|-------------------|------------------------|
----------------------------|-------------------|------------------------|
----------------------------|-------------------|------------------------|
----------------------------|-------------------|------------------------|
----------------------------|-------------------|------------------------|


  W                Q       W                H         
------------------------|----------------------------|
------------------------|----------------------------|
------------------------|----------------------------|
------------------------|----------------------------|
------------------------|----------------------------|
------------------------|----------------------------|
------------------------|----------------------------|


  W                H           W                Q       W                Q     
----------------------------|------------------------|------------------------|
----------------------------|------------------------|------------------------|
----------------------------|------------------------|------------------------|
----------------------------|------------------------|------------------------|
----------------------------|------------------------|------------------------|
----------------------------|------------------------|------------------------|
----------------------------|------------------------|------------------------|


  W                H           W                   W                Q     
----------------------------|-------------------|------------------------|
----------------------------|-------------------|------------------------|
----------------------------|-------------------|------------------------|
----------------------------|-------------------|------------------------|
----------------------------|-------------------|------------------------|
----------------------------|-------------------|------------------------|
----------------------------|-------------------|------------------------|


  W                Q       W                H           W                 
------------------------|----------------------------|-------------------|
------------------------|----------------------------|-------------------|
------------------------|----------------------------|-------------------|
------------------------|----------------------------|-------------------|
------------------------|----------------------------|-------------------|
------------------------|----------------------------|-------------------|
------------------------|----------------------------|-------------------|


  W                Q       W                Q       W                H         
------------------------|------------------------|----------------------------|
------------------------|------------------------|----------------------------|
------------------------|------------------------|----------------------------|
------------------------|------------------------|----------------------------|
------------------------|------------------------|----------------------------|
------------------------|------------------------|----------------------------|
------------------------|------------------------|----------------------------|


  W                   W                Q       W                Q     
-------------------|------------------------|------------------------|
-------------------|------------------------|------------------------|
-------------------|------------------------|------------------------|
-------------------|------------------------|------------------------|
-------------------|------------------------|------------------------|
-------------------|------------------------|------------------------|
-------------------|------------------------|------------------------|


  W                H           W                   W                 
----------------------------|-------------------|-------------------|
----------------------------|-------------------|-------------------|
----------------------------|-------------------|-------------------|
----------------------------|-------------------|-------------------|
----------------------------|-------------------|-------------------|
----------------------------|-------------------|-------------------|
----------------------------|-------------------|-------------------|


  W                   W                   W                   W                 
-------------------|-------------------|-------------------|-------------------|
-------------------|-------------------|-------------------|-------------------|
-------------------|-------------------|-------------------|-------------------|
-------------------|-------------------|-------------------|-------------------|
-------------------|-------------------|-------------------|-------------------|
-------------------|-------------------|-------------------|-------------------|
-------------------|-------------------|-------------------|-------------------|


  W                H           W                H           W                 
----------------------------|----------------------------|-------------------|
----------------------------|----------------------------|-------------------|
----------------------------|----------------------------|-------------------|
----------------------------|----------------------------|-------------------|
----------------------------|----------------------------|-------------------|
----------------------------|----------------------------|-------------------|
----------------------------|----------------------------|-------------------|


  W                   W                   W                   H        Q     
-------------------|-------------------|-------------------|----------------|
-------------------|-------------------|-------------------|----------------|
-------------------|-------------------|-------------------|----------------|
-------------------|-------------------|-------------------|----------------|
-------------------|-------------------|-------------------|----------------|
-------------------|-------------------|-------------------|----------------|
-------------------|-------------------|-------------------|----------------|


  H        Q       W                   W                   W                 
----------------|-------------------|-------------------|-------------------|
----------------|-------------------|-------------------|-------------------|
----------------|-------------------|-------------------|-------------------|
----------------|-------------------|-------------------|-------------------|
----------------|-------------------|-------------------|-------------------|
----------------|-------------------|-------------------|-------------------|
----------------|-------------------|-------------------|-------------------|


  W                   W                   W                   W                 
-------------------|-------------------|-------------------|-------------------|
-------------------|-------------------|-------------------|-------------------|
-------------------|-------------------|-------------------|-------------------|
-------------------|-------------------|-------------------|-------------------|
-------------------|-------------------|-------------------|-------------------|
-------------------|-------------------|-------------------|-------------------|
-------------------|-------------------|-------------------|-------------------|


  W                Q       W                   W                Q     
------------------------|-------------------|------------------------|
------------------------|-------------------|------------------------|
------------------------|-------------------|------------------------|
------------------------|-------------------|------------------------|
------------------------|-------------------|------------------------|
------------------------|-------------------|------------------------|
------------------------|-------------------|------------------------|


  W                   W                   W                Q     
-------------------|-------------------|------------------------|
-------------------|-------------------|------------------------|
-------------------|-------------------|------------------------|
-------------------|-------------------|------------------------|
-------------------|-------------------|------------------------|
-------------------|-------------------|------------------------|
-------------------|-------------------|------------------------|


  W                   W                Q       W                 
-------------------|------------------------|-------------------|
-------------------|------------------------|-------------------|
-------------------|------------------------|-------------------|
-------------------|------------------------|-------------------|
-------------------|------------------------|-------------------|
-------------------|------------------------|-------------------|
-------------------|------------------------|-------------------|


  W                   W                   W                   W                 
-------------------|-------------------|-------------------|-------------------|
-------------------|-------------------|-------------------|-------------------|
-------------------|-------------------|-------------------|-------------------|
-------------------|-------------------|-------------------|-------------------|
-------------------|-------------------|-------------------|-------------------|
-------------------|-------------------|-------------------|-------------------|
-------------------|-------------------|-------------------|-------------------|


  W                   W                   W                   W                 
-------------------|-------------------|-------------------|-------------------|
-------------------|-------------------|-------------------|-------------------|
-------------------|-------------------|-------------------|-------------------|
-------------------|-------------------|-------------------|-------------------|
-------------------|-------------------|-------------------|-------------------|
-------------------|-------------------|-------------------|-------------------|
-------------------|-------------------|-------------------|-------------------|


  W                   W                   W                E   
-------------------|-------------------|----------------------|
-------------------|-------------------|----------------------|
-------------------|-------------------|----------------------|
-------------------|-------------------|----------------------|
-------------------|-------------------|----------------------|
-------------------|-------------------|----------------------|
-------------------|-------------------|----------------------|


  W                   W                Q    E     W                 
-------------------|---------------------------|-------------------|
-------------------|---------------------------|-------------------|
-------------------|---------------------------|-------------------|
-------------------|---------------------------|-------------------|
-------------------|---------------------------|-------------------|
-------------------|---------------------------|-------------------|
-------------------|---------------------------|-------------------|


  W                   W                E     W                 
-------------------|----------------------|-------------------|
-------------------|----------------------|-------------------|
-------------------|----------------------|-------------------|
-------------------|----------------------|-------------------|
-------------------|----------------------|-------------------|
-------------------|----------------------|-------------------|
-------------------|----------------------|-------------------|


  W                Q    E     W                   W                 
---------------------------|-------------------|-------------------|
---------------------------|-------------------|-------------------|
---------------------------|-------------------|-------------------|
---------------------------|-------------------|-------------------|
---------------------------|-------------------|-------------------|
---------------------------|-------------------|-------------------|
---------------------------|-------------------|-------------------|


  W                   W                   W                   W                 
-------------------|-------------------|-------------------|-------------------|
-------------------|-------------------|-------------------|-------------------|
-------------------|-------------------|-------------------|-------------------|
-------------------|-------------------|-------------------|-------------------|
-------------------|-------------------|-------------------|-------------------|
-------------------|-------------------|-------------------|-------------------|
-------------------|-------------------|-------------------|-------------------|


  W                   W                   W                   W                 
-------------------|-------------------|-------------------|-------------------|
-------------------|-------------------|-------------------|-------------------|
-------------------|-------------------|-------------------|-------------------|
-------------------|-------------------|-------------------|-------------------|
-------------------|-------------------|-------------------|-------------------|
-------------------|-------------------|-------------------|-------------------|
-------------------|-------------------|-------------------|-------------------|


  H        Q       H        E     H        Q       H        E   
----------------|--------------|----------------|--------------|
----------------|--------------|----------------|--------------|
----------------|--------------|----------------|--------------|
----------------|--------------|----------------|--------------|
----------------|--------------|----------------|--------------|
----------------|--------------|----------------|--------------|
----------------|--------------|----------------|--------------|


  W                H           H        Q       H        E     H        Q     
----------------------------|----------------|--------------|----------------|
----------------------------|----------------|--------------|----------------|
----------------------------|----------------|--------------|----------------|
----------------------------|----------------|--------------|----------------|
----------------------------|----------------|--------------|----------------|
----------------------------|----------------|--------------|----------------|
----------------------------|----------------|--------------|----------------|


  H        E     W                H           W                H         
--------------|----------------------------|----------------------------|
--------------|----------------------------|----------------------------|
--------------|----------------------------|----------------------------|
--------------|----------------------------|----------------------------|
--------------|----------------------------|----------------------------|
--------------|----------------------------|----------------------------|
--------------|----------------------------|----------------------------|


  H        Q       H        E     H        Q       H        E   
----------------|--------------|----------------|--------------|
----------------|--------------|----------------|--------------|
----------------|--------------|----------------|--------------|
----------------|--------------|----------------|--------------|
----------------|--------------|----------------|--------------|
----------------|--------------|----------------|--------------|
----------------|--------------|----------------|--------------|


  H        Q       H        Q       H        Q       H        E   
----------------|----------------|----------------|--------------|
----------------|----------------|----------------|--------------|
----------------|----------------|----------------|--------------|
----------------|----------------|----------------|--------------|
----------------|----------------|----------------|--------------|
----------------|----------------|----------------|--------------|
----------------|----------------|----------------|--------------|


  H        Q       H        E     H        Q       H        Q     
----------------|--------------|----------------|----------------|
----------------|--------------|----------------|----------------|
----------------|--------------|----------------|----------------|
----------------|--------------|----------------|----------------|
----------------|--------------|----------------|----------------|
----------------|--------------|----------------|----------------|
----------------|--------------|----------------|----------------|


  H        Q       H        Q       H        Q       H        E   
----------------|----------------|----------------|--------------|
----------------|----------------|----------------|--------------|
----------------|----------------|----------------|--------------|
----------------|----------------|----------------|--------------|
----------------|----------------|----------------|--------------|
----------------|----------------|----------------|--------------|
----------------|----------------|----------------|--------------|


  H        Q       H        E     H        Q       H        E   
----------------|--------------|----------------|--------------|
----------------|--------------|----------------|--------------|
----------------|--------------|----------------|--------------|
----------------|--------------|----------------|--------------|
----------------|--------------|----------------|--------------|
----------------|--------------|----------------|--------------|
----------------|--------------|----------------|--------------|


  H        Q       H        E     W                   W                E   
----------------|--------------|-------------------|----------------------|
----------------|--------------|-------------------|----------------------|
----------------|--------------|-------------------|----------------------|
----------------|--------------|-------------------|----------------------|
----------------|--------------|-------------------|----------------------|
----------------|--------------|-------------------|----------------------|
----------------|--------------|-------------------|----------------------|


  W                   W                E     W                 
-------------------|----------------------|-------------------|
-------------------|----------------------|-------------------|
-------------------|----------------------|-------------------|
-------------------|----------------------|-------------------|
-------------------|----------------------|-------------------|
-------------------|----------------------|-------------------|
-------------------|----------------------|-------------------|


  W                E     W                   W                E     Q    E  S  
----------------------|-------------------|----------------------|------------|
----------------------|-------------------|----------------------|------------|
----------------------|-------------------|----------------------|------------|
----------------------|-------------------|----------------------|------------|
----------------------|-------------------|----------------------|------------|
----------------------|-------------------|----------------------|------------|
----------------------|-------------------|----------------------|------------|


  Q    E  S    Q    E  S    Q    E  S    E.  E.  E.  E.  E.  E.  E  E  E   
------------|------------|------------|-----------------------------------|
------------|------------|------------|-----------------------------------|
------------|------------|------------|-----------------------------------|
------------|------------|------------|-----------------------------------|
------------|------------|------------|-----------------------------------|
------------|------------|------------|--------------4---3----------------|
------------|------------|------------|--4---5---4-----------4---2--2--5--|


  E.  E.  E.   E.  E.  E.  E  E  E   E  E     E.  E.  E.  E.  E.  E.  E  E  E   
-------------------------------------------|-----------------------------------|
-------------------------------------------|-----------------------------------|
-------------------------------------------|-----------------------------------|
-------------------------------------------|-----------------------------------|
------------------------------------/7--6--|-----------------------------------|
--------------/7---6-----------------------|--------------4---3----------------|
--4---5---4------------4---2--2--4---------|--4---5---4-----------4---2--2--5--|


  E.  E.  E.   E.  E.  E.  E  E  E   E  E     E.  E.  E.  E.  E.  E.  E  E  E   
-------------------------------------------|-----------------------------------|
-------------------------------------------|-----------------------------------|
-------------------------------------------|-----------------------------------|
-------------------------------------------|-----------------------------------|
------------------------------------/7--6--|-----------------------------------|
--------------/7---6-----------------------|--------------4---3----------------|
--4---5---4------------4---2--2--4---------|--4---5---4-----------4---2--2--5--|


  E.  E.  E.   E.  E.  E.  E  E  E   E  E     E.  E.  E.  E.  E.  E.  E  E  E   
-------------------------------------------|-----------------------------------|
-------------------------------------------|-----------------------------------|
-------------------------------------------|-----------------------------------|
-------------------------------------------|-----------------------------------|
------------------------------------/7--6--|-----------------------------------|
--------------/7---6-----------------------|--------------4---3----------------|
--4---5---4------------4---2--2--4---------|--4---5---4-----------4---2--2--5--|


  E.  E.  E.   E.  E.  E.  E  E  E   E  E     S S S S S S S    S S S S S S S  
-------------------------------------------|----------------|----------------|
-------------------------------------------|----------------|----------------|
-------------------------------------------|--8-6-----------|--8-6-----------|
-------------------------------------------|------8-6-------|------8-6-------|
------------------------------------/7--6--|----------9-7-6-|----------9-7-6-|
--------------/7---6-----------------------|----------------|----------------|
--4---5---4------------4---2--2--4---------|----------------|----------------|


  S S S S S S S    S S S S S S S    S S S S S E.  Q       W                 
----------------|----------------|---------------------|-------------------|
----------------|----------------|---------------------|-------------------|
--8-6-----------|--8-6-----------|---------------------|-------------------|
------8-6-------|------8-6-------|------6-8------------|-------------------|
----------9-7-6-|----------9-7-6-|--7-9-----6----------|-------------------|
----------------|----------------|---------------------|-------------------|
----------------|----------------|---------------------|-------------------|


  W                   W                   W                   W                 
-------------------|-------------------|-------------------|-------------------|
-------------------|-------------------|-------------------|-------------------|
-------------------|-------------------|-------------------|-------------------|
-------------------|-------------------|-------------------|-------------------|
-------------------|-------------------|-------------------|-------------------|
-------------------|-------------------|-------------------|-------------------|
-------------------|-------------------|-------------------|-------------------|


  W                   W                   W                   H        Q    E   
-------------------|-------------------|-------------------|-------------------|
-------------------|-------------------|-------------------|-------------------|
-------------------|-------------------|-------------------|-------------------|
-------------------|-------------------|-------------------|-------------------|
-------------------|-------------------|-------------------|-------------------|
-------------------|-------------------|-------------------|-------------------|
-------------------|-------------------|-------------------|-------------------|


  H        Q    E     H        Q    E     W                H         
-------------------|-------------------|----------------------------|
-------------------|-------------------|----------------------------|
-------------------|-------------------|----------------------------|
-------------------|-------------------|----------------------------|
-------------------|-------------------|----------------------------|
-------------------|-------------------|----------------------------|
-------------------|-------------------|----------------------------|


  H        Q    E     H        Q    E     H        Q    E     W                 
-------------------|-------------------|-------------------|-------------------|
-------------------|-------------------|-------------------|-------------------|
-------------------|-------------------|-------------------|-------------------|
-------------------|-------------------|-------------------|-------------------|
-------------------|-------------------|-------------------|-------------------|
-------------------|-------------------|-------------------|-------------------|
-------------------|-------------------|-------------------|-------------------|


  W                   W                   W                   W                 
-------------------|-------------------|-------------------|-------------------|
-------------------|-------------------|-------------------|-------------------|
-------------------|-------------------|-------------------|-------------------|
-------------------|-------------------|-------------------|-------------------|
-------------------|-------------------|-------------------|-------------------|
-------------------|-------------------|-------------------|-------------------|
-------------------|-------------------|-------------------|-------------------|


  W                   W                   W                   W                 
-------------------|-------------------|-------------------|-------------------|
-------------------|-------------------|-------------------|-------------------|
-------------------|-------------------|-------------------|-------------------|
-------------------|-------------------|-------------------|-------------------|
-------------------|-------------------|-------------------|-------------------|
-------------------|-------------------|-------------------|-------------------|
-------------------|-------------------|-------------------|-------------------|


  W                   W                Q       W                 
-------------------|------------------------|-------------------|
-------------------|------------------------|-------------------|
-------------------|------------------------|-------------------|
-------------------|------------------------|-------------------|
-------------------|------------------------|-------------------|
-------------------|------------------------|-------------------|
-------------------|------------------------|-------------------|


  W                   W                   W                   W                 
-------------------|-------------------|-------------------|-------------------|
-------------------|-------------------|-------------------|-------------------|
-------------------|-------------------|-------------------|-------------------|
-------------------|-------------------|-------------------|-------------------|
-------------------|-------------------|-------------------|-------------------|
-------------------|-------------------|-------------------|-------------------|
-------------------|-------------------|-------------------|-------------------|


  W                Q       H        Q    E     H        Q    E   
------------------------|-------------------|-------------------|
------------------------|-------------------|-------------------|
------------------------|-------------------|-------------------|
------------------------|-------------------|-------------------|
------------------------|-------------------|-------------------|
------------------------|-------------------|-------------------|
------------------------|-------------------|-------------------|


  H        Q    E     H        Q    E     H        Q    E     W                 
-------------------|-------------------|-------------------|-------------------|
-------------------|-------------------|-------------------|-------------------|
-------------------|-------------------|-------------------|-------------------|
-------------------|-------------------|-------------------|-------------------|
-------------------|-------------------|-------------------|-------------------|
-------------------|-------------------|-------------------|-------------------|
-------------------|-------------------|-------------------|-------------------|


  W                   W                   W                   W                 
-------------------|-------------------|-------------------|-------------------|
-------------------|-------------------|-------------------|-------------------|
-------------------|-------------------|-------------------|-------------------|
-------------------|-------------------|-------------------|-------------------|
-------------------|-------------------|-------------------|-------------------|
-------------------|-------------------|-------------------|-------------------|
-------------------|-------------------|-------------------|-------------------|


  W                   W                   W                Q      
-------------------|-------------------|------------------------||
-------------------|-------------------|------------------------||
-------------------|-------------------|------------------------||
-------------------|-------------------|------------------------||
-------------------|-------------------|------------------------||
-------------------|-------------------|------------------------||
-------------------|-------------------|------------------------||

**********************************************************
**********************************************************
**********************************************************

Guitar 3

H        Q       W                   W                   W                 
E||----------------|-------------------|-------------------|-------------------|
B||----------------|-------------------|-------------------|-------------------|
G||----------------|-------------------|-------------------|-------------------|
D||----------------|-------------------|-------------------|-------------------|
A||----------------|-------------------|-------------------|-------------------|
E||----------------|-------------------|-------------------|-------------------|
B||----------------|-------------------|-------------------|-------------------|


  W                   W                   W                   W                 
-------------------|-------------------|-------------------|-------------------|
-------------------|-------------------|-------------------|-------------------|
-------------------|-------------------|-------------------|-------------------|
-------------------|-------------------|-------------------|-------------------|
-------------------|-------------------|-------------------|-------------------|
-------------------|-------------------|-------------------|-------------------|
-------------------|-------------------|-------------------|-------------------|


  W                   W                   W                   W                 
-------------------|-------------------|-------------------|-------------------|
-------------------|-------------------|-------------------|-------------------|
-------------------|-------------------|-------------------|-------------------|
-------------------|-------------------|-------------------|-------------------|
-------------------|-------------------|-------------------|-------------------|
-------------------|-------------------|-------------------|-------------------|
-------------------|-------------------|-------------------|-------------------|


  W                   W                   W                   W                 
-------------------|-------------------|-------------------|-------------------|
-------------------|-------------------|-------------------|-------------------|
-------------------|-------------------|-------------------|-------------------|
-------------------|-------------------|-------------------|-------------------|
-------------------|-------------------|-------------------|-------------------|
-------------------|-------------------|-------------------|-------------------|
-------------------|-------------------|-------------------|-------------------|


  W                   W                   W                   W                 
-------------------|-------------------|-------------------|-------------------|
-------------------|-------------------|-------------------|-------------------|
-------------------|-------------------|-------------------|-------------------|
-------------------|-------------------|-------------------|-------------------|
-------------------|-------------------|-------------------|-------------------|
-------------------|-------------------|-------------------|-------------------|
-------------------|-------------------|-------------------|-------------------|


  H        Q    E     W                   W                   W                 
-------------------|-------------------|-------------------|-------------------|
-------------------|-------------------|-------------------|-------------------|
-------------------|-------------------|-------------------|-------------------|
-------------------|-------------------|-------------------|-------------------|
-------------------|-------------------|-------------------|-------------------|
-------------------|-------------------|-------------------|-------------------|
-------------------|-------------------|-------------------|-------------------|


  W                Q       W                   W                 
------------------------|-------------------|-------------------|
------------------------|-------------------|-------------------|
------------------------|-------------------|-------------------|
------------------------|-------------------|-------------------|
------------------------|-------------------|-------------------|
------------------------|-------------------|-------------------|
------------------------|-------------------|-------------------|


  W                   W                   W                   W                 
-------------------|-------------------|-------------------|-------------------|
-------------------|-------------------|-------------------|-------------------|
-------------------|-------------------|-------------------|-------------------|
-------------------|-------------------|-------------------|-------------------|
-------------------|-------------------|-------------------|-------------------|
-------------------|-------------------|-------------------|-------------------|
-------------------|-------------------|-------------------|-------------------|


  W                   W                   E  E  E  Q    E  E  E  E  E  Q     
-------------------|-------------------|------------------------------------|
-------------------|-------------------|------------------------------------|
-------------------|-------------------|-----------4-------5--4-----4-------|
-------------------|-------------------|------------------------------------|
-------------------|-------------------|--0--2--2-------2--------2-----2----|
-------------------|-------------------|------------------------------------|
-------------------|-------------------|------------------------------------|


  E  E  E  Q    E  E  E  E  E  Q       Q    E  Q    E  E  E  E  E  Q     
------------------------------------|-----------------------------------|
------------------------------------|-----------------------------------|
-----------4-------5--4-------------|----------4-------5--4-------------|
----------------------------5--4----|----------2----------------4-------|
--0--2--2-------2--------2----------|-------2----------------2----------|
------------------------------------|--0------------0--------------0----|
------------------------------------|-----------------------------------|


  Q    E  E  E  E  Q    E  E  E  E     E  E  E  Q    E  E  E  E  E  Q     
------------------------------------|------------------------------------|
------------------------------------|------------------------------------|
----------4-----4----------4-----4--|-----------4-------5--4-----4-------|
-------0----------------2-----------|------------------------------------|
-------------------0----------0-----|--0--2--2-------2--------2-----2----|
--3----------3----------------------|------------------------------------|
------------------------------------|------------------------------------|


  E  E  E  E  Q    Q    E  E  Q       Q    E  Q    E  E  E  E  E  Q     
-----------------------------------|-----------------------------------|
-----------------------------------|-----------------------------------|
-----------4---------------4-------|----------4-------5--4-----4-------|
------------------------0----------|-----------------------------------|
--0--2--2-----2--------------------|------------------------------2----|
-------------------3----------3----|--2----2-------2--------2----------|
-----------------------------------|-----------------------------------|


  E  E  E  E  Q    Q    Q    Q       Q.     Q    E  Q    E  E   
----------------------------------|----------------------------|
----------------------------------|-----------------5----5-----|
-----------4----------------------|-----------------4----4-----|
--------2-------------------------|--2------2-------2----2-----|
-----2----------------------------|--2------2-------2----2-----|
--0-----------0-------------------|--0------0----0----------4--|
-------------------3----1----0----|----------------------------|


  Q.     Q    E  Q    E  E     Q.     Q    E  Q    E  E   
----------------------------|----------------------------|
----------------------------|----------------------------|
----------------------------|----------------------------|
----------------------------|----------------------------|
----------------------------|--3------3----3--3----3--3--|
----------------------------|--3------3----3--3----3--3--|
--2------2----2--2----2--0--|--1------1----1--1----1--1--|


  Q.     Q    E  Q    Q       Q.     Q    E  Q    E  E   
---------------------------|----------------------------|
---------------------------|-----------------5----5-----|
---------------------------|-----------------4----4-----|
---------------------------|--2------2-------2----2-----|
---------------------------|--2------2-------2----2-----|
--2------2----0--2----3----|--0------0----0-------------|
---------------------------|-------------------------0--|


  Q.     Q    E  Q    E  E     Q.     Q    E  Q    E  E   
----------------------------|----------------------------|
----------------------------|----------------------------|
----------------------------|----------------------------|
--5------5----5--5----5-----|----------------------------|
--4------4----4--4----4--x--|--3------3----3--3----3--3--|
--2------2----2--2----2--x--|--3------3----3--3----3--3--|
--2------2----2--2----2--x--|--1------1----1--1----1--1--|


                     PM   PM   PM                                 
                     |----3----|                                  
  Q.     Q.     Q    Q    Q    Q       Q.     Q    E  Q    E  E   
------------------------------------|----------------------------|
------------------------------------|-----------------5----5-----|
------------------------------------|-----------------4----4-----|
--7------7------7----5----4----5----|--2------2-------2----2-----|
--7------7------7----5----4----5----|--2------2-------2----2-----|
--5------5------5----3----2----3----|--0------0----0----------4--|
------------------------------------|----------------------------|


  Q.     Q    E  Q    E  E     Q.     Q    E  Q    E  E   
----------------------------|----------------------------|
----------------------------|----------------------------|
----------------------------|----------------------------|
----------------------------|----------------------------|
----------------------------|--3------3----3--3----3--3--|
----------------------------|--3------3----3--3----3--3--|
--2------2----2--2----2--0--|--1------1----1--1----1--1--|


  Q.     Q    E  Q    Q       Q.     Q    E  Q    E  E   
---------------------------|----------------------------|
---------------------------|-----------------5----5-----|
---------------------------|-----------------4----4-----|
---------------------------|--2------2-------2----2-----|
---------------------------|--2------2-------2----2-----|
--2------2----0--2----3----|--0------0----0-------------|
---------------------------|-------------------------0--|


  Q.     Q    E  Q    E  E     Q.     Q    E  Q    E  E   
----------------------------|----------------------------|
----------------------------|----------------------------|
----------------------------|----------------------------|
--5------5----5--5----5-----|----------------------------|
--4------4----4--4----4--x--|--3------3----3--3----3--3--|
--2------2----2--2----2--x--|--3------3----3--3----3--3--|
--2------2----2--2----2--x--|--1------1----1--1----1--1--|


              PM             PM                                       
  Q.     Q    E  Q.     Q    E     E  E  E  Q.      E  E  E  Q.       
--------------------------------|------------------------------------|
--------------------------------|------------------------------------|
--------------------------------|------------------------------------|
--7------7-------7------7-------|------------------------------------|
--7------7-------7------7-------|------------------------------------|
--5------5----5--5------5----5--|--5--7-----7~------8--7-----7~------|
--------------------------------|--------0----------------0----------|


  E  E  E  Q.      E  E  E   E  Q        E  E  E  Q.      E  E  E  Q.       
--------------------------------------|------------------------------------|
--------------------------------------|------------------------------------|
--------------------------------------|------------------------------------|
--------------------------------------|------------------------------------|
----------------------------10--9~----|------------------------------------|
--5--7-----7~------8--7---------------|--5--7-----7~------8--7-----7~------|
--------0----------------0------------|--------0----------------0----------|


  E  E  E  Q.      E  E  E  E  Q        E  E  E  Q.      E  E  E  Q.       
-------------------------------------|------------------------------------|
-------------------------------------|------------------------------------|
-------------------------------------|------------------------------------|
-------------------------------------|------------------------------------|
-------------------------------------|------------------------------------|
--5--7-----7~------8--7-----3--2~----|--5--7-----7~------8--7-----7~------|
--------0----------------0-----------|--------0----------------0----------|


  E  E  E  Q.      E  E  E   E  Q        E  E  E  Q.      E  E  E  Q.       
--------------------------------------|------------------------------------|
--------------------------------------|------------------------------------|
--------------------------------------|------------------------------------|
--------------------------------------|------------------------------------|
----------------------------10--9~----|------------------------------------|
--5--7-----7~------8--7---------------|--5--7-----7~------8--7-----7~------|
--------0----------------0------------|--------0----------------0----------|


  E  E  E  Q.      E  E  E  E  Q        W                H         
-------------------------------------|----------------------------|
-------------------------------------|----------------------------|
-------------------------------------|----------------------------|
-------------------------------------|----------------------------|
-------------------------------------|----------------------------|
--5--7-----7~------8--7-----3--2~----|----------------------------|
--------0----------------0-----------|----------------------------|


  W                H           W                H         
----------------------------|----------------------------|
----------------------------|----------------------------|
----------------------------|----------------------------|
----------------------------|----------------------------|
----------------------------|----------------------------|
----------------------------|----------------------------|
----------------------------|----------------------------|


  W                H           W                H         
----------------------------|----------------------------|
----------------------------|----------------------------|
----------------------------|----------------------------|
----------------------------|----------------------------|
----------------------------|----------------------------|
----------------------------|----------------------------|
----------------------------|----------------------------|


  W                H           W                H         
----------------------------|----------------------------|
----------------------------|----------------------------|
----------------------------|----------------------------|
----------------------------|----------------------------|
----------------------------|----------------------------|
----------------------------|----------------------------|
----------------------------|----------------------------|


  W                H           W                H         
----------------------------|----------------------------|
----------------------------|----------------------------|
----------------------------|----------------------------|
----------------------------|----------------------------|
----------------------------|----------------------------|
----------------------------|----------------------------|
----------------------------|----------------------------|


  W                H           W                H         
----------------------------|----------------------------|
----------------------------|----------------------------|
----------------------------|----------------------------|
----------------------------|----------------------------|
----------------------------|----------------------------|
----------------------------|----------------------------|
----------------------------|----------------------------|


  W                H           W                H         
----------------------------|----------------------------|
----------------------------|----------------------------|
----------------------------|----------------------------|
----------------------------|----------------------------|
----------------------------|----------------------------|
----------------------------|----------------------------|
----------------------------|----------------------------|


  W                H           W                H         
----------------------------|----------------------------|
----------------------------|----------------------------|
----------------------------|----------------------------|
----------------------------|----------------------------|
----------------------------|----------------------------|
----------------------------|----------------------------|
----------------------------|----------------------------|


  W                H           W                H         
----------------------------|----------------------------|
----------------------------|----------------------------|
----------------------------|----------------------------|
----------------------------|----------------------------|
----------------------------|----------------------------|
----------------------------|----------------------------|
----------------------------|----------------------------|


  W                H           W                H         
----------------------------|----------------------------|
----------------------------|----------------------------|
----------------------------|----------------------------|
----------------------------|----------------------------|
----------------------------|----------------------------|
----------------------------|----------------------------|
----------------------------|----------------------------|


  W                H           W                H         
----------------------------|----------------------------|
----------------------------|----------------------------|
----------------------------|----------------------------|
----------------------------|----------------------------|
----------------------------|----------------------------|
----------------------------|----------------------------|
----------------------------|----------------------------|


  W                H           W                H         
----------------------------|----------------------------|
----------------------------|----------------------------|
----------------------------|----------------------------|
----------------------------|----------------------------|
----------------------------|----------------------------|
----------------------------|----------------------------|
----------------------------|----------------------------|


  W                H           W                H         
----------------------------|----------------------------|
----------------------------|----------------------------|
----------------------------|----------------------------|
----------------------------|----------------------------|
----------------------------|----------------------------|
----------------------------|----------------------------|
----------------------------|----------------------------|


  W                H           W                H         
----------------------------|----------------------------|
----------------------------|----------------------------|
----------------------------|----------------------------|
----------------------------|----------------------------|
----------------------------|----------------------------|
----------------------------|----------------------------|
----------------------------|----------------------------|


  W                H           W                H         
----------------------------|----------------------------|
----------------------------|----------------------------|
----------------------------|----------------------------|
----------------------------|----------------------------|
----------------------------|----------------------------|
----------------------------|----------------------------|
----------------------------|----------------------------|


  W                H           W                H         
----------------------------|----------------------------|
----------------------------|----------------------------|
----------------------------|----------------------------|
----------------------------|----------------------------|
----------------------------|----------------------------|
----------------------------|----------------------------|
----------------------------|----------------------------|


  W                H           E  E  E  Q    E  E  E  E  E  Q     
----------------------------|------------------------------------|
----------------------------|------------------------------------|
----------------------------|-----------4-------5--4-----4-------|
----------------------------|------------------------------------|
----------------------------|--0--2--2-------2--------2-----2----|
----------------------------|------------------------------------|
----------------------------|------------------------------------|


  E  E  E  Q    E  E  E  E  E  Q       Q    E  Q    E  E  E  E  E  Q     
------------------------------------|-----------------------------------|
------------------------------------|-----------------------------------|
-----------4-------5--4-------------|----------4-------5--4-------------|
----------------------------5--4----|----------2----------------4-------|
--0--2--2-------2--------2----------|-------2----------------2----------|
------------------------------------|--0------------0--------------0----|
------------------------------------|-----------------------------------|


  Q    E  E  E  E  Q    E  E  E  E     E  E  E  Q    E  E  E  E  E  Q     
------------------------------------|------------------------------------|
------------------------------------|------------------------------------|
----------4-----4----------4-----4--|-----------4-------5--4-----4-------|
-------0----------------2-----------|------------------------------------|
-------------------0----------0-----|--0--2--2-------2--------2-----2----|
--3----------3----------------------|------------------------------------|
------------------------------------|------------------------------------|


  E  E  E  E  Q    Q    E  E  Q       Q    E  Q    E  E  E  E  E  Q     
-----------------------------------|-----------------------------------|
-----------------------------------|-----------------------------------|
-----------4---------------4-------|----------4-------5--4-----4-------|
------------------------0----------|-----------------------------------|
--0--2--2-----2--------------------|------------------------------2----|
-------------------3----------3----|--2----2-------2--------2----------|
-----------------------------------|-----------------------------------|


  E  E  E  E  Q    Q    Q    Q       W                   W                 
----------------------------------|-------------------|-------------------|
----------------------------------|-------------------|-------------------|
-----------4----------------------|-------------------|-------------------|
--------2-------------------------|-------------------|-------------------|
-----2----------------------------|-------------------|-------------------|
--0-----------0-------------------|-------------------|-------------------|
-------------------3----1----0----|-------------------|-------------------|


  W                   W                   H        Q    E     W                 
-------------------|-------------------|-------------------|-------------------|
-------------------|-------------------|-------------------|-------------------|
-------------------|-------------------|-------------------|-------------------|
-------------------|-------------------|-------------------|-------------------|
-------------------|-------------------|-------------------|-------------------|
-------------------|-------------------|-------------------|-------------------|
-------------------|-------------------|-------------------|-------------------|


  W                   W                   W                   W                 
-------------------|-------------------|-------------------|-------------------|
-------------------|-------------------|-------------------|-------------------|
-------------------|-------------------|-------------------|-------------------|
-------------------|-------------------|-------------------|-------------------|
-------------------|-------------------|-------------------|-------------------|
-------------------|-------------------|-------------------|-------------------|
-------------------|-------------------|-------------------|-------------------|


  W                   W                   H        Q    E     W                 
-------------------|-------------------|-------------------|-------------------|
-------------------|-------------------|-------------------|-------------------|
-------------------|-------------------|-------------------|-------------------|
-------------------|-------------------|-------------------|-------------------|
-------------------|-------------------|-------------------|-------------------|
-------------------|-------------------|-------------------|-------------------|
-------------------|-------------------|-------------------|-------------------|


  W                   W                   W                Q     
-------------------|-------------------|------------------------|
-------------------|-------------------|------------------------|
-------------------|-------------------|------------------------|
-------------------|-------------------|------------------------|
-------------------|-------------------|------------------------|
-------------------|-------------------|------------------------|
-------------------|-------------------|------------------------|


  W                   W                   W                   W                 
-------------------|-------------------|-------------------|-------------------|
-------------------|-------------------|-------------------|-------------------|
-------------------|-------------------|-------------------|-------------------|
-------------------|-------------------|-------------------|-------------------|
-------------------|-------------------|-------------------|-------------------|
-------------------|-------------------|-------------------|-------------------|
-------------------|-------------------|-------------------|-------------------|


  W                   W                   W                   W                 
-------------------|-------------------|-------------------|-------------------|
-------------------|-------------------|-------------------|-------------------|
-------------------|-------------------|-------------------|-------------------|
-------------------|-------------------|-------------------|-------------------|
-------------------|-------------------|-------------------|-------------------|
-------------------|-------------------|-------------------|-------------------|
-------------------|-------------------|-------------------|-------------------|


  W                H           W                H         
----------------------------|----------------------------|
----------------------------|----------------------------|
----------------------------|----------------------------|
----------------------------|----------------------------|
----------------------------|----------------------------|
----------------------------|----------------------------|
----------------------------|----------------------------|


  W                H           W                H           W                 
----------------------------|----------------------------|-------------------|
----------------------------|----------------------------|-------------------|
----------------------------|----------------------------|-------------------|
----------------------------|----------------------------|-------------------|
----------------------------|----------------------------|-------------------|
----------------------------|----------------------------|-------------------|
----------------------------|----------------------------|-------------------|


  W                   W                   H        Q    E     W                 
-------------------|-------------------|-------------------|-------------------|
-------------------|-------------------|-------------------|-------------------|
-------------------|-------------------|-------------------|-------------------|
-------------------|-------------------|-------------------|-------------------|
-------------------|-------------------|-------------------|-------------------|
-------------------|-------------------|-------------------|-------------------|
-------------------|-------------------|-------------------|-------------------|


  W                   W                   W                Q     
-------------------|-------------------|------------------------|
-------------------|-------------------|------------------------|
-------------------|-------------------|------------------------|
-------------------|-------------------|------------------------|
-------------------|-------------------|------------------------|
-------------------|-------------------|------------------------|
-------------------|-------------------|------------------------|


  W                   W                   W                   W                 
-------------------|-------------------|-------------------|-------------------|
-------------------|-------------------|-------------------|-------------------|
-------------------|-------------------|-------------------|-------------------|
-------------------|-------------------|-------------------|-------------------|
-------------------|-------------------|-------------------|-------------------|
-------------------|-------------------|-------------------|-------------------|
-------------------|-------------------|-------------------|-------------------|


  W                   W                   W                   W                 
-------------------|-------------------|-------------------|-------------------|
-------------------|-------------------|-------------------|-------------------|
-------------------|-------------------|-------------------|-------------------|
-------------------|-------------------|-------------------|-------------------|
-------------------|-------------------|-------------------|-------------------|
-------------------|-------------------|-------------------|-------------------|
-------------------|-------------------|-------------------|-------------------|


  E  E  E  Q.      E  E  E  Q.         E  E  E  Q.      E  E  E   E  Q      
------------------------------------|--------------------------------------|
------------------------------------|--------------------------------------|
------------------------------------|--------------------------------------|
------------------------------------|--------------------------------------|
------------------------------------|----------------------------10--9~----|
--5--7-----7~------8--7-----7~------|--5--7-----7~------8--7---------------|
--------0----------------0----------|--------0----------------0------------|


  E  E  E  Q.      E  E  E  Q.         E  E  E  Q.      E  E  E  E  Q      
------------------------------------|-------------------------------------|
------------------------------------|-------------------------------------|
------------------------------------|-------------------------------------|
------------------------------------|-------------------------------------|
------------------------------------|-------------------------------------|
--5--7-----7~------8--7-----7~------|--5--7-----7~------8--7-----3--2~----|
--------0----------------0----------|--------0----------------0-----------|


  W                H           W                H         
----------------------------|----------------------------|
----------------------------|----------------------------|
----------------------------|----------------------------|
----------------------------|----------------------------|
----------------------------|----------------------------|
----------------------------|----------------------------|
----------------------------|----------------------------|


  W                H           W                H         
----------------------------|----------------------------|
----------------------------|----------------------------|
----------------------------|----------------------------|
----------------------------|----------------------------|
----------------------------|----------------------------|
----------------------------|----------------------------|
----------------------------|----------------------------|


  W                H           W                H         
----------------------------|----------------------------|
----------------------------|----------------------------|
----------------------------|----------------------------|
----------------------------|----------------------------|
----------------------------|----------------------------|
----------------------------|----------------------------|
----------------------------|----------------------------|


  W                H           W                H         
----------------------------|----------------------------|
----------------------------|----------------------------|
----------------------------|----------------------------|
----------------------------|----------------------------|
----------------------------|----------------------------|
----------------------------|----------------------------|
----------------------------|----------------------------|


  E  E  E  Q    E  E  E  E  E  Q       E  E  E  Q    E  E  E  E  E  Q     
------------------------------------|------------------------------------|
------------------------------------|------------------------------------|
-----------4-------5--4-----4-------|-----------4-------5--4-------------|
------------------------------------|----------------------------5--4----|
--0--2--2-------2--------2-----2----|--0--2--2-------2--------2----------|
------------------------------------|------------------------------------|
------------------------------------|------------------------------------|


  Q    E  Q    E  E  E  E  E  Q       Q    E  E  E  E  Q    E  E  E  E   
-----------------------------------|------------------------------------|
-----------------------------------|------------------------------------|
----------4-------5--4-------------|----------4-----4----------4-----4--|
----------2----------------4-------|-------0----------------2-----------|
-------2----------------2----------|-------------------0----------0-----|
--0------------0--------------0----|--3----------3----------------------|
-----------------------------------|------------------------------------|


  E  E  E  Q    E  E  E  E  E  Q       E  E  E  E  Q    Q    E  E  Q     
------------------------------------|-----------------------------------|
------------------------------------|-----------------------------------|
-----------4-------5--4-----4-------|-----------4---------------4-------|
------------------------------------|------------------------0----------|
--0--2--2-------2--------2-----2----|--0--2--2-----2--------------------|
------------------------------------|-------------------3----------3----|
------------------------------------|-----------------------------------|


  Q    E  Q    E  E  E  E  E  Q       E  E  E  E  Q    Q    Q    Q     
-----------------------------------|----------------------------------|
-----------------------------------|----------------------------------|
----------4-------5--4-----4-------|-----------4----------------------|
-----------------------------------|--------2-------------------------|
------------------------------2----|-----2----------------------------|
--2----2-------2--------2----------|--0-----------0-------------------|
-----------------------------------|-------------------3----1----0----|


  Q.     Q    E  Q    E  E     W                Q     
----------------------------|------------------------|
-----------------5----5-----|------------------------|
-----------------4----4-----|------------------------|
--2------2-------2----2-----|------------------------|
--2------2-------2----2-----|------------------------|
--0------0----0----------4--|------------------------|
----------------------------|------------------------|


  W                H           W                   W                Q     
----------------------------|-------------------|------------------------|
----------------------------|-------------------|------------------------|
----------------------------|-------------------|------------------------|
----------------------------|-------------------|------------------------|
----------------------------|-------------------|------------------------|
----------------------------|-------------------|------------------------|
----------------------------|-------------------|------------------------|


  W                Q       W                H         
------------------------|----------------------------|
------------------------|----------------------------|
------------------------|----------------------------|
------------------------|----------------------------|
------------------------|----------------------------|
------------------------|----------------------------|
------------------------|----------------------------|


  W                H           W                Q       W                Q     
----------------------------|------------------------|------------------------|
----------------------------|------------------------|------------------------|
----------------------------|------------------------|------------------------|
----------------------------|------------------------|------------------------|
----------------------------|------------------------|------------------------|
----------------------------|------------------------|------------------------|
----------------------------|------------------------|------------------------|


  W                H           W                   W                Q     
----------------------------|-------------------|------------------------|
----------------------------|-------------------|------------------------|
----------------------------|-------------------|------------------------|
----------------------------|-------------------|------------------------|
----------------------------|-------------------|------------------------|
----------------------------|-------------------|------------------------|
----------------------------|-------------------|------------------------|


  W                Q       W                H           W                 
------------------------|----------------------------|-------------------|
------------------------|----------------------------|-------------------|
------------------------|----------------------------|-------------------|
------------------------|----------------------------|-------------------|
------------------------|----------------------------|-------------------|
------------------------|----------------------------|-------------------|
------------------------|----------------------------|-------------------|


  W                Q       W                Q       W                H         
------------------------|------------------------|----------------------------|
------------------------|------------------------|----------------------------|
------------------------|------------------------|----------------------------|
------------------------|------------------------|----------------------------|
------------------------|------------------------|----------------------------|
------------------------|------------------------|----------------------------|
------------------------|------------------------|----------------------------|


  W                   W                Q       W                Q     
-------------------|------------------------|------------------------|
-------------------|------------------------|------------------------|
-------------------|------------------------|------------------------|
-------------------|------------------------|------------------------|
-------------------|------------------------|------------------------|
-------------------|------------------------|------------------------|
-------------------|------------------------|------------------------|


  W                H           W                   W                 
----------------------------|-------------------|-------------------|
----------------------------|-------------------|-------------------|
----------------------------|-------------------|-------------------|
----------------------------|-------------------|-------------------|
----------------------------|-------------------|-------------------|
----------------------------|-------------------|-------------------|
----------------------------|-------------------|-------------------|


  W                   W                   W                   W                 
-------------------|-------------------|-------------------|-------------------|
-------------------|-------------------|-------------------|-------------------|
-------------------|-------------------|-------------------|-------------------|
-------------------|-------------------|-------------------|-------------------|
-------------------|-------------------|-------------------|-------------------|
-------------------|-------------------|-------------------|-------------------|
-------------------|-------------------|-------------------|-------------------|


  W                H           W                H           W                 
----------------------------|----------------------------|-------------------|
----------------------------|----------------------------|-------------------|
----------------------------|----------------------------|-------------------|
----------------------------|----------------------------|-------------------|
----------------------------|----------------------------|-------------------|
----------------------------|----------------------------|-------------------|
----------------------------|----------------------------|-------------------|


  W                   W                   W                   H        Q     
-------------------|-------------------|-------------------|----------------|
-------------------|-------------------|-------------------|----------------|
-------------------|-------------------|-------------------|----------------|
-------------------|-------------------|-------------------|----------------|
-------------------|-------------------|-------------------|----------------|
-------------------|-------------------|-------------------|----------------|
-------------------|-------------------|-------------------|----------------|


  H        Q       W                   W                   W                 
----------------|-------------------|-------------------|-------------------|
----------------|-------------------|-------------------|-------------------|
----------------|-------------------|-------------------|-------------------|
----------------|-------------------|-------------------|-------------------|
----------------|-------------------|-------------------|-------------------|
----------------|-------------------|-------------------|-------------------|
----------------|-------------------|-------------------|-------------------|


  W                   W                   W                   W                 
-------------------|-------------------|-------------------|-------------------|
-------------------|-------------------|-------------------|-------------------|
-------------------|-------------------|-------------------|-------------------|
-------------------|-------------------|-------------------|-------------------|
-------------------|-------------------|-------------------|-------------------|
-------------------|-------------------|-------------------|-------------------|
-------------------|-------------------|-------------------|-------------------|


  W                Q       W                   W                Q     
------------------------|-------------------|------------------------|
------------------------|-------------------|------------------------|
------------------------|-------------------|------------------------|
------------------------|-------------------|------------------------|
------------------------|-------------------|------------------------|
------------------------|-------------------|------------------------|
------------------------|-------------------|------------------------|


  W                   W                   W                Q     
-------------------|-------------------|------------------------|
-------------------|-------------------|------------------------|
-------------------|-------------------|------------------------|
-------------------|-------------------|------------------------|
-------------------|-------------------|------------------------|
-------------------|-------------------|------------------------|
-------------------|-------------------|------------------------|


  W                   W                Q       W                 
-------------------|------------------------|-------------------|
-------------------|------------------------|-------------------|
-------------------|------------------------|-------------------|
-------------------|------------------------|-------------------|
-------------------|------------------------|-------------------|
-------------------|------------------------|-------------------|
-------------------|------------------------|-------------------|


  W                   W                   W                   W                 
-------------------|-------------------|-------------------|-------------------|
-------------------|-------------------|-------------------|-------------------|
-------------------|-------------------|-------------------|-------------------|
-------------------|-------------------|-------------------|-------------------|
-------------------|-------------------|-------------------|-------------------|
-------------------|-------------------|-------------------|-------------------|
-------------------|-------------------|-------------------|-------------------|


  W                   W                   W                   W                 
-------------------|-------------------|-------------------|-------------------|
-------------------|-------------------|-------------------|-------------------|
-------------------|-------------------|-------------------|-------------------|
-------------------|-------------------|-------------------|-------------------|
-------------------|-------------------|-------------------|-------------------|
-------------------|-------------------|-------------------|-------------------|
-------------------|-------------------|-------------------|-------------------|


  W                   W                   W                E   
-------------------|-------------------|----------------------|
-------------------|-------------------|----------------------|
-------------------|-------------------|----------------------|
-------------------|-------------------|----------------------|
-------------------|-------------------|----------------------|
-------------------|-------------------|----------------------|
-------------------|-------------------|----------------------|


  W                   W                Q    E     W                 
-------------------|---------------------------|-------------------|
-------------------|---------------------------|-------------------|
-------------------|---------------------------|-------------------|
-------------------|---------------------------|-------------------|
-------------------|---------------------------|-------------------|
-------------------|---------------------------|-------------------|
-------------------|---------------------------|-------------------|


  W                   W                E     W                 
-------------------|----------------------|-------------------|
-------------------|----------------------|-------------------|
-------------------|----------------------|-------------------|
-------------------|----------------------|-------------------|
-------------------|----------------------|-------------------|
-------------------|----------------------|-------------------|
-------------------|----------------------|-------------------|


  W                Q    E     W                   W                 
---------------------------|-------------------|-------------------|
---------------------------|-------------------|-------------------|
---------------------------|-------------------|-------------------|
---------------------------|-------------------|-------------------|
---------------------------|-------------------|-------------------|
---------------------------|-------------------|-------------------|
---------------------------|-------------------|-------------------|


  W                   W                   W                   W                 
-------------------|-------------------|-------------------|-------------------|
-------------------|-------------------|-------------------|-------------------|
-------------------|-------------------|-------------------|-------------------|
-------------------|-------------------|-------------------|-------------------|
-------------------|-------------------|-------------------|-------------------|
-------------------|-------------------|-------------------|-------------------|
-------------------|-------------------|-------------------|-------------------|


  W                   W                   W                   W                 
-------------------|-------------------|-------------------|-------------------|
-------------------|-------------------|-------------------|-------------------|
-------------------|-------------------|-------------------|-------------------|
-------------------|-------------------|-------------------|-------------------|
-------------------|-------------------|-------------------|-------------------|
-------------------|-------------------|-------------------|-------------------|
-------------------|-------------------|-------------------|-------------------|


  H        Q       H        E     H        Q       H        E   
----------------|--------------|----------------|--------------|
----------------|--------------|----------------|--------------|
----------------|--------------|----------------|--------------|
----------------|--------------|----------------|--------------|
----------------|--------------|----------------|--------------|
----------------|--------------|----------------|--------------|
----------------|--------------|----------------|--------------|


  W                H           H        Q       H        E     H        Q     
----------------------------|----------------|--------------|----------------|
----------------------------|----------------|--------------|----------------|
----------------------------|----------------|--------------|----------------|
----------------------------|----------------|--------------|----------------|
----------------------------|----------------|--------------|----------------|
----------------------------|----------------|--------------|----------------|
----------------------------|----------------|--------------|----------------|


  H        E     W                H           W                H         
--------------|----------------------------|----------------------------|
--------------|----------------------------|----------------------------|
--------------|----------------------------|----------------------------|
--------------|----------------------------|----------------------------|
--------------|----------------------------|----------------------------|
--------------|----------------------------|----------------------------|
--------------|----------------------------|----------------------------|


  H        Q       H        E     H        Q       H        E   
----------------|--------------|----------------|--------------|
----------------|--------------|----------------|--------------|
----------------|--------------|----------------|--------------|
----------------|--------------|----------------|--------------|
----------------|--------------|----------------|--------------|
----------------|--------------|----------------|--------------|
----------------|--------------|----------------|--------------|


  H        Q       H        Q       H        Q       H        E   
----------------|----------------|----------------|--------------|
----------------|----------------|----------------|--------------|
----------------|----------------|----------------|--------------|
----------------|----------------|----------------|--------------|
----------------|----------------|----------------|--------------|
----------------|----------------|----------------|--------------|
----------------|----------------|----------------|--------------|


  H        Q       H        E     H        Q       H        Q     
----------------|--------------|----------------|----------------|
----------------|--------------|----------------|----------------|
----------------|--------------|----------------|----------------|
----------------|--------------|----------------|----------------|
----------------|--------------|----------------|----------------|
----------------|--------------|----------------|----------------|
----------------|--------------|----------------|----------------|


  H        Q       H        Q       H        Q       H        E   
----------------|----------------|----------------|--------------|
----------------|----------------|----------------|--------------|
----------------|----------------|----------------|--------------|
----------------|----------------|----------------|--------------|
----------------|----------------|----------------|--------------|
----------------|----------------|----------------|--------------|
----------------|----------------|----------------|--------------|


  H        Q       H        E     H        Q       H        E   
----------------|--------------|----------------|--------------|
----------------|--------------|----------------|--------------|
----------------|--------------|----------------|--------------|
----------------|--------------|----------------|--------------|
----------------|--------------|----------------|--------------|
----------------|--------------|----------------|--------------|
----------------|--------------|----------------|--------------|


  H        Q       H        E     W                   W                E   
----------------|--------------|-------------------|----------------------|
----------------|--------------|-------------------|----------------------|
----------------|--------------|-------------------|----------------------|
----------------|--------------|-------------------|----------------------|
----------------|--------------|-------------------|----------------------|
----------------|--------------|-------------------|----------------------|
----------------|--------------|-------------------|----------------------|


  W                   W                E     W                 
-------------------|----------------------|-------------------|
-------------------|----------------------|-------------------|
-------------------|----------------------|-------------------|
-------------------|----------------------|-------------------|
-------------------|----------------------|-------------------|
-------------------|----------------------|-------------------|
-------------------|----------------------|-------------------|


  W                E     W                   W                E     Q    E  S  
----------------------|-------------------|----------------------|------------|
----------------------|-------------------|----------------------|------------|
----------------------|-------------------|----------------------|------------|
----------------------|-------------------|----------------------|------------|
----------------------|-------------------|----------------------|------------|
----------------------|-------------------|----------------------|------------|
----------------------|-------------------|----------------------|------------|


  Q    E  S    Q    E  S    Q    E  S    W                H         
------------|------------|------------|----------------------------|
------------|------------|------------|----------------------------|
------------|------------|------------|----------------------------|
------------|------------|------------|----------------------------|
------------|------------|------------|----------------------------|
------------|------------|------------|----------------------------|
------------|------------|------------|----------------------------|


  W                H        Q       W                H         
---------------------------------|----------------------------|
---------------------------------|----------------------------|
---------------------------------|----------------------------|
---------------------------------|----------------------------|
---------------------------------|----------------------------|
---------------------------------|----------------------------|
---------------------------------|----------------------------|


  W                H        Q       W                H         
---------------------------------|----------------------------|
---------------------------------|----------------------------|
---------------------------------|----------------------------|
---------------------------------|----------------------------|
---------------------------------|----------------------------|
---------------------------------|----------------------------|
---------------------------------|----------------------------|


  W                H        Q       W                H         
---------------------------------|----------------------------|
---------------------------------|----------------------------|
---------------------------------|----------------------------|
---------------------------------|----------------------------|
---------------------------------|----------------------------|
---------------------------------|----------------------------|
---------------------------------|----------------------------|


  W                H        Q       Q    E  S    Q    E  S    Q    E  S  
---------------------------------|------------|------------|------------|
---------------------------------|------------|------------|------------|
---------------------------------|------------|------------|------------|
---------------------------------|------------|------------|------------|
---------------------------------|------------|------------|------------|
---------------------------------|------------|------------|------------|
---------------------------------|------------|------------|------------|


  Q    E  S    H        Q       W                   W                 
------------|----------------|-------------------|-------------------|
------------|----------------|-------------------|-------------------|
------------|----------------|-------------------|-------------------|
------------|----------------|-------------------|-------------------|
------------|----------------|-------------------|-------------------|
------------|----------------|-------------------|-------------------|
------------|----------------|-------------------|-------------------|


  W                   W                   W                   W                 
-------------------|-------------------|-------------------|-------------------|
-------------------|-------------------|-------------------|-------------------|
-------------------|-------------------|-------------------|-------------------|
-------------------|-------------------|-------------------|-------------------|
-------------------|-------------------|-------------------|-------------------|
-------------------|-------------------|-------------------|-------------------|
-------------------|-------------------|-------------------|-------------------|


  W                   W                   H        Q    E     H        Q    E   
-------------------|-------------------|-------------------|-------------------|
-------------------|-------------------|-------------------|-------------------|
-------------------|-------------------|-------------------|-------------------|
-------------------|-------------------|-------------------|-------------------|
-------------------|-------------------|-------------------|-------------------|
-------------------|-------------------|-------------------|-------------------|
-------------------|-------------------|-------------------|-------------------|


  H        Q    E     W                H           H        Q    E   
-------------------|----------------------------|-------------------|
-------------------|----------------------------|-------------------|
-------------------|----------------------------|-------------------|
-------------------|----------------------------|-------------------|
-------------------|----------------------------|-------------------|
-------------------|----------------------------|-------------------|
-------------------|----------------------------|-------------------|


  H        Q    E     H        Q    E     W                   W                 
-------------------|-------------------|-------------------|-------------------|
-------------------|-------------------|-------------------|-------------------|
-------------------|-------------------|-------------------|-------------------|
-------------------|-------------------|-------------------|-------------------|
-------------------|-------------------|-------------------|-------------------|
-------------------|-------------------|-------------------|-------------------|
-------------------|-------------------|-------------------|-------------------|


  W                   W                   W                   W                 
-------------------|-------------------|-------------------|-------------------|
-------------------|-------------------|-------------------|-------------------|
-------------------|-------------------|-------------------|-------------------|
-------------------|-------------------|-------------------|-------------------|
-------------------|-------------------|-------------------|-------------------|
-------------------|-------------------|-------------------|-------------------|
-------------------|-------------------|-------------------|-------------------|


  W                   W                   W                   W                 
-------------------|-------------------|-------------------|-------------------|
-------------------|-------------------|-------------------|-------------------|
-------------------|-------------------|-------------------|-------------------|
-------------------|-------------------|-------------------|-------------------|
-------------------|-------------------|-------------------|-------------------|
-------------------|-------------------|-------------------|-------------------|
-------------------|-------------------|-------------------|-------------------|


  W                Q       W                   W                 
------------------------|-------------------|-------------------|
------------------------|-------------------|-------------------|
------------------------|-------------------|-------------------|
------------------------|-------------------|-------------------|
------------------------|-------------------|-------------------|
------------------------|-------------------|-------------------|
------------------------|-------------------|-------------------|


  W                   W                   W                 
-------------------|-------------------|-------------------|
-------------------|-------------------|-------------------|
-------------------|-------------------|-------------------|
-------------------|-------------------|-------------------|
-------------------|-------------------|-------------------|
-------------------|-------------------|-------------------|
-------------------|-------------------|-------------------|


  W                Q       H        Q    E     H        Q    E   
------------------------|-------------------|-------------------|
------------------------|-------------------|-------------------|
------------------------|-------------------|-------------------|
------------------------|-------------------|-------------------|
------------------------|-------------------|-------------------|
------------------------|-------------------|-------------------|
------------------------|-------------------|-------------------|


  H        Q    E     H        Q    E     H        Q    E     W                 
-------------------|-------------------|-------------------|-------------------|
-------------------|-------------------|-------------------|-------------------|
-------------------|-------------------|-------------------|-------------------|
-------------------|-------------------|-------------------|-------------------|
-------------------|-------------------|-------------------|-------------------|
-------------------|-------------------|-------------------|-------------------|
-------------------|-------------------|-------------------|-------------------|


  W                   W                   W                   W                 
-------------------|-------------------|-------------------|-------------------|
-------------------|-------------------|-------------------|-------------------|
-------------------|-------------------|-------------------|-------------------|
-------------------|-------------------|-------------------|-------------------|
-------------------|-------------------|-------------------|-------------------|
-------------------|-------------------|-------------------|-------------------|
-------------------|-------------------|-------------------|-------------------|


  W                   W                   W                Q      
-------------------|-------------------|------------------------||
-------------------|-------------------|------------------------||
-------------------|-------------------|------------------------||
-------------------|-------------------|------------------------||
-------------------|-------------------|------------------------||
-------------------|-------------------|------------------------||
-------------------|-------------------|------------------------||

*****************************************************************************

3. ENDLESS SACRIFICE

Guitar 1

E  E  E  E  E  E  E  E     E  E  E  E  E  E  E  E   
D||---------------------------|--------------------------|
A||---------------------------|--------------------------|
F||*--------------0-----------|--------0-----------------|
C||*--------2--4-----4--2-----|-----2-----2-----2-----4--|
G||------2-----------------2--|--3-----------4-----2--L--|
D||---0-----------------------|--------------------------|


  E  E  E  E  E  E  E  E     E  E  E  E  E  E  E  E  E  E  E  E   
--------------------------|--------------------------------------|
--------------------------|--------------------------------------|
--------------0-----------|--------0-----------------------------|
--------2--4-----4--2-----|-----2-----2--------0--------0--------|
-----2-----------------2--|--3--------------2-----2--------3--2--|
--0-----------------------|--------------3-----------2--L--------|


  E  E  E  E  E  E  E  E     E  E  E  E   E  E  E  E   
--------------------------|---------------------------|
--------------------------|---------------------------|
--------------0-----------|--------0------------0-----|
--------2--4-----4--2-----|-----2-----2------4-----4--|
-----2-----------------2--|--3-----------/5-----------|
--0-----------------------|---------------------------|


  E  E  E  E  E  E  E  E     E  E  E  E  E  E  E  E   E  E  E  E  E  E   5x
--------------------------|----------------------------------------------||
--------------------------|----------------------------------------------||
--------------0-----------|--------0------------------------------------*||
--------2--4-----4--2-----|-----2-----2--------0------------7-----------*||
-----2-----------------2--|--3--------------2-----2------6--------3--2---||
--0-----------------------|--------------3-----------/7--L-----7---------||


  E  E  E  E  E  E  E  E     E  E  E  E  E  E  E  E   
--------------------------|--------------------------|
-----------0--1--0--------|--------0-----------0-----|
--------2-----------2-----|-----5-----5-----5-----5--|
-----2-----------------2--|--4-----------3-----------|
--0-----------------------|--------------------------|
--------------------------|--------------------------|


  E  E  E  E  E  E  E  E     E  E  S  S E  E  E  E  E  E  E   
--------------------------|--------1p-0----------------------|
-----------0--1--0--------|-------------3--------------5-----|
--------2-----------2-----|-----2----------------4--------4--|
-----2-----------------2--|--0----------------2-----2--------|
--0-----------------------|----------------------------------|
--------------------------|----------------4-----------------|


  E  E  E  E  E  E  E  E     E  E  E  E  E  E  E  E   
--------------------------|--------------------------|
-----------0--1--0--------|--------0-----------------|
--------2-----------2-----|-----5-----5--------0-----|
-----2-----------------2--|--4--------------0-----0--|
--0-----------------------|--------------------------|
--------------------------|--------------3-----------|


  E  E  E  E  E  E  E  E     E  E  E  E  E  E  E  E   
--------------------------|--------------------------|
-----------0--1--0--------|--------------------------|
--------2-----------2-----|--------------------------|
-----2--------------------|--------0-----------0-----|
--0-----------------------|-----0-----0-----3-----3--|
-----------------------3--|--2-----------1-----------|


                                                            NH  
  E  E  E  E   E  E  E  E       E.  S S  S E  S S S  S E    E   
---------------------------||----------------------------------|
---------------------------||----------------------------------|
--------0------------0-----||*----------------------------<>4--|
-----2-----2------7-----7--||*---------------------------------|
--3-----------/5-----------||---2-----5S-7-2--L---5S-7-2-------|
---------------------------||---0---0-3S-5-0--L-0-3S-5-0-------|


                                                              NH  
  E.  S S  S E  S S S  S E  E     E.  S S  S E  S S S  S E    E   
-------------------------------|---------------------------------|
-------------------------------|---------------------------------|
-------------------------------|----------------------------<>4--|
--------------------4S-5-4-----|---------------------------------|
--2-----5S-7-2--L---2S-3-2--4--|--2-----5S-7-2--L---5S-7-2-------|
--0---0-3S-5-0--L-0---------2--|--0---0-3S-5-0--L-0-3S-5-0-------|


  E.  S S  S E  S S S S S S S S      W                   W                  
---------------------------------||-------------------|--------------------|
---------------------------------||-------------------|--------------------|
--------------------------------*||-------------------|--------------------|
----------------5-5-5-5-7-7-7-7-*||--2----------------|--------------------|
--2-----5S-7-2--3-3-3-3-5-5-5-5--||--2----------------|--------------------|
--0---0-3S-5-0-------------------||--0----------------|--2~----------------|


  H.           E  E     H        H           H        H         
---------------------|--------------------|--------------------|
---------------------|--------------------|-----------5--------|
--2------------L-----|--5-----------------|-----------4--------|
--2------------L--4--|--5--------9--------|--2--------2--------|
--0------------L--2--|--3--------6--------|--2-----------------|
---------------------|--------------------|--0-----------------|


  W                    H.           E  E     H        H         
--------------------|---------------------|--------------------|
--------------------|---------------------|--------------------|
--------------------|--2------------L-----|--5-----------------|
--------------------|--2------------L--4--|--5--------9--------|
--------------------|--0------------L--2--|--3--------6--------|
--2~----------------|---------------------|--------------------|


  E  E  E  E  E  E  E  E     E  E  E  E  E  E  E  E   
--------------------------|--------------------------|
--------------------------|--------------------------|
--------------0-----------|--------0-----------------|
--------2--4-----4--2-----|-----2-----2-----2-----4--|
-----2-----------------2--|--3-----------4-----2--L--|
--0-----------------------|--------------------------|


  E  E  E  E  E  E  E  E     E  E  E  E  E  E  E  E  E  E  E  E   
--------------------------|--------------------------------------|
--------------------------|--------------------------------------|
--------------0-----------|--------0-----------------------------|
--------2--4-----4--2-----|-----2-----2--------0--------0--------|
-----2-----------------2--|--3--------------2-----2--------3--2--|
--0-----------------------|--------------3-----------2--L--------|


  E  E  E  E  E  E  E  E     E  E  E  E   E  E  E  E   
--------------------------|---------------------------|
--------------------------|---------------------------|
--------------0-----------|--------0------------0-----|
--------2--4-----4--2-----|-----2-----2------4-----4--|
-----2-----------------2--|--3-----------/5-----------|
--0-----------------------|---------------------------|


  E  E  E  E  E  E  E  E     E  E  E  E  E  E  E  E   E  E  E  E  E  E   
--------------------------|---------------------------------------------|
--------------------------|---------------------------------------------|
--------------0-----------|--------0------------------------------------|
--------2--4-----4--2-----|-----2-----2--------0------------7-----------|
-----2-----------------2--|--3--------------2-----2------6--------3--2--|
--0-----------------------|--------------3-----------/7--L-----7--------|


  E  E  E  E  E  E  E  E     E  E  E  E  E  E  E  E   
--------------------------|--------------------------|
--------------------------|--------------------------|
--------------0-----------|--------0-----------------|
--------2--4-----4--2-----|-----2-----2-----2-----4--|
-----2-----------------2--|--3-----------4-----2--L--|
--0-----------------------|--------------------------|


  E  E  E  E  E  E  E  E     E  E  E  E  E  E  E  E  E  E  E  E   
--------------------------|--------------------------------------|
--------------------------|--------------------------------------|
--------------0-----------|--------0-----------------------------|
--------2--4-----4--2-----|-----2-----2--------0--------0--------|
-----2-----------------2--|--3--------------2-----2--------3--2--|
--0-----------------------|--------------3-----------2--L--------|


  E  E  E  E  E  E  E  E     E  E  E  E   E  E  E  E   
--------------------------|---------------------------|
--------------------------|---------------------------|
--------------0-----------|--------0------------0-----|
--------2--4-----4--2-----|-----2-----2------4-----4--|
-----2-----------------2--|--3-----------/5-----------|
--0-----------------------|---------------------------|


  E  E  E  E  E  E  E  E     E  E  E  E  E  E  E  E   E  E  E  E  E  E   
--------------------------|---------------------------------------------|
--------------------------|---------------------------------------------|
--------------0-----------|--------0------------------------------------|
--------2--4-----4--2-----|-----2-----2--------0------------7-----------|
-----2-----------------2--|--3--------------2-----2------6--------3--2--|
--0-----------------------|--------------3-----------/7--L-----7--------|


  E  E  E  E  E  E  E  E     E  E  E  E  E  E  E  E   
--------------------------|--------------------------|
-----------0--1--0--------|--------0-----------0-----|
--------2-----------2-----|-----5-----5-----5-----5--|
-----2-----------------2--|--4-----------3-----------|
--0-----------------------|--------------------------|
--------------------------|--------------------------|


  E  E  E  E  E  E  E  E     E  E  S  S E  E  E  E  E  E  E   
--------------------------|--------1p-0----------------------|
-----------0--1--0--------|-------------3--------------5-----|
--------2-----------2-----|-----2----------------4--------4--|
-----2-----------------2--|--0----------------2-----2--------|
--0-----------------------|----------------------------------|
--------------------------|----------------4-----------------|


  E  E  E  E  E  E  E  E     E  E  E  E  E  E  E  E   
--------------------------|--------------------------|
-----------0--1--0--------|--------0-----------------|
--------2-----------2-----|-----5-----5--------0-----|
-----2-----------------2--|--4--------------0-----0--|
--0-----------------------|--------------------------|
--------------------------|--------------3-----------|


  E  E  E  E  E  E  E  E     E  E  E  E  E  E  E  E   
--------------------------|--------------------------|
-----------0--1--0--------|--------------------------|
--------2-----------2-----|--------------------------|
-----2--------------------|--------0-----------0-----|
--0-----------------------|-----0-----0-----3-----3--|
-----------------------3--|--2-----------1-----------|


                                                            NH  
  E  E  E  E   E  E  E  E       E.  S S  S E  S S S  S E    E   
---------------------------||----------------------------------|
---------------------------||----------------------------------|
--------0------------0-----||*----------------------------<>4--|
-----2-----2------7-----7--||*---------------------------------|
--3-----------/5-----------||---2-----5S-7-2--L---5S-7-2-------|
---------------------------||---0---0-3S-5-0--L-0-3S-5-0-------|


                                                              NH  
  E.  S S  S E  S S S  S E  E     E.  S S  S E  S S S  S E    E   
-------------------------------|---------------------------------|
-------------------------------|---------------------------------|
-------------------------------|----------------------------<>4--|
--------------------4S-5-4-----|---------------------------------|
--2-----5S-7-2--L---2S-3-2--4--|--2-----5S-7-2--L---5S-7-2-------|
--0---0-3S-5-0--L-0---------2--|--0---0-3S-5-0--L-0-3S-5-0-------|


                                                                  NH  
  E.  S S  S E  S S S S S S S S       E.  S S  S E  S S S  S E    E   
---------------------------------||----------------------------------|
---------------------------------||----------------------------------|
--------------------------------*||*----------------------------<>4--|
----------------5-5-5-5-7-7-7-7-*||*---------------------------------|
--2-----5S-7-2--3-3-3-3-5-5-5-5--||---2-----5S-7-2--L---5S-7-2-------|
--0---0-3S-5-0-------------------||---0---0-3S-5-0--L-0-3S-5-0-------|


                                                              NH  
  E.  S S  S E  S S S  S E  E     E.  S S  S E  S S S  S E    E   
-------------------------------|---------------------------------|
-------------------------------|---------------------------------|
-------------------------------|----------------------------<>4--|
--------------------4S-5-4-----|---------------------------------|
--2-----5S-7-2--L---2S-3-2--4--|--2-----5S-7-2--L---5S-7-2-------|
--0---0-3S-5-0--L-0---------2--|--0---0-3S-5-0--L-0-3S-5-0-------|


                                                             |--3--|     --- 
  E.  S S  S E  S S S S S S S S      E.  S S  S E  S T T S S E  E  E         
---------------------------------||-----------------------------------|-----|
---------------------------------||-----------------------------------|-----|
--------------------------------*||-----------------------------------|-----|
----------------5-5-5-5-7-7-7-7-*||----------------5---------7--7--7--|-----|
--2-----5S-7-2--3-3-3-3-5-5-5-5--||--2-----5S-7-2--3-3-3-3-3-5--5--5--|-----|
--0---0-3S-5-0-------------------||--0---0-3S-5-0---------------------|-----|


  H        Q     Q        S S E  E  E  Q    S S E     S S E  E  E  S S E  Q     
-----------------------|---------------------------|---------------------------|
-----------------------|---------------------------|---------------------------|
-----------------------|---------------5-----------|---------------------------|
-----------------------|---------------4-----------|----------------------8----|
-----------------------|---------------------------|----------------------6----|
----------------15\----|--3-2-0--0--0-------3-2-0--|--3-2-0--0--0--6-5-0--6----|


  S S E  E  E  Q    S S E     S S E  E  E  S S E  Q     
---------------------------|---------------------------|
---------------------------|---------------------------|
---------------5-----------|---------------------------|
---------------4-----------|----------------------8----|
---------------------------|----------------------6----|
--3-2-0--0--0-------3-2-0--|--3-2-0--0--0--6-5-0--6----|


    S S E  E  E  Q    S S E     S S E  E  E  S S E  Q    11x
|----------------------------|----------------------------||
|----------------------------|----------------------------||
|*---------------5-----------|---------------------------*||
|*---------------4-----------|----------------------8----*||
|----------------------------|----------------------6-----||
|---3-2-0--0--0-------3-2-0--|--3-2-0--0--0--6-5-0--6-----||


   E  E  S S E  E  E  Q       E  E  S S S S E  S S Q     
---------------------------|----------------------------|
---------------------------|----------------------------|
*--------------------------|----------------------------|
*---------------------5----|----------------5------3----|
----------------------3----|----------------3------1----|
---2--2--5-3-2--2--2-------|--2--2--5-3-0-0----0-0------|


  E  E  S S E  E  E  Q       E  E  S S S S E  E  Q       
--------------------------|----------------------------||
--------------------------|----------------------------||
--------------------------|---------------------------*||
---------------------5----|----------------5--4--3----*||
---------------------3----|----------------3--2--1-----||
--2--2--5-3-2--2--2-------|--2--2--5-3-0-0-------------||


  E  E  E  E  E  E  E  E     E  E  E  E  E  E  Q         E  E  E  E  E  E  E   
--------------------------|--------------------------|------------------------|
--------------------------|--------------------------|------------------------|
--------------------------|--------------------------|------9-----------7-----|
--------------------------|--------------------------|--/7-----7--5--4--------|
-----7-----------5--------|--3-----5--6--7-----3b----|---------------------5--|
--5-----5--3--2-----2--1--|-----1-----------3--------|------------------------|


  E  E  E  E  E  E  E  E      E  E  E  E  E  E  E  E   
--------------------------|---------------------------|
--------------------------|---------------------------|
--------8-----9-----------|---------------------------|
-----7-----9--------------|---------------------------|
--6--------------------2--|------7-----------5--------|
-----------------0--1-----|--/5-----5--3--2-----2--1--|


  E  E  E  E  E  E  Q         E  E  E  E  E  E  E     E  E  E  E  E  E  E  E   
--------------------------|------------------------|--------------------------|
--------------------------|------------------------|--------------------------|
--------------------------|------9-----------7-----|--------8-----9-----------|
--------------------------|--/7-----7--5--4--------|-----7-----9--------------|
--3-----5--6--7-----3b----|---------------------5--|--6--------------------2--|
-----1-----------3--------|------------------------|-----------------0--1-----|


    E  E  E  E  E  E  E     E  E  E  E  E  E   S  E.    
|------------------------|-----------------------------|
|------------------------|-----------------------------|
|*-----------------------|-----------------------11\---|
|*--------5--4--------7--|--------9--7--------10-------|
|---0--2--------0--3-----|--0--5--------0--7-----------|
|------------------------|-----------------------------|


  E  E   E   E  E   E   E     E   E   E   E  E   E   S  E.      
---------------------------|----------------------------------||
---------------------------|----------------------------------||
---------------------------|---------------------------17\---*||
--------12--10---------14--|---------16--14---------16-------*||
--0--9----------0--10------|--0--12----------0--15------------||
---------------------------|----------------------------------||


  E  E  E  E  E  E  E  E  E  E  E     E  E   E   E   E   E   E   E   
-----------------------------------|--------------------------------|
-----------------------------------|----------------------------13--|
-----------6-----------8--------9--|------------11----------12------|
--------5-----------7--------8-----|--------10----------11----------|
--3--4--------5--6--------7--------|--8--9----------10--------------|
-----------------------------------|--------------------------------|


   E   E   E   E   E   E   E   E   E   E      E   E   E   E   E   E   
------------------------------------------|--------------------------|
------------------------------------------|--------------------------|
--13----------15--11--17----------19--15--|--17----------------------|
------12------------------16--------------|------14--15--16--12------|
----------11------------------15----------|----------------------13--|
------------------------------------------|--------------------------|


                              |---3---|   |---3--|  |---3--|   
   E   E   E   E   E   E      E   E   E   E   E  E  E  E   E   
--------------------------|-----------------------------------|
--------------------------|-----------------------------------|
--14----------------------|--10------------------9--8---------|
------12--13--14--10------|------11----------10--------9------|
----------------------11--|----------12--11---------------10--|
--------------------------|-----------------------------------|


  E  E   S  S E  E  E   Q        E  E   S  S E   E  S S Q      
------------------------------|-------------------------------|
------------------------------|-------------------------------|
------------------------------|-------------------------------|
-----------------------10~----|-----------------10------8~----|
--9--9--12-10-9--9--9---------|--9--9--12-10-9------9-9-------|
------------------------------|-------------------------------|


  E  E   S  S E  E  E   Q        E  E   S  S S S  E  E  Q      
------------------------------|-------------------------------|
------------------------------|-------------------------------|
------------------------------|-------------------------------|
-----------------------10~----|------------------10--9--8~----|
--9--9--12-10-9--9--9---------|--9--9--12-10-9-9--------------|
------------------------------|-------------------------------|


  E  E  S S E  E  E  Q       E  E  S S S S E  S S Q     
--------------------------|----------------------------|
--------------------------|----------------------------|
--------------------------|----------------------------|
---------------------5----|----------------5------3----|
---------------------3----|----------------3------1----|
--2--2--5-3-2--2--2-------|--2--2--5-3-0-0----0-0------|


  E  E  S S E  E  E  Q       E  E  S S S S E  E  Q       W                 
--------------------------|---------------------------|-------------------|
--------------------------|---------------------------|-------------------|
--------------------------|---------------------------|-------------------|
---------------------5----|----------------5--4--3----|-------------------|
---------------------3----|----------------3--2--1----|-------------------|
--2--2--5-3-2--2--2-------|--2--2--5-3-0-0------------|-------------------|


  W                   W                   W                 
-------------------|-------------------|-------------------|
-------------------|-------------------|-------------------|
-------------------|-------------------|-------------------|
-------------------|-------------------|-------------------|
-------------------|-------------------|-------------------|
-------------------|-------------------|-------------------|


    S S E  E  E  Q    S S E     S S E  E  E  S S E  Q     5x
|----------------------------|----------------------------||
|----------------------------|----------------------------||
|*---------------5-----------|---------------------------*||
|*---------------4-----------|----------------------8----*||
|----------------------------|----------------------6-----||
|---3-2-0--0--0-------3-2-0--|--3-2-0--0--0--6-5-0--6-----||


   E  E  S S E  E  E  Q       E  E  S S S S E  S S Q     
---------------------------|----------------------------|
---------------------------|----------------------------|
*--------------------------|----------------------------|
*---------------------5----|----------------5------3----|
----------------------3----|----------------3------1----|
---2--2--5-3-2--2--2-------|--2--2--5-3-0-0----0-0------|


  E  E  S S E  E  E  Q       E  E  S S S S E  E  Q       
--------------------------|----------------------------||
--------------------------|----------------------------||
--------------------------|---------------------------*||
---------------------5----|----------------5--4--3----*||
---------------------3----|----------------3--2--1-----||
--2--2--5-3-2--2--2-------|--2--2--5-3-0-0-------------||


   S  S  S  S  S  S  S  S  S  S  S  S  S  S  S  S  
--------------------------------------------------|
--------------------------------------------------|
-----15-16-19-15-16----15-16-19-15-16----15-16-19-|
--17----------------------------------17----------|
--------------------19----------------------------|
--------------------------------------------------|


   S  S  S  S  S  S  S  S  S  S  S  S  S  S  S  S  
--------------------------------------------------|
--------------------------------------15-17----15-|
--15-16----15-16-19-15-16----15-16-19-------19----|
--------------------------17----------------------|
--------19----------------------------------------|
--------------------------------------------------|


   S  S  S  S  S  S  S  S  S  S  S  S  S  S  S  S  
--------------------------------------------------|
--17-20-15-17----15-------------------------------|
--------------19----16-19-15-16----15-------------|
--------------------------------17----16-17-14-16-|
--------------------------------------------------|
--------------------------------------------------|


   S  S  S  S  S  S  S  S  S  S  Q     E   
------------------------------------------|
------------------------------------------|
------------------------------------------|
-----14-----------------------------------|
--17----15-17-14-15----14-----------------|
--------------------17----15-17-14~----L--|


   |--6--|  |--6--|  |--6--|  |--6--|  |--6--|  |--6--|  |--6--|  |--6--|  
   S  S  S  S  S  S  S  S  S  S  S  S  S  S  S  S  S  S  S  S  S  S  S  S  
-----------------------------------------------------------------17-19-20-|
--------------------------------------------------------17-19-20----------|
-----------------------------------------------16-17-19-------------------|
-----------------------------14-16-17-19-17-19----------------------------|
-----------12-14-15-14-15-17----------------------------------------------|
--12-14-15----------------------------------------------------------------|


   Q      E   E    Q.     E   
--22br----L--22b~--L------L--|
-----------------------------|
-----------------------------|
-----------------------------|
-----------------------------|
-----------------------------|


   S  S  S   S  S  S  S  S  S  S  S  S   S  S  S  S  
--24-22-19S-18-19-22-19-18-19-18-17-16S-15-16-17-18-|
----------------------------------------------------|
----------------------------------------------------|
----------------------------------------------------|
----------------------------------------------------|
----------------------------------------------------|


   |--6--|  |--6--|  |--6--|  |--6--|  |--3--|               
   S  S  S  S  S  S  S  S  S  S  S  S  S  S  S  S  S  Q      
--19-18-17-16-------------19-18-17-16-----------------------|
--------------20-19-18-17-------------20-19-17--------------|
-----------------------------------------------20-17--------|
-----------------------------------------------------20~----|
------------------------------------------------------------|
------------------------------------------------------------|


   |-----5-----|  |-----5-----|  |-----5-----|  |-----5-----|  
   S  S  S  S  S  S  S  S  S  S  S  S  S  S  S  S  S  S  S  S  
-----------------------------------------------15-17-18-17-15-|
--------------------------------19-17-15-17-19----------------|
-----------------15-17-19-17-15-------------------------------|
--19-17-16-17-19----------------------------------------------|
--------------------------------------------------------------|
--------------------------------------------------------------|


   |-----5-----|  |-----5-----|  |-----5-----|  |-----5-----|  
   S  S  S  S  S  S  S  S  S  S  S  S  S  S  S  S  S  S  S  S  
--20-18-17-18-20-18-20-22-20-18-24-22-20-22-24-18-20-22-20-18-|
--------------------------------------------------------------|
--------------------------------------------------------------|
--------------------------------------------------------------|
--------------------------------------------------------------|
--------------------------------------------------------------|


   |--6--|  |--6--|   |------5-----|  |--6--|  |--6--|  |-----5-----|  
   S  S  S  S  S  S   S   S  S  S  S  S  S  S  S  S  S  S  S  S  S  S  
----------------------------------------------------------------------|
--22-20-19-20-22-20S-19S-17-------------------------------------------|
----------------------------17-15-17-19-19-15-------------------------|
----------------------------------------------19-16-17-19-19-16-------|
----------------------------------------------------------------17-13-|
----------------------------------------------------------------------|


   |--6--|  |--6--|                                      
   S  S  S  S  S  S  S  S  S  S  S  S  S  S  S  S  S  S  
--------------------------------------------------------|
--------------------------------------------------------|
--------------------------------------------------15-17-|
-----------------------------------------16-17-19-------|
--15-17-15-13-15-13-------------13-15-17----------------|
--------------------17-14-15-17-------------------------|


   E    Q.      S  S   S  S  S  S  S   S  
---------------14------------------------|
--17b~--L---------17p-14----14-----------|
-------------------------17----17-16p-14-|
-----------------------------------------|
-----------------------------------------|
-----------------------------------------|


   H           S  S  S  S  S  S  S  S  
--16b~--------18-17----------------17-|
--------------------20-19-17-19-20----|
--------------------------------------|
--------------------------------------|
--------------------------------------|
--------------------------------------|


               |--6--|  |--6--|  |--6--|  |--6--|                              
   H           S  S  S  S  S  S  S  S  S  S  S  S     Q.       E   H           
--18b~--------22-20-18-17-18-20-22-20-17-18-20-22-|--22b~---------24br--------|
--------------------------------------------------|---------------------------|
--------------------------------------------------|---------------------------|
--------------------------------------------------|---------------------------|
--------------------------------------------------|---------------------------|
--------------------------------------------------|---------------------------|


    H        Q    Q       W                75x  H        Q    E.   S  
|---L--------L---------|--------------------||-----------------------|
|----------------------|--------------------||-----------------------|
|*---------------------|-------------------*||-----------------------|
|*---------------------|-------------------*||-----------------------|
|----------------------|--------------------||--------------------13-|
|----------------------|--------------------||-----------------------|


                       |---3--|                          |---3---|  |--6--|  |-6
   T  T  T  T   S   S  S   S  S  T  T  T  T  T  T  T  T  S   S   S  S  S  S  E  
-----------10h-14p-10-14p-10-------------------------10-14h-18p-14--------------
--------11-------------------11-------------------11---------------15-----------
-----11-------------------------11-------------11---------------------15--------
--12-------------------------------12-------12---------------------------16-----
--------------------------------------13-13---------------------------------17--
--------------------------------------------------------------------------------


                       |---6--|  |--6--|                                     
   T  T  T  T   S   S  S   S  S  S  S  S  T  T  T  T   S   S  S  T  T  S. T  
-----------14h-18p-14-18p-14----------------------18h-22p-18----------------|
--------15-------------------15----------------15------------19-------------|
-----15-------------------------------------15------------------------------|
--16----------------------------16-------16---------------------20----------|
-----------------------------------17-17---------------------------21----21-|
----------------------------------------------------------------------18----|


                      |------5-----|  |--6--|  |---6--|         |--3--|  
   T  T  T  T  S   S  S   S  S  S  S  S  S  S  S   S  S   S  S  S  S  S  
-----------18-22p-18-22p-18----------------14-18p-14-18p-14-------------|
--------19------------------19----------15------------------15----------|
-----19------------------------------15------------------------------11-|
--20---------------------------20------------------------------16-------|
----------------------------------21------------------------------17----|
------------------------------------------------------------------------|


   |--6--|   |---6--|              |-----5----|    |-3-|     
   S  S  S   S  S   S  S  S  S T T S S  S  S  S  S T T T E   
-----10-14p-10-14p-10----------------6-10p-6-10p-6----------|
--11------------------11-----------7---------------7--------|
---------------------------------7-------------------7------|
-------------------------12----------------------------8----|
----------------------------13---------------------------9--|
------------------------------------------------------------|


   |---6---|  |---6---|   |---6---|   |-6-|   |---6---|   |---6---|   |---6---| 
   S   S   S  S   S   S   S   S   S   S   E   S   S   S   S   S   S   S   S   S 
--------------------------------------------------------------------------------
--------------------------------------------------------------------------------
---------------------------------------------11h-12h-14p-12p-11h-14h-17p-15p-14h
--------------------------------------------------------------------------------
--10h-12p-10p-9h-10h-12h-15p-13p-12h-13h-15-------------------------------------
--------------------------------------------------------------------------------


                                                      \1    
   |---6---|   |---6---|           |---3---|                
   S   S   S   S   S   S   S   S   S   S   S  E   E   Q     
--14h-15h-17p-15p-14h-15h-17h-18p-17h-18h-20-20------18----|
-------------------------------------------------19--------|
-----------------------------------------------------------|
-----------------------------------------------------------|
-----------------------------------------------------------|
-----------------------------------------------------------|


   /1                          
   Q    H         S  S   S  S  
-----------------15-18p-15----|
--20----L------------------18-|
------------------------------|
------------------------------|
------------------------------|
------------------------------|


                             |--6--|  |--6--|         
   S  S   S  S  S  S   S  S  S  S  S  S  S  S  Q      
--15-20p-15----15-22p-15----18-15--------------------|
------------18-----------18-------18-15--------------|
----------------------------------------17-15--------|
----------------------------------------------17S----|
-----------------------------------------------------|
-----------------------------------------------------|


     S  S  S  S  S  S  S  S  S  S  S  S  S  S  S  S    
|----------------------------------------------------||
|---------------13-------13--------------------------||
|*--16-12-14-16----14-16----16-12-14-16-14-12-------*||
|*--------------------------------------------16-14-*||
|----------------------------------------------------||
|----------------------------------------------------||


    S  S  S  S  S  S  S  S  S  S  S  S  S  S  S  S    
----------------------------------------------------||
---------------13-------13--------------------------||
*--15-12-14-15----14-15----15-12-14-15-14-12-------*||
*--------------------------------------------16-14-*||
----------------------------------------------------||
----------------------------------------------------||


   S  S  S  S  S  S  S  S  S  S  S  S  S  S  S  S  
--------------------------------------------------|
--------------15-------15-17----15-17-19-15-17-19-|
--18-14-16-18----16-18-------18-------------------|
--------------------------------------------------|
--------------------------------------------------|
--------------------------------------------------|


   S  S  S  S  S  S  S  S  S  S  S  S  S  S  S  S  
--------------------------------------------------|
--17-15----15-------------------------------------|
--------18----18-16-18-16-14-16-14----14----------|
-----------------------------------18----18-16-14-|
--------------------------------------------------|
--------------------------------------------------|


   S  S  S  S  S  S  S  S  S  S  S  S  S  S  S  S  
--------------------------------------------------|
--------------15-------15-17----15-17-18-15-17-18-|
--17-14-16-17----16-17-------17-------------------|
--------------------------------------------------|
--------------------------------------------------|
--------------------------------------------------|


   S  S  S  S  S  S  S  S  S  S  S  S  S  S  S  S  
--------------------------------------------------|
--17-15----15-------------------------------------|
--------17----17-16-17-16-14-16-14----14----------|
-----------------------------------18----18-15-14-|
--------------------------------------------------|
--------------------------------------------------|


   S  S  S  S  S  S  S  S  S  S  S  S  S  S  S  S  
--------------------------------------------------|
--------------------------------------------17-20-|
--------------------16-19-17-16----16-17-19-------|
--17-16----16-17-19-------------19----------------|
--------19----------------------------------------|
--------------------------------------------------|


                                                      tr                    
   S  S  S  S  S  S  S  S  S  S  S  S  S  S  S  S     W                     
--------------------19-22-20-19-------------------|------------------------|
--20-19----19-20-22-------------22-20-19----------|------------------------|
--------21-------------------------------21-20-17-|--16(17)----------------|
--------------------------------------------------|------------------------|
--------------------------------------------------|------------------------|
--------------------------------------------------|------------------------|


   Q     Q    H             E   E  E  E  E  E  E   E     E  Q    E  H          
-----------------------||-----------------------------|-----------------------|
-----------------------||-----------------------------|-----------------------|
--16\------------------||*----------------------------|-----------------------|
-----------------------||*--0h--2-----2--L-----0h--2--|-----2-----------------|
-----------------------||---0h--2-----2--L-----0h--2--|-----2-----------------|
-----------------------||----------0--0--L--0---------|--0--0----0--6~--------|


                             |--3--|  |--3--|  |--3--|  |--3--|   
  E   E  E  E  E  E  Q       E  E  E  E  E  E  E  E  E  E  E  E   
--------------------------|--------------------------------------|
--------------------------|--------------------------------------|
--------------------------|--------------------------------------|
--0h--2-----2--L-----2----|--------------------------------------|
--0h--2-----2--L-----2----|-----------2--3--5--2--3-----2--------|
---------0--0--L--0--0----|--2--3--5-----------------5-----3--5--|


  E   E  E  E  E  E  E   E     E  Q    E  H            E   E  E  E  E  E  Q     
----------------------------|-----------------------|--------------------------|
----------------------------|-----------------------|--------------------------|
----------------------------|-----------------------|--------------------------|
--0h--2-----2--L-----0h--2--|-----2-----------------|--0h--2-----2--L-----2----|
--0h--2-----2--L-----0h--2--|-----2-----------------|--0h--2-----2--L-----2----|
---------0--0--L--0---------|--0--0----0--6~--------|---------0--0--L--0--0----|


  S  S S S S S S S S S S S S S S S       E   E  E  E  E  E   E  E   
------------------------------------||-----------------------------|
------------------------------------||-----------------------------|
-----------------------------------*||*----------------------------|
-----------------------------------*||*--5p--4-----5-----5p--4-----|
------------------------------------||----------7---------------7--|
--7-10-8-7-5-8-7-5-3-7-5-3-2-5-3-2--||-----------------------------|


  E   E  E  E  E  E  E  E     E   E  E  E  E  E   E  E   
---------------------------|----------------------------|
---------------------------|----------------------------|
---------------------------|----------------------------|
--5p--4-----4--5--4--5--7--|--5p--4-----5-----5p--4-----|
---------7-----------------|---------7---------------7--|
---------------------------|----------------------------|


  E   E  E  E  E  E  E  E     E   E  E  E  E  E   E  E   
---------------------------|----------------------------|
---------------------------|----------------------------|
---------------------------|--5p--4-----5-----5p--4-----|
--5p--4-----4--5--4--5--7--|---------7---------------7--|
---------7-----------------|----------------------------|
---------------------------|----------------------------|


  E   E  E  E  E  E  E  E     E   E  E  E  E  E   E  E   
---------------------------|----------------------------|
---------------------------|----------------------------|
--5p--4-----4--5--4--5--7--|--5p--4-----5-----5p--4-----|
---------7-----------------|---------7---------------7--|
---------------------------|----------------------------|
---------------------------|----------------------------|


  |---3---|                                                    
  E   E   E  E  E  E  E  E  E       E   E  E  E  E  E  E   E   
--------------------------------||----------------------------|
--------------------------------||----------------------------|
--4h--5p--4--------------------*||----------------------------|
-------------7--5--4--------4--*||--0h--2-----2--L-----0h--2--|
----------------------7--6------||--0h--2-----2--L-----0h--2--|
--------------------------------||---------0--0--L--0---------|


  E  Q    E  H            E   E  E  E  E  E  Q     
-----------------------|--------------------------|
-----------------------|--------------------------|
-----------------------|--------------------------|
-----2-----------------|--0h--2-----2--L-----2----|
-----2-----------------|--0h--2-----2--L-----2----|
--0--0----0--6~--------|---------0--0--L--0--0----|


  |--3--|  |--3--|  |--3--|  |--3--|                                
  E  E  E  E  E  E  E  E  E  E  E  E     E   E  E  E  E  E  E   E   
--------------------------------------|----------------------------|
--------------------------------------|----------------------------|
--------------------------------------|----------------------------|
--------------------------------------|--0h--2-----2--L-----0h--2--|
-----------2--3--5--2--3-----2--------|--0h--2-----2--L-----0h--2--|
--2--3--5-----------------5-----3--5--|---------0--0--L--0---------|


  E  Q    E  H            E   E  E  E  E  E  Q     
-----------------------|--------------------------|
-----------------------|--------------------------|
-----------------------|--------------------------|
-----2-----------------|--0h--2-----2--L-----2----|
-----2-----------------|--0h--2-----2--L-----2----|
--0--0----0--6~--------|---------0--0--L--0--0----|


  S  S S S S S S S S S S S S S S S      E   E  E  E  E  E   E  E   
-----------------------------------||-----------------------------|
-----------------------------------||-----------------------------|
-----------------------------------||*----------------------------|
-----------------------------------||*--5p--4-----5-----5p--4-----|
-----------------------------------||----------7---------------7--|
--7-10-8-7-5-8-7-5-3-7-5-3-2-5-3-2-||-----------------------------|


  E   E  E  E  E  E  E  E     E   E  E  E  E  E   E  E   
---------------------------|----------------------------|
---------------------------|----------------------------|
---------------------------|----------------------------|
--5p--4-----4--5--4--5--7--|--5p--4-----5-----5p--4-----|
---------7-----------------|---------7---------------7--|
---------------------------|----------------------------|


  E   E  E  E  E  E  E  E     E   E  E  E  E  E   E  E   
---------------------------|----------------------------|
---------------------------|----------------------------|
---------------------------|--5p--4-----5-----5p--4-----|
--5p--4-----4--5--4--5--7--|---------7---------------7--|
---------7-----------------|----------------------------|
---------------------------|----------------------------|


  E   E  E  E  E  E  E  E     E   E  E  E  E  E   E  E   
---------------------------|----------------------------|
---------------------------|----------------------------|
--5p--4-----4--5--4--5--7--|--5p--4-----5-----5p--4-----|
---------7-----------------|---------7---------------7--|
---------------------------|----------------------------|
---------------------------|----------------------------|


  |---3---|                       
  E   E   E  E  E  E  E  E  E     
--------------------------------||
--------------------------------||
--4h--5p--4--------------------*||
-------------7--5--4--------4--*||
----------------------7--6------||
--------------------------------||


  S  S  S  S  S  S  S  S  S S  S  S S  S  S  S      W                 
-----------------------------------------------||--------------------|
--7h-8p-7p-5S-4h-5h-7p-5p-4--------------------||--------------------|
----------------------------7p-5p-4------------||*-------------------|
------------------------------------7p-5p-4p-0-||*--2----------------|
-----------------------------------------------||---2----------------|
-----------------------------------------------||---0----------------|


  W                   W                   W                   W                 
-------------------|-------------------|-------------------|-------------------|
-------------------|-------------------|-------------------|-------------------|
-------------------|-------------------|-------------------|-------------------|
--L----------------|-------------------|-------------------|--7----------------|
--L----------------|-------------------|-------------------|--7----------------|
--L----------------|--2----------------|--L----------------|--5----------------|


  W                    W                    W                 
-------------------|--------------------|--------------------|
-------------------|--------------------|--------------------|
-------------------|--------------------|--------------------|
--L----------------|--10----------------|--------------------|
--L----------------|--10----------------|--14----------------|
--L----------------|---8----------------|--11----------------|


  Q.     E  H           W                   W                 
---------------------|-------------------|-------------------|
---------5--L--------|--L----------------|-------------------|
---------4--L--------|--L----------------|-------------------|
--2------2--L--------|--L----------------|-------------------|
--2------------------|-------------------|-------------------|
--0------------------|-------------------|--2----------------|


  W                   W                   W                 
-------------------|-------------------|-------------------|
-------------------|-------------------|-------------------|
-------------------|-------------------|-------------------|
-------------------|--7----------------|--L----------------|
-------------------|--7----------------|--L----------------|
--L----------------|--5----------------|--L----------------|


                                                                        NH  
   W                    W                   E.  S S  S E  S S S  S E    E   
--------------------|--------------------|---------------------------------|
--------------------|--------------------|---------------------------------|
--------------------|--------------------|----------------------------<>4--|
--10----------------|--------------------|---------------------------------|
--10----------------|--14----------------|--2-----5S-7-2--L---5S-7-2-------|
---8----------------|--11----------------|--0---0-3S-5-0--L-0-3S-5-0-------|


                                                              NH  
  E.  S S  S E  S S S  S E  E     E.  S S  S E  S S S  S E    E   
-------------------------------|---------------------------------|
-------------------------------|---------------------------------|
-------------------------------|----------------------------<>4--|
--------------------4S-5-4-----|---------------------------------|
--2-----5S-7-2--L---2S-3-2--4--|--2-----5S-7-2--L---5S-7-2-------|
--0---0-3S-5-0--L-0---------2--|--0---0-3S-5-0--L-0-3S-5-0-------|


                                                                  NH  
  E.  S S  S E  S S S S S S S S       E.  S S  S E  S S S  S E    E   
---------------------------------||----------------------------------|
---------------------------------||----------------------------------|
--------------------------------*||*----------------------------<>4--|
----------------5-5-5-5-7-7-7-7-*||*---------------------------------|
--2-----5S-7-2--3-3-3-3-5-5-5-5--||---2-----5S-7-2--L---5S-7-2-------|
--0---0-3S-5-0-------------------||---0---0-3S-5-0--L-0-3S-5-0-------|


                                                              NH  
  E.  S S  S E  S S S  S E  E     E.  S S  S E  S S S  S E    E   
-------------------------------|---------------------------------|
-------------------------------|---------------------------------|
-------------------------------|----------------------------<>4--|
--------------------4S-5-4-----|---------------------------------|
--2-----5S-7-2--L---2S-3-2--4--|--2-----5S-7-2--L---5S-7-2-------|
--0---0-3S-5-0--L-0---------2--|--0---0-3S-5-0--L-0-3S-5-0-------|


  E.  S S  S E  S S S S S S S S       E   E  E  E  E  E  E   E   
---------------------------------||-----------------------------|
---------------------------------||-----------------------------|
--------------------------------*||*----------------------------|
----------------5-5-5-5-7-7-7-7-*||*--0h--2-----2--L-----0h--2--|
--2-----5S-7-2--3-3-3-3-5-5-5-5--||---0h--2-----2--L-----0h--2--|
--0---0-3S-5-0-------------------||----------0--0--L--0---------|


  E  Q    E  H            E   E  E  E  E  E  Q     
-----------------------|--------------------------|
-----------------------|--------------------------|
-----------------------|--------------------------|
-----2-----------------|--0h--2-----2--L-----2----|
-----2-----------------|--0h--2-----2--L-----2----|
--0--0----0--6~--------|---------0--0--L--0--0----|


  |--3--|  |--3--|  |--3--|  |--3--|                                
  E  E  E  E  E  E  E  E  E  E  E  E     E   E  E  E  E  E  E   E   
--------------------------------------|----------------------------|
--------------------------------------|----------------------------|
--------------------------------------|----------------------------|
--------------------------------------|--0h--2-----2--L-----0h--2--|
-----------2--3--5--2--3-----2--------|--0h--2-----2--L-----0h--2--|
--2--3--5-----------------5-----3--5--|---------0--0--L--0---------|


  E  Q    E  H            E   E  E  E  E  E  Q     
-----------------------|--------------------------|
-----------------------|--------------------------|
-----------------------|--------------------------|
-----2-----------------|--0h--2-----2--L-----2----|
-----2-----------------|--0h--2-----2--L-----2----|
--0--0----0--6~--------|---------0--0--L--0--0----|


  S  S S S S S S S S S S S S S S S      S S S S S S S S S S S S S S S S  
------------------------------------||----------------------------------|
------------------------------------||----------------------------------|
-----------------------------------*||----------------------------------|
-----------------------------------*||----2-----------------------------|
------------------------------------||--3---5-3-2-5-3-2---3-2-----2-----|
--7-10-8-7-5-8-7-5-3-7-5-3-2-5-3-2--||------------------5-----5-3---5-3-|


  S S S S S S S S S S S S S S S S S S S S S S S S  
--------------------------------------------------|
--------------------------------------------------|
--------------------------------------------------|
--2-5-4-2---4-2-----2-----------------------------|
----------5-----5-3---5-3-2-5-3-2---3-2-----2-----|
----------------------------------5-----5-3---5-3-|


                                           TP          TP                 
  Q    Q    Q    Q    H           H        H           H        H         
-------------------------------|--------------------|--------------------|
-------------------------------|--------------------|--------------------|
-------------------------------|--------------------|--9--------9--------|
--4----------------------------|--2--------2--------|--9--------9--------|
--2----3----3----3-------------|--2--------2--------|--7--------7--------|
-------1----1----1-------------|--0--------0--------|--0--------0--------|


  H         H          
---------------------||
---------------------||
--9\-----------------||
--9\-----------------||
--7\-----------------||
--0\-----------------||

***************************************************
***************************************************
***************************************************

Guitar 2

 5x        
D||--------|-------|-------|-------|-------|-------|-------|--------||-------|
A||--------|-------|-------|-------|-------|-------|-------|--------||-------|
F||*-------|-------|-------|-------|-------|-------|-------|-------*||-------|
C||*-------|-------|-------|-------|-------|-------|-------|-------*||-------|
G||--------|-------|-------|-------|-------|-------|-------|--------||-------|
D||--------|-------|-------|-------|-------|-------|-------|--------||-------|


                                                          W                 
-------|-------|-------|-------|-------|-------|-------|-------------------|
-------|-------|-------|-------|-------|-------|-------|-------------------|
-------|-------|-------|-------|-------|-------|-------|-------------------|
-------|-------|-------|-------|-------|-------|-------|-------------------|
-------|-------|-------|-------|-------|-------|-------|-------------------|
-------|-------|-------|-------|-------|-------|-------|-------------------|


    W                   W                   W                 
|--------------------|-------------------|-------------------|
|--------------------|-------------------|-------------------|
|*-------------------|-------------------|-------------------|
|*-------------------|-------------------|-------------------|
|--------------------|-------------------|-------------------|
|--------------------|-------------------|-------------------|


  W                     W                   W                 
--------------------||-------------------|-------------------|
--------------------||-------------------|-------------------|
-------------------*||-------------------|-------------------|
-------------------*||-------------------|-------------------|
--------------------||-------------------|-------------------|
--------------------||-------------------|-------------------|


  W                   W                   W                   W                 
-------------------|-------------------|-------------------|-------------------|
-------------------|-------------------|-------------------|-------------------|
-------------------|-------------------|-------------------|-------------------|
-------------------|-------------------|-------------------|-------------------|
-------------------|-------------------|-------------------|-------------------|
-------------------|-------------------|-------------------|-------------------|


  W                   W                   W                                     
-------------------|-------------------|-------------------|-------------------|
-------------------|-------------------|-------------------|-------------------|
-------------------|-------------------|-------------------|-------------------|
-------------------|-------------------|--2----------------|-------------------|
-------------------|-------------------|--2----------------|-------------------|
-------------------|-------------------|--0----------------|-------------------|


-------------------|-------------------|-------------------|-------------------|
-------------------|-------------------|-------------------|-------------------|
-------------------|-------------------|-------------------|-------------------|
-------------------|-------------------|-------------------|-------------------|
-------------------|-------------------|-------------------|-------------------|
-------------------|-------------------|-------------------|-------------------|


                                          E  E  E  E  E  E  E  E   
-------------------|-------------------|--------------------------|
-------------------|-------------------|--------------------------|
-------------------|-------------------|--------------0-----------|
-------------------|-------------------|--------2--4-----4--2-----|
-------------------|-------------------|-----2-----------------2--|
-------------------|-------------------|--0-----------------------|


  E  E  E  E  E  E  E  E     E  E  E  E  E  E  E  E   
--------------------------|--------------------------|
--------------------------|--------------------------|
--------0-----------------|--------------0-----------|
-----2-----2-----2-----4--|--------2--4-----4--2-----|
--3-----------4-----2--L--|-----2-----------------2--|
--------------------------|--0-----------------------|


  E  E  E  E  E  E  E  E  E  E  E  E     E  E  E  E  E  E  E  E   
--------------------------------------|--------------------------|
--------------------------------------|--------------------------|
--------0-----------------------------|--------------0-----------|
-----2-----2--------0--------0--------|--------2--4-----4--2-----|
--3--------------2-----2--------3--2--|-----2-----------------2--|
--------------3-----------2--L--------|--0-----------------------|


  E  E  E  E   E  E  E  E     E  E  E  E  E  E  E  E   
---------------------------|--------------------------|
---------------------------|--------------------------|
--------0------------0-----|--------------0-----------|
-----2-----2------4-----4--|--------2--4-----4--2-----|
--3-----------/5-----------|-----2-----------------2--|
---------------------------|--0-----------------------|


  E  E  E  E  E  E  E  E   E  E  E  E  E  E     E  E  E  E  E  E  E  E   
---------------------------------------------|--------------------------|
---------------------------------------------|-----------0--1--0--------|
--------0------------------------------------|--------2-----------2-----|
-----2-----2--------0------------7-----------|-----2-----------------2--|
--3--------------2-----2------6--------3--2--|--0-----------------------|
--------------3-----------/7--L-----7--------|--------------------------|


  E  E  E  E  E  E  E  E     E  E  E  E  E  E  E  E   
--------------------------|--------------------------|
--------0-----------0-----|-----------0--1--0--------|
-----5-----5-----5-----5--|--------2-----------2-----|
--4-----------3-----------|-----2-----------------2--|
--------------------------|--0-----------------------|
--------------------------|--------------------------|


  E  E  S  S E  E  E  E  E  E  E     E  E  E  E  E  E  E  E   
--------1p-0----------------------|--------------------------|
-------------3--------------5-----|-----------0--1--0--------|
-----2----------------4--------4--|--------2-----------2-----|
--0----------------2-----2--------|-----2-----------------2--|
----------------------------------|--0-----------------------|
----------------4-----------------|--------------------------|


  E  E  E  E  E  E  E  E     E  E  E  E  E  E  E  E   
--------------------------|--------------------------|
--------0-----------------|-----------0--1--0--------|
-----5-----5--------0-----|--------2-----------2-----|
--4--------------0-----0--|-----2--------------------|
--------------------------|--0-----------------------|
--------------3-----------|-----------------------3--|


  E  E  E  E  E  E  E  E     E  E  E  E   E  E  E  E                       
--------------------------|---------------------------||------|-----|-----|
--------------------------|---------------------------||------|-----|-----|
--------------------------|--------0------------0-----||*-----|-----|-----|
--------0-----------0-----|-----2-----2------7-----7--||*-----|-----|-----|
-----0-----0-----3-----3--|--3-----------/5-----------||------|-----|-----|
--2-----------1-----------|---------------------------||------|-----|-----|


                                           W                 
------||------|-----|-----|------||-----|-------------------|
------||------|-----|-----|------||-----|-------------------|
-----*||*-----|-----|-----|-----*||-----|-------------------|
-----*||*-----|-----|-----|-----*||-----|--2----------------|
------||------|-----|-----|------||-----|--2----------------|
------||------|-----|-----|------||-----|--0----------------|


  W                   W                   W                 
-------------------|-------------------|-------------------|
-------------------|-------------------|-------------------|
-------------------|-------------------|-------------------|
--L----------------|--L----------------|--L----------------|
--L----------------|--L----------------|--L----------------|
--L----------------|--L----------------|--L----------------|


  Q    Q    H                                              11x             
---------------------|-----------||------------|------------||------------|
---------------------|-----------||------------|------------||------------|
---------------------|-----------||*-----------|-----------*||*-----------|
--2------------------|-----------||*-----------|-----------*||*-----------|
--2------------------|-----------||------------|------------||------------|
--0------------------|-----------||------------|------------||------------|


-----------|-----------|------------||-----------|-----------|-----------|
-----------|-----------|------------||-----------|-----------|-----------|
-----------|-----------|-----------*||-----------|-----------|-----------|
-----------|-----------|-----------*||-----------|-----------|-----------|
-----------|-----------|------------||-----------|-----------|-----------|
-----------|-----------|------------||-----------|-----------|-----------|


-----------|-----------|-----------|-----------|-----------||------------|
-----------|-----------|-----------|-----------|-----------||------------|
-----------|-----------|-----------|-----------|-----------||*-----------|
-----------|-----------|-----------|-----------|-----------||*-----------|
-----------|-----------|-----------|-----------|-----------||------------|
-----------|-----------|-----------|-----------|-----------||------------|


-----------|-----------|------------||-----------|-----------|-----------|
-----------|-----------|------------||-----------|-----------|-----------|
-----------|-----------|-----------*||-----------|-----------|-----------|
-----------|-----------|-----------*||-----------|-----------|-----------|
-----------|-----------|------------||-----------|-----------|-----------|
-----------|-----------|------------||-----------|-----------|-----------|


-----------|-----------|-----------|-----------|-----------|-----------|
-----------|-----------|-----------|-----------|-----------|-----------|
-----------|-----------|-----------|-----------|-----------|-----------|
-----------|-----------|-----------|-----------|-----------|-----------|
-----------|-----------|-----------|-----------|-----------|-----------|
-----------|-----------|-----------|-----------|-----------|-----------|


-----------|-----------|-----------|-----------|-----------|-----------|
-----------|-----------|-----------|-----------|-----------|-----------|
-----------|-----------|-----------|-----------|-----------|-----------|
-----------|-----------|-----------|-----------|-----------|-----------|
-----------|-----------|-----------|-----------|-----------|-----------|
-----------|-----------|-----------|-----------|-----------|-----------|


                                                              5x             
-----------|-----------|-----------||------------|------------||------------|
-----------|-----------|-----------||------------|------------||------------|
-----------|-----------|-----------||*-----------|-----------*||*-----------|
-----------|-----------|-----------||*-----------|-----------*||*-----------|
-----------|-----------|-----------||------------|------------||------------|
-----------|-----------|-----------||------------|------------||------------|


                                        S S E  E  E  Q    S S E   
-----------|-----------|------------||---------------------------|
-----------|-----------|------------||---------------------------|
-----------|-----------|-----------*||---------------5-----------|
-----------|-----------|-----------*||---------------4-----------|
-----------|-----------|------------||---------------------------|
-----------|-----------|------------||--3-2-0--0--0-------3-2-0--|


  S S E  E  E  S S E  Q       S S E  E  E  Q    S S E   
---------------------------|---------------------------|
---------------------------|---------------------------|
---------------------------|---------------5-----------|
----------------------8----|---------------4-----------|
----------------------6----|---------------------------|
--3-2-0--0--0--6-5-0--6----|--3-2-0--0--0-------3-2-0--|


  S S E  E  E  S S E  Q       S S E  E  E  Q    S S E   
---------------------------|---------------------------|
---------------------------|---------------------------|
---------------------------|---------------5-----------|
----------------------8----|---------------4-----------|
----------------------6----|---------------------------|
--3-2-0--0--0--6-5-0--6----|--3-2-0--0--0-------3-2-0--|


  S S E  E  E  S S E  Q       S S E  E  E  Q    S S E   
---------------------------|---------------------------|
---------------------------|---------------------------|
---------------------------|---------------5-----------|
----------------------8----|---------------4-----------|
----------------------6----|---------------------------|
--3-2-0--0--0--6-5-0--6----|--3-2-0--0--0-------3-2-0--|


  S S E  E  E  S S E  Q       E  E  S S E  E  E  Q     
---------------------------|--------------------------|
---------------------------|--------------------------|
---------------------------|--------------------------|
----------------------8----|---------------------5----|
----------------------6----|---------------------3----|
--3-2-0--0--0--6-5-0--6----|--2--2--5-3-2--2--2-------|


  E  E  S S S S E  S S Q       E  E  S S E  E  E  Q     
----------------------------|--------------------------|
----------------------------|--------------------------|
----------------------------|--------------------------|
----------------5------3----|---------------------5----|
----------------3------1----|---------------------3----|
--2--2--5-3-0-0----0-0------|--2--2--5-3-2--2--2-------|


  E  E  S S S S E  E  Q       E  E  S S E  E  E  Q     
---------------------------|--------------------------|
---------------------------|--------------------------|
---------------------------|--------------------------|
----------------5--4--3----|---------------------5----|
----------------3--2--1----|---------------------3----|
--2--2--5-3-0-0------------|--2--2--5-3-2--2--2-------|


  E  E  S S S S E  S S Q       E  E  S S E  E  E  Q     
----------------------------|--------------------------|
----------------------------|--------------------------|
----------------------------|--------------------------|
----------------5------3----|---------------------5----|
----------------3------1----|---------------------3----|
--2--2--5-3-0-0----0-0------|--2--2--5-3-2--2--2-------|


  E  E  S S S S E  E  Q         S S E  E  E  Q    S S E   
---------------------------||----------------------------|
---------------------------||----------------------------|
---------------------------||*---------------5-----------|
----------------5--4--3----||*---------------4-----------|
----------------3--2--1----||----------------------------|
--2--2--5-3-0-0------------||---3-2-0--0--0-------3-2-0--|


  S S E  E  E  S S E  Q    75x              E  E  S S E  E  E  Q     
----------------------------||-----------|--------------------------|
----------------------------||-----------|--------------------------|
---------------------------*||-----------|--------------------------|
----------------------8----*||-----------|---------------------5----|
----------------------6-----||-----------|---------------------3----|
--3-2-0--0--0--6-5-0--6-----||-----------|--2--2--5-3-2--2--2-------|


  E  E  S S S S E  S S Q       E  E  S S E  E  E  Q     
----------------------------|--------------------------|
----------------------------|--------------------------|
----------------------------|--------------------------|
----------------5------3----|---------------------5----|
----------------3------1----|---------------------3----|
--2--2--5-3-0-0----0-0------|--2--2--5-3-2--2--2-------|


  E  E  S S S S E  E  Q       E  E  S S E  E  E  Q     
---------------------------|--------------------------|
---------------------------|--------------------------|
---------------------------|--------------------------|
----------------5--4--3----|---------------------5----|
----------------3--2--1----|---------------------3----|
--2--2--5-3-0-0------------|--2--2--5-3-2--2--2-------|


  E  E  S S S S E  S S Q       E  E  S S E  E  E  Q     
----------------------------|--------------------------|
----------------------------|--------------------------|
----------------------------|--------------------------|
----------------5------3----|---------------------5----|
----------------3------1----|---------------------3----|
--2--2--5-3-0-0----0-0------|--2--2--5-3-2--2--2-------|


  E  E  S S S S E  E  Q                                                
---------------------------||-------------||-------------||-----------|
---------------------------||-------------||-------------||-----------|
---------------------------||*-----------*||*-----------*||-----------|
----------------5--4--3----||*-----------*||*-----------*||-----------|
----------------3--2--1----||-------------||-------------||-----------|
--2--2--5-3-0-0------------||-------------||-------------||-----------|


-----------|-----------|-----------|-----------|-----------|-----------|
-----------|-----------|-----------|-----------|-----------|-----------|
-----------|-----------|-----------|-----------|-----------|-----------|
-----------|-----------|-----------|-----------|-----------|-----------|
-----------|-----------|-----------|-----------|-----------|-----------|
-----------|-----------|-----------|-----------|-----------|-----------|


-----------||------------|-----------|-----------|-----------|-----------|
-----------||------------|-----------|-----------|-----------|-----------|
-----------||*-----------|-----------|-----------|-----------|-----------|
-----------||*-----------|-----------|-----------|-----------|-----------|
-----------||------------|-----------|-----------|-----------|-----------|
-----------||------------|-----------|-----------|-----------|-----------|


-----------|-----------|------------||------------|-----------|-----------|
-----------|-----------|------------||------------|-----------|-----------|
-----------|-----------|-----------*||*-----------|-----------|-----------|
-----------|-----------|-----------*||*-----------|-----------|-----------|
-----------|-----------|------------||------------|-----------|-----------|
-----------|-----------|------------||------------|-----------|-----------|


-----------|-----------|-----------|-----------|------------||-----------|
-----------|-----------|-----------|-----------|------------||-----------|
-----------|-----------|-----------|-----------|-----------*||-----------|
-----------|-----------|-----------|-----------|-----------*||-----------|
-----------|-----------|-----------|-----------|------------||-----------|
-----------|-----------|-----------|-----------|------------||-----------|


-----------|-----------|-----------|-----------|-----------|-----------|
-----------|-----------|-----------|-----------|-----------|-----------|
-----------|-----------|-----------|-----------|-----------|-----------|
-----------|-----------|-----------|-----------|-----------|-----------|
-----------|-----------|-----------|-----------|-----------|-----------|
-----------|-----------|-----------|-----------|-----------|-----------|


-----------||------------|-----------|-----------|-----------|-----------|
-----------||------------|-----------|-----------|-----------|-----------|
-----------||*-----------|-----------|-----------|-----------|-----------|
-----------||*-----------|-----------|-----------|-----------|-----------|
-----------||------------|-----------|-----------|-----------|-----------|
-----------||------------|-----------|-----------|-----------|-----------|


-----------|-----------|------------||-----------||------------|-----------|
-----------|-----------|------------||-----------||------------|-----------|
-----------|-----------|-----------*||-----------||*-----------|-----------|
-----------|-----------|-----------*||-----------||*-----------|-----------|
-----------|-----------|------------||-----------||------------|-----------|
-----------|-----------|------------||-----------||------------|-----------|


-----------|-----------|-----------|-----------|-----------|-----------|
-----------|-----------|-----------|-----------|-----------|-----------|
-----------|-----------|-----------|-----------|-----------|-----------|
-----------|-----------|-----------|-----------|-----------|-----------|
-----------|-----------|-----------|-----------|-----------|-----------|
-----------|-----------|-----------|-----------|-----------|-----------|


-----------|-----------|-----------|-----------|-----------|-----------|
-----------|-----------|-----------|-----------|-----------|-----------|
-----------|-----------|-----------|-----------|-----------|-----------|
-----------|-----------|-----------|-----------|-----------|-----------|
-----------|-----------|-----------|-----------|-----------|-----------|
-----------|-----------|-----------|-----------|-----------|-----------|


-----------|-----------|-----------|-----------|-----------|------------||
-----------|-----------|-----------|-----------|-----------|------------||
-----------|-----------|-----------|-----------|-----------|-----------*||
-----------|-----------|-----------|-----------|-----------|-----------*||
-----------|-----------|-----------|-----------|-----------|------------||
-----------|-----------|-----------|-----------|-----------|------------||


------------|-----------|-----------|------------||------------|-----------|
------------|-----------|-----------|------------||------------|-----------|
*-----------|-----------|-----------|-----------*||*-----------|-----------|
*-----------|-----------|-----------|-----------*||*-----------|-----------|
------------|-----------|-----------|------------||------------|-----------|
------------|-----------|-----------|------------||------------|-----------|


-----------|-----------|-----------|-----------|-----------|------------||
-----------|-----------|-----------|-----------|-----------|------------||
-----------|-----------|-----------|-----------|-----------|-----------*||
-----------|-----------|-----------|-----------|-----------|-----------*||
-----------|-----------|-----------|-----------|-----------|------------||
-----------|-----------|-----------|-----------|-----------|------------||


-----------|-----------|-----------|-----------|-----------|-----------||
-----------|-----------|-----------|-----------|-----------|-----------||
-----------|-----------|-----------|-----------|-----------|-----------||
-----------|-----------|-----------|-----------|-----------|-----------||
-----------|-----------|-----------|-----------|-----------|-----------||
-----------|-----------|-----------|-----------|-----------|-----------||

*****************************************************************************

4. HONOR THY FATHER

Guitar 1

W                Q       S S S S S S S S S S S S S T T T T T T  
C ||------------------------|----------------------------------------|
G ||------------------------|----------------------------------------|
D#||------------------------|----------------------------------------|
A#||------------------------|----------------------------------------|
F ||------------------------|----2---2---2---2---2---2---------------|
C ||------------------------|----0---0---0---0---0---0---5-6-5-3-5-6-|


  T T S S S S S S S S S S S S T T T T T T  
------------------------------------------|
------------------------------------------|
------------------------------------------|
------------------------------------------|
------2---2---2---2---2---2---------------|
--5-3-0---0---0---0---0---0---2-3-2-0-2-3-|


  T T S S S S S S S S S S S S T T T T T T  
------------------------------------------|
------------------------------------------|
------------------------------------------|
------------------------------------------|
------2---2---2---2---2---2---3-5-3-2-3-5-|
--2-0-0---0---0---0---0---0---------------|


  T T S S S S S S S S S S S S T  T T T T  T  
--------------------------------------------|
--------------------------------------------|
--------------------------------------------|
--------------------------------------------|
--3-2-2---2---2---2---2---2---9-10-9-7-9-10-|
------0---0---0---0---0---0-----------------|


  T T S S S S S S S S S S S S S S S    S S S S S S S S S S S S S S S S  
------------------------------------|----------------------------------|
------------------------------------|----------------------------------|
------------------------------------|----------------------------------|
------------------------------------|----------------------------------|
--9-7-2---2---2---2---2---2---8-8-8-|--8-2---2---2---2---2---2---5-5-5-|
------0---0---0---0---0---0---6-6-6-|--6-0---0---0---0---0---0---3-3-3-|


  S S S S S S S S S S S S S S S S    S S S S S S S S S S S S S S S S  
----------------------------------|----------------------------------|
----------------------------------|----------------------------------|
----------------------------------|----------------------------9-9-9-|
----------------------------5-5-5-|--5-------------------------7-7-7-|
--5-2---2---2---2---2---2---3-3-3-|--3-2---2---2---2---2---2---5-5-5-|
--3-0---0---0---0---0---0---------|----0---0---0---0---0---0---------|


  S S S S S S S S S S S S S S S S    S S S S S S S S S S S S S S S S  
----------------------------------|----------------------------------|
----------------------------------|----------------------------------|
--9-------------------------------|----------------------------------|
--7-------------------------------|----------------------------------|
--5-2---2---2---2---2---2---8-8-8-|--8-2---2---2---2---2---2---5-5-5-|
----0---0---0---0---0---0---6-6-6-|--6-0---0---0---0---0---0---3-3-3-|


  S S S S S S S S S S S S S S S S    S S S S S S S S S S S S S S S S  
----------------------------------|----------------------------------|
----------------------------------|----------------------------------|
----------------------------------|----------------------------9-9-9-|
----------------------------5-5-5-|--5-------------------------7-7-7-|
--5-2---2---2---2---2---2---3-3-3-|--3-2---2---2---2---2---2---5-5-5-|
--3-0---0---0---0---0---0---------|----0---0---0---0---0---0---------|


  S S  S  S  S  S  S  S  S  S S S S  S S S  
-------------------------------------------|
----------5-----5-----5-----5--------------|
----------4-----4-----4-----4--------------|
----------2-----2-----2-----2--------------|
--2-2-----2-----2-----2-----2-2-2-4S-5-5-5-|
--0-0-(0)---(0)---(0)---(0)---0-0-2S-3-3-3-|


  S S  S  S  S  S  S  S  S  S S S S  S S S  
-------------------------------------------|
----------5-----5-----5-----5--------------|
----------4-----4-----4-----4--------------|
----------2-----2-----2-----2--------------|
--2-2-----2-----2-----2-----2-2-2-5S-8-8-8-|
--0-0-(0)---(0)---(0)---(0)---0-0-3S-6-6-6-|


  S S  S  S  S  S  S  S  S  S S S S  S S S  
-------------------------------------------|
----------5-----5-----5-----5--------------|
----------4-----4-----4-----4--------------|
----------2-----2-----2-----2--------------|
--2-2-----2-----2-----2-----2-2-2-4S-5-5-5-|
--0-0-(0)---(0)---(0)---(0)---0-0-2S-3-3-3-|


  S S  S  S  S  S  S   S S S   S   S S S S S  
---------------------------------------------|
----------5-----5----------------------------|
----------4-----4----------------------------|
----------2-----2----------------------------|
--2-2-----2-----2--------5-----------2---3-3-|
--0-0-(0)---(0)---(0)S-7---7S-(7)S-3---3-1-1-|


  S S  S  S  S  S  S  S  S  S S S S  S S S  
-------------------------------------------|
----------5-----5-----5-----5--------------|
----------4-----4-----4-----4--------------|
----------2-----2-----2-----2--------------|
--2-2-----2-----2-----2-----2-2-2-4S-5-5-5-|
--0-0-(0)---(0)---(0)---(0)---0-0-2S-3-3-3-|


  S S  S  S  S  S  S  S  S  S S S S  S S S  
-------------------------------------------|
----------5-----5-----5-----5--------------|
----------4-----4-----4-----4--------------|
----------2-----2-----2-----2--------------|
--2-2-----2-----2-----2-----2-2-2-5S-8-8-8-|
--0-0-(0)---(0)---(0)---(0)---0-0-3S-6-6-6-|


  S S  S  S  S  S  S  S  S  S S S S  S S S  
-------------------------------------------|
----------5-----5-----5-----5--------------|
----------4-----4-----4-----4--------------|
----------2-----2-----2-----2--------------|
--2-2-----2-----2-----2-----2-2-2-4S-5-5-5-|
--0-0-(0)---(0)---(0)---(0)---0-0-2S-3-3-3-|


  S S  S  S  S  S  S   S S S   S   S S S S S  
---------------------------------------------|
----------5-----5----------------------------|
----------4-----4----------------------------|
----------2-----2----------------------------|
--2-2-----2-----2--------5-----------2---3-3-|
--0-0-(0)---(0)---(0)S-7---7S-(7)S-3---3-1-1-|


  S S S S S S S S S S S S S S S S    S S S S S S S S S S S S S S S S  
----------------------------------|----------------------------------|
----------------------------------|----------------------------------|
----------------------------------|----------------------------------|
----------------------------------|----------------------------------|
--7-5-7-------7-5-7-------------5-|--7-5-7---------------------------|
--------0-3-0-------0-7-0-8-7-8---|--------0-3-0-8-7-8-0-3-0-7-5-7-8-|


  S S S S S S S S S S S S S S S S    S S S S S S S S S S S S S S S S  
----------------------------------|----------------------------------|
----------------------------------|----------------------------------|
----------------------------------|----------------------------------|
----------------------------------|----------------------------------|
--7-5-7-------7-5-7-------------5-|--7-5-7---------------------------|
--------0-3-0-------0-7-0-8-7-8---|--------0-3-0-8-7-8-0-3-0-7-5-7-8-|


  S S  S  S  S  S  S  S  S  S S S S  S S S  
-------------------------------------------|
----------5-----5-----5-----5--------------|
----------4-----4-----4-----4--------------|
----------2-----2-----2-----2--------------|
--2-2-----2-----2-----2-----2-2-2-4S-5-5-5-|
--0-0-(0)---(0)---(0)---(0)---0-0-2S-3-3-3-|


  S S  S  S  S  S  S  S  S  S S S S  S S S  
-------------------------------------------|
----------5-----5-----5-----5--------------|
----------4-----4-----4-----4--------------|
----------2-----2-----2-----2--------------|
--2-2-----2-----2-----2-----2-2-2-5S-8-8-8-|
--0-0-(0)---(0)---(0)---(0)---0-0-3S-6-6-6-|


  S S  S  S  S  S  S  S  S  S S S S  S S S  
-------------------------------------------|
----------5-----5-----5-----5--------------|
----------4-----4-----4-----4--------------|
----------2-----2-----2-----2--------------|
--2-2-----2-----2-----2-----2-2-2-4S-5-5-5-|
--0-0-(0)---(0)---(0)---(0)---0-0-2S-3-3-3-|


  S S  S  S  S  S  S   S S S   S   S S S S S  
---------------------------------------------|
----------5-----5----------------------------|
----------4-----4----------------------------|
----------2-----2----------------------------|
--2-2-----2-----2--------5-----------2---3-3-|
--0-0-(0)---(0)---(0)S-7---7S-(7)S-3---3-1-1-|


  S S S S S S S S S S S S S S S S    S S S S S S S S S S S S S S S S  
----------------------------------|----------------------------------|
----------------------------------|----------------------------------|
----------------------------------|----------------------------------|
----------------------------------|----------------------------------|
--7-5-7-------7-5-7-------------5-|--7-5-7---------------------------|
--------0-3-0-------0-7-0-8-7-8---|--------0-3-0-8-7-8-0-3-0-7-5-7-8-|


  S S S S S S S S S S S S S S S S    S S S S S S S S S S S S S S S S  
----------------------------------|----------------------------------|
----------------------------------|----------------------------------|
----------------------------------|----------------------------------|
----------------------------------|----------------------------------|
--7-5-7-------7-5-7-------------5-|--7-5-7---------------------------|
--------0-3-0-------0-7-0-8-7-8---|--------0-3-0-8-7-8-0-3-0-7-5-7-8-|


  H        Q    E     E  S S S S S  S S S S S E   
-------------------|-----------------------------|
-------------------|-----------------------------|
-------------------|-----------------------------|
-------------------|-----9---7-9---10---9---7-9--|
-------------------|--7----7-----7----7---7------|
-------------------|-----------------------------|


  E  S S S S S  S S S S S S S S S    E  S S S S S  S S S S S E   
----------------------------------|-----------------------------|
----------------------------------|-----------------------------|
----------------------------------|-----------------------------|
-----9---7-9---10---9---7-9---7-9-|-----9---7-9---10---9---7-9--|
--7----7-----7----7---7-----7-----|--7----7-----7----7---7------|
----------------------------------|-----------------------------|


  E  S S S S S  S S  S S S S S S S    E  S S S S S  S S S S S E   
-----------------------------------|-----------------------------|
-----------------------------------|-----------------------------|
-----------------------------------|-----------------------------|
-----9---7-9---12---10---7-9---7-9-|-----9---7-9---10---9---7-9--|
--7----7-----7----7----7-----7-----|--7----7-----7----7---7------|
-----------------------------------|-----------------------------|


  E  S S S S S  S S S S S S S S S    E  S S S S S  S S S S S E   
----------------------------------|-----------------------------|
----------------------------------|-----------------------------|
----------------------------------|-----------------------------|
-----9---7-9---10---9---7-9---7-9-|-----9---7-9---10---9---7-9--|
--7----7-----7----7---7-----7-----|--7----7-----7----7---7------|
----------------------------------|-----------------------------|


  E  S S S S S  S S  S S S S S S S    E  S  S S S S S  S S  S S  S S  S S  
-----------------------------------|--------------------------------------|
-----------------------------------|--------------------------------------|
-----------------------------------|--------------------------------------|
-----9---7-9---12---10---7-9---7-9-|--------------------------------------|
--7----7-----7----7----7-----7-----|--------------------------------------|
-----------------------------------|--0--7p-0-8-7-0-5p-0-7p-0-2p-0-3p-0-5-|


  E  S  S  S S S S  S S   S E  S  S S    E  S  S S S S S  S S  S S  S S  S S  
--------------------------------------|--------------------------------------|
--------------------------------------|--------------------------------------|
--------------------------------------|--------------------------------------|
--------------------------------------|--------------------------------------|
--------------------------------------|--------------------------------------|
--0--7p-0-10-8-0-5p-0-7h-12-0--2p-0-3-|--0--7p-0-8-7-0-5p-0-7p-0-2p-0-3p-0-5-|


  E  S  S  S S S S  S S   S E  S  S S    S S S Q    S S S Q     
--------------------------------------|------------------------|
--------------------------------------|------------------------|
--------------------------------------|------------------------|
--------------------------------------|------------------------|
--------------------------------------|--2-2-2------2-2-2------|
--0--7p-0-10-8-0-5p-0-7h-12-0--2p-0-3-|--0-0-0------0-0-0------|


  S S S S E.  S S S E  S S E     S S S S E.  S S S Q     
------------------------------|-------------------------|
------------------------------|-------------------------|
------------------------------|-------------------------|
------------------------------|-------------------------|
--2-2-2-------2-2-2----2-2----|--2-2-2-------2-2-2------|
--0-0-0-------0-0-0----0-0----|--0-0-0-------0-0-0------|


  S S S S E.  S S S E  S S E     S S S S E.  S S S Q     
------------------------------|-------------------------|
------------------------------|-------------------------|
------------------------------|-------------------------|
------------------------------|-------------------------|
--2-2-2-------2-2-2----2-2----|--2-2-2-------2-2-2------|
--0-0-0-------0-0-0----0-0----|--0-0-0-------0-0-0------|


  S S S S E.  S S S E  S S E     S S S S E.  S S S Q     
------------------------------|-------------------------|
------------------------------|-------------------------|
------------------------------|-------------------------|
------------------------------|-------------------------|
--2-2-2-------2-2-2----2-2----|--2-2-2-------2-2-2------|
--0-0-0-------0-0-0----0-0----|--0-0-0-------0-0-0------|


  S S S S E.  S S S E  S S E     Q    E.  E.  Q       Q    E.  E.  E  E.  S  
------------------------------|-----------3--------|-----------3------------|
------------------------------|-------3-------3----|-------3-------3--------|
------------------------------|--5-----------------|--5---------------5-----|
------------------------------|--5-----------------|--5---------------------|
--2-2-2-------2-2-2----2-2----|--3-----------------|--3---------------------|
--0-0-0-------0-0-0----0-0----|--------------------|------------------------|


  E  E  E  S E  E   E   S    E  E   E   S E  E   E    S    E   
--------------------------|-----------------------------------|
--------------------------|-----------------------------------|
--------9--9-------11--11-|--------12--12-------14--(14)S-16--|
--------x--x--------x---x-|---------x---x--------x---------x--|
--------7--7--------9---9-|--------10--10-------12--(12)S-14--|
--0--0-------0--0---------|--0--0---------0--0----------------|


  Q    E.  E.  Q       Q    E.  E.  E  Q       E.  E.  E  S E.  S E.   
-----------3--------|-----------3-----------|-------------------------|
-------3-------3----|-------3-------3-------|-------------------------|
--5-----------------|--5--------------------|-------------------------|
--5-----------------|--5---------------7----|---------------5---------|
--3-----------------|--3---------------5----|--5---7---4--x-3---x-3---|
--------------------|------------------5----|--3---5---2--x-----x-1---|


  S E   S E  S S  S S E  S S  S   S    S E   S E   S S  S S E  S S S S  
------------------------------------|----------------------------------|
------------------------------------|----------------------------------|
------------------------------------|----------------------------------|
------------------------------------|-----------------------5----------|
---------------5S-4---7----4-(4)S-5-|----------------5S-4---3--4-5-4-5-|
--0-7~--0-6--0-3S-2-0-5--0-2-(2)S-3-|--0-7~--0-6~--0-3S-2-0----2-3-2-3-|


  S E   S E   S S  S S E  S S  S   S    S E   S E   S S  S S E  S S S S  
-------------------------------------|----------------------------------|
-------------------------------------|----------------------------------|
-------------------------------------|----------------------------------|
-------------------------------------|-----------------------5----------|
----------------5S-4---7----4-(4)S-5-|----------------5S-4---3--4-5-4-5-|
--0-7~--0-6~--0-3S-2-0-5--0-2-(2)S-3-|--0-7~--0-6~--0-3S-2-0----2-3-2-3-|


  S E   S E   S S  S S E  S S  S   S    S E   S E   S S  S S E  S S S S  
-------------------------------------|----------------------------------|
-------------------------------------|----------------------------------|
-------------------------------------|----------------------------------|
-------------------------------------|-----------------------5----------|
----------------5S-4---7----4-(4)S-5-|----------------5S-4---3--4-5-4-5-|
--0-7~--0-6~--0-3S-2-0-5--0-2-(2)S-3-|--0-7~--0-6~--0-3S-2-0----2-3-2-3-|


  S E   S E   S S  S S E  S S  S   S    S E   S E   S S  S S E  S S S S  
-------------------------------------|----------------------------------|
-------------------------------------|----------------------------------|
-------------------------------------|----------------------------------|
-------------------------------------|-----------------------5----------|
----------------5S-4---7----4-(4)S-5-|----------------5S-4---3--4-5-4-5-|
--0-7~--0-6~--0-3S-2-0-5--0-2-(2)S-3-|--0-7~--0-6~--0-3S-2-0----2-3-2-3-|


  S S  S  S  S  S  S  S  S  S S S S  S S S  
-------------------------------------------|
----------5-----5-----5-----5--------------|
----------4-----4-----4-----4--------------|
----------2-----2-----2-----2--------------|
--2-2-----2-----2-----2-----2-2-2-4S-5-5-5-|
--0-0-(0)---(0)---(0)---(0)---0-0-2S-3-3-3-|


  S S  S  S  S  S  S  S  S  S S S S  S S S  
-------------------------------------------|
----------5-----5-----5-----5--------------|
----------4-----4-----4-----4--------------|
----------2-----2-----2-----2--------------|
--2-2-----2-----2-----2-----2-2-2-5S-8-8-8-|
--0-0-(0)---(0)---(0)---(0)---0-0-3S-6-6-6-|


  S S  S  S  S  S  S  S  S  S S S S  S S S  
-------------------------------------------|
----------5-----5-----5-----5--------------|
----------4-----4-----4-----4--------------|
----------2-----2-----2-----2--------------|
--2-2-----2-----2-----2-----2-2-2-4S-5-5-5-|
--0-0-(0)---(0)---(0)---(0)---0-0-2S-3-3-3-|


  S S  S  S  S  S  S   S S S   S   S S S S S  
---------------------------------------------|
----------5-----5----------------------------|
----------4-----4----------------------------|
----------2-----2----------------------------|
--2-2-----2-----2--------5-----------2---3-3-|
--0-0-(0)---(0)---(0)S-7---7S-(7)S-3---3-1-1-|


  S S  S  S  S  S  S  S  S  S S S S  S S S  
-------------------------------------------|
----------5-----5-----5-----5--------------|
----------4-----4-----4-----4--------------|
----------2-----2-----2-----2--------------|
--2-2-----2-----2-----2-----2-2-2-4S-5-5-5-|
--0-0-(0)---(0)---(0)---(0)---0-0-2S-3-3-3-|


  S S  S  S  S  S  S  S  S  S S S S  S S S  
-------------------------------------------|
----------5-----5-----5-----5--------------|
----------4-----4-----4-----4--------------|
----------2-----2-----2-----2--------------|
--2-2-----2-----2-----2-----2-2-2-5S-8-8-8-|
--0-0-(0)---(0)---(0)---(0)---0-0-3S-6-6-6-|


  S S  S  S  S  S  S  S  S  S S S S  S S S  
-------------------------------------------|
----------5-----5-----5-----5--------------|
----------4-----4-----4-----4--------------|
----------2-----2-----2-----2--------------|
--2-2-----2-----2-----2-----2-2-2-4S-5-5-5-|
--0-0-(0)---(0)---(0)---(0)---0-0-2S-3-3-3-|


  S S  S  S  S  S  S   S S S   S   S S S S S    E  S S S  S S  S S S S S  E   
---------------------------------------------|-------------------------------|
----------5-----5----------------------------|-------------------------------|
----------4-----4----------------------------|-------------------------------|
----------2-----2----------------------------|-----9---7h-9---10---9---7h-9--|
--2-2-----2-----2--------5-----------2---3-3-|--7--7-7-7----7--7-7-7-7-7-----|
--0-0-(0)---(0)---(0)S-7---7S-(7)S-3---3-1-1-|-------------------------------|


  E  S S S  S S  S S S S S  E     E  S S S  S S  S S S S S  S S S  S  
-------------------------------|-------------------------------------|
-------------------------------|-------------------------------------|
-------------------------------|-------------------------------------|
-----9---7h-9---10---9---7h-9--|-----9---7h-9---10---9---7h-9---7h-9-|
--7----7------7----7---7-------|--7----7------7----7---7------7------|
-------------------------------|-------------------------------------|


  E  S S S  S S  S S S S S  E     E  S S S  S S S S  S S S  S S S  S  
-------------------------------|-------------------------------------|
-------------------------------|-------------------------------------|
-------------------------------|----------------7--------------------|
-----9---7h-9---10---9---7h-9--|-----9---7h-9-------10---7h-9---7h-9-|
--7----7------7----7---7-------|--7----7------7---7----7------7------|
-------------------------------|-------------------------------------|


  E  S S S  S S  S S S S S  E     E  S S S  S S  S S S S S  S S S  S  
-------------------------------|-------------------------------------|
-------------------------------|-------------------------------------|
-------------------------------|-------------------------------------|
-----9---7h-9---10---9---7h-9--|-----9---7h-9---10---9---7h-9---7h-9-|
--7----7------7----7---7-------|--7----7------7----7---7------7------|
-------------------------------|-------------------------------------|


  E  S S S  S S  S S S S S  E     E  S S S  S S S S  S S S  S S S  S  
-------------------------------|-------------------------------------|
-------------------------------|-------------------------------------|
-------------------------------|----------------7--------------------|
-----9---7h-9---10---9---7h-9--|-----9---7h-9-------10---7h-9---7h-9-|
--7----7------7----7---7-------|--7----7------7---7----7------7------|
-------------------------------|-------------------------------------|


  E  S  S S S S S  S S  S S  S S  S S    E  S  S  S S S S  S S   S S S S  S S  
--------------------------------------|---------------------------------------|
--------------------------------------|---------------------------------------|
--------------------------------------|---------------------------------------|
--------------------------------------|---------------------------------------|
--------------------------------------|---------------------------------------|
--0--7p-0-8-7-0-5p-0-7p-0-2p-0-3p-0-5-|--0--7p-0-10-8-0-5p-0-7h-12-0-L-2p-0-3-|


  E  S  S S S S S  S S  S S  S S  S S    E  S  S  S S S S  S S   S S S S  S S  
--------------------------------------|---------------------------------------|
--------------------------------------|---------------------------------------|
--------------------------------------|---------------------------------------|
--------------------------------------|---------------------------------------|
--------------------------------------|---------------------------------------|
--0--7p-0-8-7-0-5p-0-7p-0-2p-0-3p-0-5-|--0--7p-0-10-8-0-5p-0-7h-12-0-L-2p-0-3-|


  E  S S S  S S  S S S S S  E     E  S S S  S S  S S S S S  S S S  S  
-------------------------------|-------------------------------------|
-------------------------------|-------------------------------------|
-------------------------------|-------------------------------------|
-----9---7h-9---10---9---7h-9--|-----9---7h-9---10---9---7h-9---7h-9-|
--7----7------7----7---7-------|-------------------------------------|
-------------------------------|--8----8------8----8---8------8------|


  E  S S S  S S  S S S S S  E     E  S S S  S S  S S S S S  S S S  S  
-------------------------------|-------------------------------------|
-------------------------------|-------------------------------------|
-------------------------------|-------------------------------------|
-----9---7h-9---10---9---7h-9--|-----9---7h-9---10---9---7h-9---7h-9-|
--5----5------5----5---5-------|-------------------------------------|
-------------------------------|--7----7------7----7---7------7------|


  E  S S S  S S  S S S S S  E     E  S S S  S S  S S S S S  S S S  S  
-------------------------------|-------------------------------------|
-------------------------------|-------------------------------------|
-------------------------------|-------------------------------------|
-----9---7h-9---10---9---7h-9--|-----9---7h-9---10---9---7h-9---7h-9-|
--7----7------7----7---7-------|-------------------------------------|
-------------------------------|--8----8------8----8---8------8------|


  E  S S S  S S  S S S S S  E     E  S S S  S S  S S S S S  S S S  S  
-------------------------------|-------------------------------------|
-------------------------------|-------------------------------------|
-------------------------------|-------------------------------------|
-----9---7h-9---10---9---7h-9--|-----9---7h-9---10---9---7h-9---7h-9-|
--5----5------5----5---5-------|-------------------------------------|
-------------------------------|--7----7------7----7---7------7------|


  S  S S  S S S  S E   S S  S S  S  
-----------------------------------|
-----------------------------------|
-----------------------------------|
------------7-----------------7----|
----10-9-10---9-10----10-9-10---10-|
--8----------------8---------------|


  S  S S  S  S S  S E   S  S S  T  T  T T  T  T  T T  
-----------------------------------------------------|
-----------------------------------------------------|
-----------------------------------------------------|
------------12---------------9-10-12-10-9------------|
----10-9-10----9-10----10-12--------------10-12-10-9-|
--8-----------------8--------------------------------|


  S S S S  S S S E  S S S  S   S    S S S S  S S S S S  S  S S T T T T T T T T  
---------------------------------|---------------------------------------------|
---------------------------------|---------------------------------------------|
---------------------------------|----------11---------------------------------|
----9-7-9-10-7-9----9-7-9-10-7g9-|----9-7-9----7-9-----12-10-9-7-9-7-5---------|
--7--------------7---------------|--7--------------7-------------------7-9-7-5-|
---------------------------------|---------------------------------------------|


  S  S S  S S S  S E   S S  S S  S  
-----------------------------------|
-----------------------------------|
-----------------------------------|
------------7-----------------7----|
----10-9-10---9-10----10-9-10---10-|
--8----------------8---------------|


  S  S S  S  S S  S E  S S S T T T T T T T T    E.  E.  E  S E.  S E.   
---------------------------------------------|-------------------------|
---------------------------------------------|-------------------------|
---------------------------------------------|-------------------------|
------------12---------5-4-------------------|---------------5---------|
----10-9-10----9-10--------5-3-5-3-2---------|--5---7---4--x-3---x-3---|
--8-----------------8----------------3-5-3-2-|--3---5---2--x-----x-1---|


  S E   S E   S S  S S E  S S  S   S    S E   S E   S S  S S E  S S S S  
-------------------------------------|----------------------------------|
-------------------------------------|----------------------------------|
-------------------------------------|----------------------------------|
-------------------------------------|-----------------------5----------|
----------------5S-4---7----4-(4)S-5-|----------------5S-4---3--4-5-4-5-|
--0-7~--0-6~--0-3S-2-0-5--0-2-(2)S-3-|--0-7~--0-6~--0-3S-2-0----2-3-2-3-|


  S E   S E   S S  S S E  S S  S   S    S E   S E   S S  S S E  S S S S  
-------------------------------------|----------------------------------|
-------------------------------------|----------------------------------|
-------------------------------------|----------------------------------|
-------------------------------------|-----------------------5----------|
----------------5S-4---7----4-(4)S-5-|----------------5S-4---3--4-5-4-5-|
--0-7~--0-6~--0-3S-2-0-5--0-2-(2)S-3-|--0-7~--0-6~--0-3S-2-0----2-3-2-3-|


  S E   S E   S S  S S E  S S  S   S    S E   S E   S S  S S E  S S S S  
-------------------------------------|----------------------------------|
-------------------------------------|----------------------------------|
-------------------------------------|----------------------------------|
-------------------------------------|-----------------------5----------|
----------------5S-4---7----4-(4)S-5-|----------------5S-4---3--4-5-4-5-|
--0-7~--0-6~--0-3S-2-0-5--0-2-(2)S-3-|--0-7~--0-6~--0-3S-2-0----2-3-2-3-|


  S E   S E   S S  S S E  S S  S   S    S E   S E   S S  S S E  S S S S  
-------------------------------------|----------------------------------|
-------------------------------------|----------------------------------|
-------------------------------------|----------------------------------|
-------------------------------------|-----------------------5----------|
----------------5S-4---7----4-(4)S-5-|----------------5S-4---3--4-5-4-5-|
--0-7~--0-6~--0-3S-2-0-5--0-2-(2)S-3-|--0-7~--0-6~--0-3S-2-0----2-3-2-3-|


  S S S S  S S S S  S S S S    S S S S  S S S S S S S  S  S S  S  S  
----------------------------|---------------------------------------|
----------------------------|---------------------------------------|
----------------------7-----|-------------------7-----10------12----|
------7-9-10-------10-------|------7-9-10-----5-----7----10------12-|
--0-7--------7-0-7------0-3-|--0-7--------7-0-----5---------8-------|
----------------------------|---------------------------------------|


  S S S S  S S S S  S S S S  
----------------------------|
----------------------------|
----------------------7-----|
------7-9-10-------10-------|
--0-7--------7-0-7----------|
------------------------0-3-|


  T T T  T T T T  T  T T  T  T  T T  T  T  T  T  T  T  T  T  T  T  T  T  T  T  T
------------------------------------------------------13-12-13-15-------------15
------------------------------------------13-12-13-15-------------15-13-15-17---
-------------------------------10-9-10-12---------------------------------------
--------------------10-9-10-12--------------------------------------------------
-----------8-7-8-10-------------------------------------------------------------
--8-7-8-10----------------------------------------------------------------------


   T  T   T  T   T  T   T  T   T  T   T  T   T  T   T  T   T  T   T  T   T  T   
--------------------------------------------------------------------------------
--17p-0h-16p-0h-13p-0h-16p-0h-13p-0h-12p-0h-13p-0h-12p-0h-10p-0h-12p-0h-13p-0h-1
--------------------------------------------------------------------------------
--------------------------------------------------------------------------------
--------------------------------------------------------------------------------
--------------------------------------------------------------------------------


  H        Q       S S S S S S S S S S S S    S S S S S S S S S S S S  
----------------|--------------------------|--------------------------|
----------------|--------------------------|--------------------------|
----------------|--------------------------|--------------------------|
----------------|--------------------------|--------------------------|
----------------|--------------2-2---2---2-|--------2-2---2---2---2---|
----------------|--3-2-0-3-2-0-0-0---0---0-|--3-2-0-0-0---0---0---0---|


  S S S S S S S S S S S S    S S  S S S S S S S S S S  
--------------------------|---------------------------|
--------------------------|---------------------------|
--------------------------|---------------------------|
--------------------------|---------------------------|
--------------2-2---2---2-|--9---10---7---9---4---7---|
--3-2-0-3-2-0-0-0---0---0-|--7----8---5---7---2---5---|


  S S S S S S S S S S S S    S S S S S S S S S S S S  
--------------------------|--------------------------|
--------------------------|--------------------------|
--------------------------|--------------------------|
--------------------------|--------------------------|
--------------2-2---2---2-|--------2-2---2---2---2---|
--3-2-0-3-2-0-0-0---0---0-|--3-2-0-0-0---0---0---0---|


  S S S S S S S S S S S S    S S  S S S S S S S S S S  
--------------------------|---------------------------|
--------------------------|---------------------------|
--------------------------|---------------------------|
--------------------------|---------------------------|
--------------2-2---2---2-|--9---10---7---9---4---7---|
--3-2-0-3-2-0-0-0---0---0-|--7----8---5---7---2---5---|


  S S S S S S S S S S S S    S S S S S S S S S S S S  
--------------------------|--------------------------|
--------------------------|--------------------------|
--------------------------|--------------------------|
--------------------------|--------------------------|
--------------2-2---2---2-|--------2-2---2---2---2---|
--3-2-0-3-2-0-0-0---0---0-|--3-2-0-0-0---0---0---0---|


  S S S S S S S S S S S S    S S  S S S S S S S S S S  
--------------------------|---------------------------|
--------------------------|---------------------------|
--------------------------|---------------------------|
--------------------------|---------------------------|
--------------2-2---2---2-|--9---10---7---9---4---7---|
--3-2-0-3-2-0-0-0---0---0-|--7----8---5---7---2---5---|


  S S S S S S S S S S S S    S S S S S S S S S S S S  
--------------------------|--------------------------|
--------------------------|--------------------------|
--------------------------|--------------------------|
--------------------------|--------------------------|
--------------2-2---2---2-|--------2-2---2---2---2---|
--3-2-0-3-2-0-0-0---0---0-|--3-2-0-0-0---0---0---0---|


  S S S S S S S S S S S S    S S  S S S S S S S S S S  
--------------------------|---------------------------|
--------------------------|---------------------------|
--------------------------|---------------------------|
--------------------------|---------------------------|
--------------2-2---2---2-|--9---10---7---9---4---7---|
--3-2-0-3-2-0-0-0---0---0-|--7----8---5---7---2---5---|


  S S S S S S S S S S S S    S S S S S S S S S S S S  
--------------------------|--------------------------|
--------------------------|--------------------------|
--------------------------|--------------------------|
--------------------------|--------------------------|
--------------2-2---2---2-|--------2-2---2---2---2---|
--3-2-0-3-2-0-0-0---0---0-|--3-2-0-0-0---0---0---0---|


  S S S S S S S S S S S S    S S  S S S S S S S S S S  
--------------------------|---------------------------|
--------------------------|---------------------------|
--------------------------|---------------------------|
--------------------------|---------------------------|
--------------2-2---2---2-|--9---10---7---9---4---7---|
--3-2-0-3-2-0-0-0---0---0-|--7----8---5---7---2---5---|


  S S S S S S S S S S S S    S S S S S S S S S S S S  
--------------------------|--------------------------|
--------------------------|--------------------------|
--------------------------|--------------------------|
--------------------------|--------------------------|
--------------2-2---2---2-|--------2-2---2---2---2---|
--3-2-0-3-2-0-0-0---0---0-|--3-2-0-0-0---0---0---0---|


  S S S S S S S S S S S S    S S  S S S S S S S S S S  
--------------------------|---------------------------|
--------------------------|---------------------------|
--------------------------|---------------------------|
--------------------------|---------------------------|
--------------2-2---2---2-|--9---10---7---9---4---7---|
--3-2-0-3-2-0-0-0---0---0-|--7----8---5---7---2---5---|


  S S S S S S S S S S S S    S S S S S S S S S S S S  
--------------------------|--------------------------|
--------------------------|--------------------------|
--------------------------|--------------------------|
--------------------------|--------------------------|
--------------2-2---2---2-|--------2-2---2---2---2---|
--3-2-0-3-2-0-0-0---0---0-|--3-2-0-0-0---0---0---0---|


  S S S S S S S S S S S S    S S  S S S S S S S S S S  
--------------------------|---------------------------|
--------------------------|---------------------------|
--------------------------|---------------------------|
--------------------------|---------------------------|
--------------2-2---2---2-|--9---10---7---9---4---7---|
--3-2-0-3-2-0-0-0---0---0-|--7----8---5---7---2---5---|


  S S S S S S S S S S S S    S S S S S S S S S S S S  
--------------------------|--------------------------|
--------------------------|--------------------------|
--------------------------|--------------------------|
--------------------------|--------------------------|
--------------2-2---2---2-|--------2-2---2---2---2---|
--3-2-0-3-2-0-0-0---0---0-|--3-2-0-0-0---0---0---0---|


  S S S S S S S S S S S S    S S  S S S S S S S S S S  
--------------------------|---------------------------|
--------------------------|---------------------------|
--------------------------|---------------------------|
--------------------------|---------------------------|
--------------2-2---2---2-|--9---10---7---9---4---7---|
--3-2-0-3-2-0-0-0---0---0-|--7----8---5---7---2---5---|


  S S S S S S S S S S S S    S S S S S S S S S S S S  
--------------------------|--------------------------|
--------------------------|--------------------------|
--------------------------|--------------------------|
--------------------------|--------------------------|
--------------5-5---5---5-|--------5-5---5---5---5---|
--6-5-3-6-5-3-3-3---3---3-|--6-5-3-3-3---3---3---3---|


  S S S S S S S S S S S S    E  E  E  E  E  E     S S S S S S S S S S S S  
--------------------------|--------------------|--------------------------|
--------------------------|--------------------|--------------------------|
--------------------------|--------------------|--------------------------|
--------------------------|--------------------|--------------------------|
--------------5-5---5---5-|--5--6-----5--------|--------------5-5---5---5-|
--6-5-3-6-5-3-3-3---3---3-|--------8-----5--8--|--6-5-3-6-5-3-3-3---3---3-|


  S S S S S S S S S S S S    S S S S S S S S S S S S    E  E  E  E  E  E   
--------------------------|--------------------------|--------------------|
--------------------------|--------------------------|--------------------|
--------------------------|--------------------------|--------------------|
--------------------------|--------------------------|--------------------|
--------5-5---5---5---5---|--------------5-5---5---5-|--5--6-----5--------|
--6-5-3-3-3---3---3---3---|--6-5-3-6-5-3-3-3---3---3-|--------8-----5--8--|


  S S S S S S S S  S E  S    S S S S  S  S  S  S  S  S  S  S  
--------------------------|----------------------------------|
--------------------------|----------------------------------|
--------------------------|----------------------------------|
--------------------------|----------------------------------|
----------------5h-7------|----------------------------------|
--3-2-0-3-2-0-0------0--0-|--8-7-0-0-14p-0-15p-0-14p-0-12p-0-|


  S S S S S S S  S   S E  S     S  S  S  S S  S  S  S S  S S  S  
----------------------------|-----------------------------------|
----------------------------|-----------------------------------|
----------------------------|-----------------------------------|
----------------------------|-----------------------------------|
----------------10h-12------|-----------------------------------|
--8-7-0-8-7-0-0--------0--0-|--10p-0-12p-0-8p-0-10p-0-7p-0-8p-0-|


  S S S S S S S S   S E  S     S S S S  S  S  S  S  S  S  S  S  
---------------------------|-----------------------------------|
---------------------------|-----------------------------------|
---------------------------|-----------------------------------|
---------------------------|-----------------------------------|
----------------9h-10------|-----------------------------------|
--7-5-0-7-5-0-0-------0--0-|--10-8-0-0-17p-0-19p-0-17p-0-15p-0-|


   S  S S  S  S S S  S   S E  S     S  S  S  S  S  S  S  S  S  S  S  S  
--------------------------------|--------------------------------------|
--------------------------------|--------------------------------------|
--------------------------------|--------------------------------------|
--------------------------------|--------------------------------------|
--------------------14h-15------|--------------------------------------|
--12-10-0-12-10-0-0--------0--0-|--14p-0-15p-0-12p-0-14p-0-10p-0-12p-0-|


  S S S S S S S S S S S S    S S S S S S S S S S    S S S S S S S S S S S S  
--------------------------|----------------------|--------------------------|
--------------------------|----------------------|--------------------------|
--------------------------|----------------------|--------------------------|
--------------------------|----------------------|--------------------------|
--5-5---5---5-5---5---5---|--4-4---4---4-4---4---|--5-5---5---5-5---5---5---|
--3-3---3---3-3---3---3---|--3-3---3---3-3---3---|--3-3---3---3-3---3---3---|


  S S S S S S S S S S S S    S S S S S S S S S S S S    S S S S S S S S S S  
--------------------------|--------------------------|----------------------|
--------------------------|--------------------------|----------------------|
--------------------------|--------------------------|----------------------|
--------------------------|--------------------------|----------------------|
--4-4---4---4-4---4---4---|--8-8---8---8-8---8---8---|--7-7---7---7-7---7---|
--3-3---3---3-3---3---3---|--6-6---6---6-6---6---6---|--6-6---6---6-6---6---|


  S S S S S S S S S S S S    S S S S S S S S S S S S  
--------------------------|--------------------------|
--------------------------|--------------------------|
--------------------------|--------------------------|
--------------------------|--------------------------|
--8-8---8---8-8---8---8---|--7-7---7---7-7---7---7---|
--6-6---6---6-6---6---6---|--6-6---6---6-6---6---6---|


  S S S S S S S S S S S S    S S S S S S S S S S    S S S S S S S S S S S S  
--------------------------|----------------------|--------------------------|
--------------------------|----------------------|--------------------------|
--------------------------|----------------------|--------------------------|
--------------------------|----------------------|--------------------------|
--5-5---5---5-5---5---5---|--4-4---4---4-4---4---|--5-5---5---5-5---5---5---|
--3-3---3---3-3---3---3---|--3-3---3---3-3---3---|--3-3---3---3-3---3---3---|


  S S S S S S S S S S S S    S S S S S S S S S S S S    S S S S S S S S S S  
--------------------------|--------------------------|----------------------|
--------------------------|--------------------------|----------------------|
--------------------------|--------------------------|----------------------|
--------------------------|--------------------------|----------------------|
--4-4---4---4-4---4---4---|--8-8---8---8-8---8---8---|--7-7---7---7-7---7---|
--3-3---3---3-3---3---3---|--6-6---6---6-6---6---6---|--6-6---6---6-6---6---|


  S S S S S S S S S S S S    S S S S S S S S S S S S  
--------------------------|--------------------------|
--------------------------|--------------------------|
--------------------------|--------------------------|
--------------------------|--------------------------|
--8-8---8---8-8---8---8---|--7-7---7---7-7---7---7---|
--6-6---6---6-6---6---6---|--6-6---6---6-6---6---6---|


  S S S S S S S S S S S S    S S S S S S S S S S    S S S S S S S S S S S S  
--------------------------|----------------------|--------------------------|
--------------------------|----------------------|--------------------------|
--7-7---7---7-7---7---7---|--6-6---6---6-6---6---|--7-7---7---7-7---7---7---|
--5-5---5---5-5---5---5---|--5-5---5---5-5---5---|--5-5---5---5-5---5---5---|
--5-5---5---5-5---5---5---|--4-4---4---4-4---4---|--5-5---5---5-5---5---5---|
--3-3---3---3-3---3---3---|--3-3---3---3-3---3---|--3-3---3---3-3---3---3---|


  S S S S S S S S S S S S     S  S S  S S  S  S S  S S  S S  
--------------------------|---------------------------------|
--------------------------|---------------------------------|
--6-6---6---6-6---6---6---|--10-10---10---10-10---10---10---|
--5-5---5---5-5---5---5---|---8--8----8----8--8----8----8---|
--4-4---4---4-4---4---4---|---8--8----8----8--8----8----8---|
--3-3---3---3-3---3---3---|---6--6----6----6--6----6----6---|


  S S S S S S S S S S     S  S S  S S  S  S S  S S  S S  
----------------------|---------------------------------|
----------------------|---------------------------------|
--9-9---9---9-9---9---|--10-10---10---10-10---10---10---|
--8-8---8---8-8---8---|---8--8----8----8--8----8----8---|
--7-7---7---7-7---7---|---8--8----8----8--8----8----8---|
--6-6---6---6-6---6---|---6--6----6----6--6----6----6---|


  S S S S S S S S S S S S    S S S S S S S S S S S S    S S S S S S S S S S  
--------------------------|--------------------------|----------------------|
--------------------------|--8-8---8---8-8---8---8---|--8-8---8---8-8---8---|
--9-9---9---9-9---9---9---|--7-7---7---7-7---7---7---|--6-6---6---6-6---6---|
--8-8---8---8-8---8---8---|--5-5---5---5-5---5---5---|--5-5---5---5-5---5---|
--7-7---7---7-7---7---7---|--------------------------|----------------------|
--6-6---6---6-6---6---6---|--------------------------|----------------------|


  S S S S S S S S S S S S    S S S S S S S S S S  
--------------------------|----------------------|
--8-8---8---8-8---8---8---|--8-8---8---8-8-------|
--7-7---7---7-7---7---7---|--6-6---6---6-6---9---|
--5-5---5---5-5---5---5---|--5-5---5---5-5---7---|
--------------------------|----------------------|
--------------------------|----------------------|


   S  S S  S S  S  S S  S S  S S     S  S S  S S  S  S S  S S  
---------------------------------|----------------------------|
--11-11---11---11-11---11---11---|--11-11---11---11-11---11---|
--10-10---10---10-10---10---10---|---9--9----9----9--9----9---|
---8--8----8----8--8----8----8---|---8--8----8----8--8----8---|
---------------------------------|----------------------------|
---------------------------------|----------------------------|


   S  S S  S S  S  S S  S S  S S     S  S S  S S  S  S S  S S  
---------------------------------|----------------------------|
--11-11---11---11-11---11---11---|--11-11---11---11-11---11---|
--10-10---10---10-10---10---10---|---9--9----9----9--9----9---|
---8--8----8----8--8----8----8---|---8--8----8----8--8----8---|
---------------------------------|----------------------------|
---------------------------------|----------------------------|


   S  S S  S S  S  S S  S S  S S     S  S S  S S  S  S S  S S  
---------------------------------|----------------------------|
--14-14---14---14-14---14---14---|--14-14---14---14-14---14---|
--13-13---13---13-13---13---13---|--12-12---12---12-12---12---|
--11-11---11---11-11---11---11---|--11-11---11---11-11---11---|
---------------------------------|----------------------------|
---------------------------------|----------------------------|


   S  S S  S S  S  S S  S S  S S     S  S S  S S  S  S S  S S  
---------------------------------|----------------------------|
--14-14---14---14-14---14---14---|--14-14---14---14-14---14---|
--13-13---13---13-13---13---13---|--12-12---12---12-12---12---|
--11-11---11---11-11---11---11---|--11-11---11---11-11---11---|
---------------------------------|----------------------------|
---------------------------------|----------------------------|


   S  S S  S S  S  S S  S S  S S     S  S S  S S  S  S S  S S  
---------------------------------|----------------------------|
--17-17---17---17-17---17---17---|--17-17---17---17-17---17---|
--16-16---16---16-16---16---16---|--15-15---15---15-15---15---|
--14-14---14---14-14---14---14---|--14-14---14---14-14---14---|
---------------------------------|----------------------------|
---------------------------------|----------------------------|


   S  S S  S S  S  S S  S S  S S     S  S S  S S  S  S S  S S  S S  
---------------------------------|---------------------------------|
--17-17---17---17-17---17---17---|--17-17---17---17-17---17---17---|
--16-16---16---16-16---16---16---|--15-15---15---15-15---15---15---|
--14-14---14---14-14---14---14---|--14-14---14---14-14---14---14---|
---------------------------------|---------------------------------|
---------------------------------|---------------------------------|


  S S E  S S E  S S E     S S E  S S E  S S    E  S S E  S S E  S S  
-----------------------|--------------------|-----------------------|
--8-8----8-8----8-8----|--8-8----8-8----8-8-|-----8-8----8-8----8-8-|
--7-7----7-7----7-7----|--6-6----6-6----6-6-|-----7-7----6-6----6-6-|
--5-5----5-5----5-5----|--5-5----5-5----5-5-|-----5-5----5-5----5-5-|
--5-5----5-5----5-5----|--5-5----5-5----5-5-|-----5-5----5-5----5-5-|
-----------------------|--------------------|-----------------------|


  E  S S E  S S E      S  S E   S  S E   S  S E      S  S E   S  S E   S  S  
-------------------|-----------------------------|--------------------------|
-----8-8----8-8----|--11-11----11-11----11-11----|--11-11----11-11----11-11-|
-----6-6----6-6----|--10-10----10-10----10-10----|---9--9-----9--9-----9--9-|
-----5-5----5-5----|---8--8-----8--8-----8--8----|---8--8-----8--8-----8--8-|
-----5-5----5-5----|---8--8-----8--8-----8--8----|---8--8-----8--8-----8--8-|
-------------------|-----------------------------|--------------------------|


  E   S  S E   S  S E   S  S    E   S  S E   S  S E   
-----------------------------|-----------------------|
-----11-11----11-11----11-11-|-----11-11----11-11----|
-----10-10----10-10----10-10-|------9--9-----9--9----|
------8--8-----8--8-----8--8-|------8--8-----8--8----|
------8--8-----8--8-----8--8-|------8--8-----8--8----|
-----------------------------|-----------------------|


  S S S  S S  S S S  S S S  S     S  S  S  S  S  S S  S  S  S  
------------------------------|-------------------------------|
------------------------------|----------------------------10-|
------------------------------|--------------------9-11-12----|
-----------------------7-8-10-|--11-10-11-13-11-13------------|
----------------7-9-10--------|-------------------------------|
--9-8-9-11-9-11---------------|-------------------------------|


  S S S  S S  S S S  S S S  S     S  S  S  S  S  S S  S  S  S  S  S  
------------------------------|-------------------------------------|
------------------------------|----------------------------10-11-13-|
------------------------------|--------------------9-11-12----------|
-----------------------7-8-10-|--11-10-11-13-11-13------------------|
----------------7-9-10--------|-------------------------------------|
--9-8-9-11-9-11---------------|-------------------------------------|


   S S  S  S  S  S S  S  S S S  S     S  S  S  S  S  S  S  S  S  S  S  S  
----------------------------------|--------------------------------------|
----------------------------------|-----------------------------11-12-14-|
----------------------------------|--------------------10-12-13----------|
---------------------------8-9-11-|--12-11-12-14-12-14-------------------|
-------------------8-10-11--------|--------------------------------------|
--10-9-10-12-10-12----------------|--------------------------------------|


   |--3--|  |--3--|  |--3--|  |--3--|  |--3--|  |--3--|  
   S  S  S  S  S  S  S  S  S  S  S  S  S  S  S  S  S  S  
--------------------------------------19-17-16-20-19-17-|
--13-12-10-15-13-12-18-16-15-19-18-16-------------------|
--------------------------------------------------------|
--------------------------------------------------------|
--------------------------------------------------------|
--------------------------------------------------------|


   T  T  T  T  T  T  T  T  T  T  T  T  T  T  T  T  T  T  T  T  T  T  T  T  
--19-20-19-17-------------------------------------------------------------|
--------------19-16-15-19-16-15-------------------------------------------|
--------------------------------17-16-14-17-16-14-------------------------|
--------------------------------------------------16-14-13----------------|
-----------------------------------------------------------15-14-12-------|
--------------------------------------------------------------------15-14-|


  S S S S S S S S S S S S S S S S    S S S S S S S S S S S S S S S S  
----------------------------------|----------------------------------|
----------------------------------|----------------------------------|
----------------------------------|----------------------------------|
----------------------------------|----------------------------------|
--2---2---2---2---2---2---8-8-8-8-|--2---2---2---2---2---2---5-5-5-5-|
--0---0---0---0---0---0---6-6-6-6-|--0---0---0---0---0---0---3-3-3-3-|


  S S S S S S S S S S S S S S S S    S S S S S S S S S S S S S S S S  
----------------------------------|----------------------------------|
----------------------------------|----------------------------------|
----------------------------------|--------------------------9-9-9-9-|
--------------------------5-5-5-5-|--------------------------7-7-7-7-|
--2---2---2---2---2---2---3-3-3-3-|--2---2---2---2---2---2---5-5-5-5-|
--0---0---0---0---0---0-----------|--0---0---0---0---0---0-----------|


  S S S S S S S S S S S S S S S S    S S S S S S S S S S S S S S S S  
----------------------------------|----------------------------------|
----------------------------------|----------------------------------|
----------------------------------|----------------------------------|
----------------------------------|----------------------------------|
--2---2---2---2---2---2---8-8-8-8-|--2---2---2---2---2---2---5-5-5-5-|
--0---0---0---0---0---0---6-6-6-6-|--0---0---0---0---0---0---3-3-3-3-|


  S S S S S S S S S S S S S S S S    S S S S S S S S S S S S S S S  
----------------------------------|--------------------------------|
----------------------------------|--------------------------------|
----------------------------------|--------------------------9-9-9-|
--------------------------5-5-5-5-|--------------------------7-7-7-|
--2---2---2---2---2---2---3-3-3-3-|--2---2---2---2---2---2---5-5-5-|
--0---0---0---0---0---0-----------|--0---0---0---0---0---0---------|


  S S  S  S  S  S  S  S  S  S S S S  S S S  
-------------------------------------------|
----------5-----5-----5-----5--------------|
----------4-----4-----4-----4--------------|
----------2-----2-----2-----2--------------|
--2-2-----2-----2-----2-----2-2-2-4S-5-5-5-|
--0-0-(0)---(0)---(0)---(0)---0-0-2S-3-3-3-|


  S S  S  S  S  S  S  S  S  S S S S  S S S  
-------------------------------------------|
----------5-----5-----5-----5--------------|
----------4-----4-----4-----4--------------|
----------2-----2-----2-----2--------------|
--2-2-----2-----2-----2-----2-2-2-5S-8-8-8-|
--0-0-(0)---(0)---(0)---(0)---0-0-3S-6-6-6-|


  S S  S  S  S  S  S  S  S  S S S S  S S S  
-------------------------------------------|
----------5-----5-----5-----5--------------|
----------4-----4-----4-----4--------------|
----------2-----2-----2-----2--------------|
--2-2-----2-----2-----2-----2-2-2-4S-5-5-5-|
--0-0-(0)---(0)---(0)---(0)---0-0-2S-3-3-3-|


  S S  S  S  S  S  S   S S S   S   S S S S S  
---------------------------------------------|
----------5-----5----------------------------|
----------4-----4----------------------------|
----------2-----2----------------------------|
--2-2-----2-----2--------5-----------2---3-3-|
--0-0-(0)---(0)---(0)S-7---7S-(7)S-3---3-1-1-|


  S S  S  S  S  S  S  S  S  S S S S  S S S  
-------------------------------------------|
----------5-----5-----5-----5--------------|
----------4-----4-----4-----4--------------|
----------2-----2-----2-----2--------------|
--2-2-----2-----2-----2-----2-2-2-4S-5-5-5-|
--0-0-(0)---(0)---(0)---(0)---0-0-2S-3-3-3-|


  S S  S  S  S  S  S  S  S  S S S S  S S S  
-------------------------------------------|
----------5-----5-----5-----5--------------|
----------4-----4-----4-----4--------------|
----------2-----2-----2-----2--------------|
--2-2-----2-----2-----2-----2-2-2-5S-8-8-8-|
--0-0-(0)---(0)---(0)---(0)---0-0-3S-6-6-6-|


  S S  S  S  S  S  S  S  S  S S S S  S S S  
-------------------------------------------|
----------5-----5-----5-----5--------------|
----------4-----4-----4-----4--------------|
----------2-----2-----2-----2--------------|
--2-2-----2-----2-----2-----2-2-2-4S-5-5-5-|
--0-0-(0)---(0)---(0)---(0)---0-0-2S-3-3-3-|


  S S  S  S  S  S  S   S S S   S   S S S S S    Q    E.  E.  Q     
---------------------------------------------|-----------3--------|
----------5-----5----------------------------|-------3-------3----|
----------4-----4----------------------------|--5-----------------|
----------2-----2----------------------------|--5-----------------|
--2-2-----2-----2--------5-----------2---3-3-|--3-----------------|
--0-0-(0)---(0)---(0)S-7---7S-(7)S-3---3-1-1-|--------------------|


  Q    E.  E.  E  E.  S    E  E  E  S E  E   E   S  
-----------3------------|--------------------------|
-------3-------3--------|--------------------------|
--5---------------5-----|--------9--9-------11--11-|
--5---------------------|--------x--x--------x---x-|
--3---------------------|--------7--7--------9---9-|
------------------------|--0--0-------0--0---------|


  E  E   E   S E  E   E    S    E     Q    E.  E.  Q     
-----------------------------------|-----------3--------|
-----------------------------------|-------3-------3----|
--------12--12-------14--(14)S-16--|--5-----------------|
---------x---x--------x---------x--|--5-----------------|
--------10--10-------12--(12)S-14--|--3-----------------|
--0--0---------0--0----------------|--------------------|


                                            |-3-| |-3-|         
  Q    E.  E.  E  Q       E.  E.  E  S S E  S S S S S S S E.    
-----------3-----------|---------------------------------------|
-------3-------3-------|---------------------------------------|
--5--------------------|--------------------5-2----------------|
--5---------------7----|---------------5-L------4-1------------|
--3---------------5----|--5---7---4--x-3-L----------3-0-x-8~---|
------------------5----|--3---5---2--x------------------x------|


  S E   S E   S S  S S E  S S  S   S    S E   S E   S S  S S E  S S S S  
-------------------------------------|----------------------------------|
-------------------------------------|----------------------------------|
-------------------------------------|----------------------------------|
-------------------------------------|-----------------------5----------|
----------------5S-4---7----4-(4)S-5-|----------------5S-4---3--4-5-4-5-|
--0-7~--0-6~--0-3S-2-0-5--0-2-(2)S-3-|--0-7~--0-6~--0-3S-2-0----2-3-2-3-|


  S E   S E   S S  S S E  S S  S   S    S E   S E   S S  S S E  S S S S  
-------------------------------------|----------------------------------|
-------------------------------------|----------------------------------|
-------------------------------------|----------------------------------|
-------------------------------------|-----------------------5----------|
----------------5S-4---7----4-(4)S-5-|----------------5S-4---3--4-5-4-5-|
--0-7~--0-6~--0-3S-2-0-5--0-2-(2)S-3-|--0-7~--0-6~--0-3S-2-0----2-3-2-3-|


  S E   S E   S S  S S E  S S  S   S    S E   S E   S S  S S E  S S S S  
-------------------------------------|----------------------------------|
-------------------------------------|----------------------------------|
-------------------------------------|----------------------------------|
-------------------------------------|-----------------------5----------|
----------------5S-4---7----4-(4)S-5-|----------------5S-4---3--4-5-4-5-|
--0-7~--0-6~--0-3S-2-0-5--0-2-(2)S-3-|--0-7~--0-6~--0-3S-2-0----2-3-2-3-|


  S E   S E   S S  S S E  S S  S   S    S E   S E   S S  S S E  S S S S  
-------------------------------------|----------------------------------|
-------------------------------------|----------------------------------|
-------------------------------------|----------------------------------|
-------------------------------------|-----------------------5----------|
----------------5S-4---7----4-(4)S-5-|----------------5S-4---3--4-5-4-5-|
--0-7~--0-6~--0-3S-2-0-5--0-2-(2)S-3-|--0-7~--0-6~--0-3S-2-0----2-3-2-3-|


  S S  S  S  S  S  S  S  S  S S S S  S S S  
-------------------------------------------|
----------5-----5-----5-----5--------------|
----------4-----4-----4-----4--------------|
----------2-----2-----2-----2--------------|
--2-2-----2-----2-----2-----2-2-2-4S-5-5-5-|
--0-0-(0)---(0)---(0)---(0)---0-0-2S-3-3-3-|


  S S  S  S  S  S  S  S  S  S S S S  S S S  
-------------------------------------------|
----------5-----5-----5-----5--------------|
----------4-----4-----4-----4--------------|
----------2-----2-----2-----2--------------|
--2-2-----2-----2-----2-----2-2-2-5S-8-8-8-|
--0-0-(0)---(0)---(0)---(0)---0-0-3S-6-6-6-|


  S S  S  S  S  S  S  S  S  S S S S  S S S  
-------------------------------------------|
----------5-----5-----5-----5--------------|
----------4-----4-----4-----4--------------|
----------2-----2-----2-----2--------------|
--2-2-----2-----2-----2-----2-2-2-4S-5-5-5-|
--0-0-(0)---(0)---(0)---(0)---0-0-2S-3-3-3-|


  S S  S  S  S  S  S   S S S   S   S S S S S  
---------------------------------------------|
----------5-----5----------------------------|
----------4-----4----------------------------|
----------2-----2----------------------------|
--2-2-----2-----2--------5-----------2---3-3-|
--0-0-(0)---(0)---(0)S-7---7S-(7)S-3---3-1-1-|


  S S  S  S  S  S  S  S  S  S S S S  S S S  
-------------------------------------------|
----------5-----5-----5-----5--------------|
----------4-----4-----4-----4--------------|
----------2-----2-----2-----2--------------|
--2-2-----2-----2-----2-----2-2-2-4S-5-5-5-|
--0-0-(0)---(0)---(0)---(0)---0-0-2S-3-3-3-|


  S S  S  S  S  S  S  S  S  S S S S  S S S  
-------------------------------------------|
----------5-----5-----5-----5--------------|
----------4-----4-----4-----4--------------|
----------2-----2-----2-----2--------------|
--2-2-----2-----2-----2-----2-2-2-5S-8-8-8-|
--0-0-(0)---(0)---(0)---(0)---0-0-3S-6-6-6-|


  S S  S  S  S  S  S  S  S  S S S S  S S S  
-------------------------------------------|
----------5-----5-----5-----5--------------|
----------4-----4-----4-----4--------------|
----------2-----2-----2-----2--------------|
--2-2-----2-----2-----2-----2-2-2-4S-5-5-5-|
--0-0-(0)---(0)---(0)---(0)---0-0-2S-3-3-3-|


  S S  S  S  S  S  S   S S S   S   S S S S S  
---------------------------------------------|
----------5-----5----------------------------|
----------4-----4----------------------------|
----------2-----2----------------------------|
--2-2-----2-----2--------5-----------2---3-3-|
--0-0-(0)---(0)---(0)S-7---7S-(7)S-3---3-1-1-|


  S S  S  S  S  S  S  S  S  S S S S  S S S  
-------------------------------------------|
----------5-----5-----5-----5--------------|
----------4-----4-----4-----4--------------|
----------2-----2-----2-----2--------------|
--2-2-----2-----2-----2-----2-2-2-4S-5-5-5-|
--0-0-(0)---(0)---(0)---(0)---0-0-2S-3-3-3-|


  S S  S  S  S  S  S  S  S  S S S S  S S S  
-------------------------------------------|
----------5-----5-----5-----5--------------|
----------4-----4-----4-----4--------------|
----------2-----2-----2-----2--------------|
--2-2-----2-----2-----2-----2-2-2-5S-8-8-8-|
--0-0-(0)---(0)---(0)---(0)---0-0-3S-6-6-6-|


  S S  S  S  S  S  S  S  S  S S S S  S S S  
-------------------------------------------|
----------5-----5-----5-----5--------------|
----------4-----4-----4-----4--------------|
----------2-----2-----2-----2--------------|
--2-2-----2-----2-----2-----2-2-2-4S-5-5-5-|
--0-0-(0)---(0)---(0)---(0)---0-0-2S-3-3-3-|


  S S  S  S  S  S  S   S S S   S   S S S S S  
---------------------------------------------|
----------5-----5----------------------------|
----------4-----4----------------------------|
----------2-----2----------------------------|
--2-2-----2-----2--------5-----------2---3-3-|
--0-0-(0)---(0)---(0)S-7---7S-(7)S-3---3-1-1-|


  S S  S  S  S  S  S  S  S  S S S S  S S S  
-------------------------------------------|
----------5-----5-----5-----5--------------|
----------4-----4-----4-----4--------------|
----------2-----2-----2-----2--------------|
--2-2-----2-----2-----2-----2-2-2-4S-5-5-5-|
--0-0-(0)---(0)---(0)---(0)---0-0-2S-3-3-3-|


  S S  S  S  S  S  S  S  S  S S S S  S S S  
-------------------------------------------|
----------5-----5-----5-----5--------------|
----------4-----4-----4-----4--------------|
----------2-----2-----2-----2--------------|
--2-2-----2-----2-----2-----2-2-2-5S-8-8-8-|
--0-0-(0)---(0)---(0)---(0)---0-0-3S-6-6-6-|


  S S  S  S  S  S  S  S  S  S S S S  S S S  
-------------------------------------------|
----------5-----5-----5-----5--------------|
----------4-----4-----4-----4--------------|
----------2-----2-----2-----2--------------|
--2-2-----2-----2-----2-----2-2-2-4S-5-5-5-|
--0-0-(0)---(0)---(0)---(0)---0-0-2S-3-3-3-|


                                         W                                   
  S S  S  S  S  S  S   S S S   S   S S S E      Q    H        Q              
---------------------------------------------|---------------------|-------||
----------5-----5----------------------------|---------------------|-------||
----------4-----4----------------------------|---------------------|-------||
----------2-----2----------------------------|---------------------|-------||
--2-2-----2-----2--------5-----------2---8~--|--L------------------|-------||
--0-0-(0)---(0)---(0)S-7---7S-(7)S-3---3-----|---------------------|-------||

*****************************************************************************

5. VACANT

No Guitar

*****************************************************************************

6. STREAM OF CONCIOUSNESS

Guitar 1

E  E  E  E  E  E  E  E  E  E     E  E  E  E  E  E  E  E  E  E   
D#||--------------------------------|--------------------------------|
A#||--------------------------------|--------------------------------|
F#||-----3--2--3--2-----3-----2--3--|-----3--2--3--2-----3-----2--3--|
C#||--0--------------0-----0--------|--------------------------------|
G#||--------------------------------|--3--------------3-----3--------|
D#||--------------------------------|--------------------------------|


  E  E  E  E  E  E  E  E  E  E     E  E  E  E  E  E  E  E  E  E   
--------------------------------|--------------------------------|
--------------------------------|--------------------------------|
-----3--2--3--2-----3-----2--3--|-----3--2--3--2-----3-----2--3--|
--0--------------0-----0--------|--------------------------------|
--------------------------------|--3--------------3-----3--------|
--------------------------------|--------------------------------|


  E  E  E  E  E  E  E  E  E  E     E  E  E  E  E  E  E  E  E  E   
--------------------------------|--------------------------------|
--------------------------------|--------------------------------|
-----3--2--3--2-----3-----2--3--|-----3--2--3--2-----3-----2--3--|
--0--------------0-----0--------|--------------------------------|
--------------------------------|--3--------------3-----3--------|
--------------------------------|--------------------------------|


  E  E  E  E  E  E  E  E  E  E     E  E  E  E  E  E  E  E  E  E   
--------------------------------|--------------------------------|
--------------------------------|--------------------------------|
-----3--2--3--2-----3-----2--3--|-----3--2--3--2-----3-----2--3--|
--0--------------0-----0--------|--------------------------------|
--------------------------------|--3--------------3-----3--------|
--------------------------------|--------------------------------|


  W                Q       W                Q       W                Q     
------------------------|------------------------|------------------------|
--3----------------L----|--3----------------L----|--3----------------L----|
--2----------------L----|--5----------------L----|--2----------------L----|
--0----------------L----|--5----------------L----|--0----------------L----|
--0----------------L----|--3----------------L----|--0----------------L----|
------------------------|--3----------------L----|------------------------|


                   PM PM                                              PM PM  
  W                E  E     W                Q       W                E  E   
-------------------------|------------------------|-------------------------|
--3----------------------|--1----------------L----|-------------------------|
--5----------------------|--3----------------L----|--2----------------2--2--|
--5----------------5--5--|--3----------------L----|--2----------------2--2--|
--3----------------3--3--|--1----------------L----|--0----------------0--0--|
--3----------------3--3--|--1----------------L----|-------------------------|


  H        E  H        E     H        E  H        E   
--------------------------|--------------------------|
--------------------------|--------------------------|
--------------------------|--------------2--------L--|
--5--------L--3--------L--|--2--------L--2--------L--|
--5--------L--3--------L--|--2--------L--0--------L--|
--3--------L--1--------L--|--0--------L--------------|


  PM    PM    PM PM    PM    PM    PM    PM    PM PM    PM    PM  
  E  E  E  E  E  E  E  E  E  E     E  E  E  E  E  E  E  E  E  E   
--------------------------------|--------------------------------|
--------------------------------|--------------------------------|
--------------------------------|--------------------------------|
-----7-----8--------7-----8-----|-----8-----7--------8-----7-----|
--5--5--5--5--5--5--5--5--5--5--|--3--3--3--3--3--3--3--3--3--3--|
--------------------------------|--------------------------------|


  PM    PM    PM PM    PM    PM    PM    PM    PM PM    PM    PM  
  E  E  E  E  E  E  E  E  E  E     E  E  E  E  E  E  E  E  E  E   
--------------------------------|--------------------------------|
--------------------------------|--------------------------------|
--------------------------------|--------------------------------|
-----7-----8--------7-----8-----|-----8-----7--------8-----7-----|
--5--5--5--5--5--5--5--5--5--5--|--3--3--3--3--3--3--3--3--3--3--|
--------------------------------|--------------------------------|


  PM     PM     PM PM     PM     PM    PM     PM    PM PM     PM    PM  
  E   E  E   E  E  E   E  E   E  E     E   E  E  E  E  E   E  E  E  E   
------------------------------------|----------------------------------|
------------------------------------|----------------------------------|
------------------------------------|----------------------------------|
------------------------------------|----------------------------------|
-----12-----10--------12-----10-----|-----10-----8--------10-----8-----|
--6---6--6---6--6--6---6--6---6--6--|--5---5--5--5--5--5---5--5--5--5--|


  PM    PM    PM PM    PM    PM    PM    PM    PM PM    PM       
  E  E  E  E  E  E  E  E  E  E     E  E  E  E  E  E  E  E  Q     
--------------------------------|-------------------------------|
--------------------------------|-------------------------------|
--------------------------------|--------------------2-----2----|
--------------------2-----------|--------------------2-----2----|
-----8-----7--------------5-----|-----5-----4-----0--0--0--0----|
--3--3--3--3--3--1--1--1--1--1--|--0--0--0--0--0----------------|


  PM    PM    PM PM    PM    PM    PM    PM    PM PM    PM    PM  
  E  E  E  E  E  E  E  E  E  E     E  E  E  E  E  E  E  E  E  E   
--------------------------------|--------------------------------|
--------------------------------|--------------------------------|
--------------------------------|--------------------------------|
-----7-----8--------7-----8-----|-----8-----7--------8-----7-----|
--5
comments
We did not receive enough feedback on this tab! Please rate:
print report bad tab
1 2 3 4 5
2 comments total.
0 reply
CZHunter wrote on June 26 2007, 04:34 pm

Sorry, but As I Am is totally wrong, it's written on a 6-string, 2 steps down. Everything else seems alright though.

0 reply
vanhalenforever wrote on September 24 2007, 06:42 pm

lol, this was exported from either power tab or guitar pro

I want to post or [tab]
guest
You may want to rate the tab now too:
select rating
Please do not post tabs as comments. Select "correction" instead!