Oops, an error
Loading. Please wait.

Blockschrift Tab

63 views 1 this week
no commentswrite comment
1 2 3 4 5
please rate
Autoscroll
+/-
esc
set tempo
stop
Difficulty
Tuning
intermediate
D# G# C# F# A# D#
Hey! There's an official Ultimate Guitar app which is ideal
for learning songs when you're away from computer. Get the app
WARNING: You are trying to view
                                    content from Ultimate-Guitar.com
                                    in an unauthorized application,
                                    which is prohibited.

                                    Please use an official Ultimate
                                    Guitar Tabs application for iPhone,
                                    iPad or Android to access legitimate
                                    chords, guitar, bass, and drum tabs
                                    from Ultimate-Guitar.com database.

                                    Type "ultimate guitar tabs" in Apple
                                    App Store's or Android Market's
                                    search to find the application.
-----------------------------------------------------------------------------------------------
                             Blockschrift - DREI TAGE WACH ///
-----------------------------------------------------------------------------------------------
Website:  http://www.dreitagewach-band.de
Facebook: http://www.facebook.com/dreitagewachband

Tuning: Eb Ab Db Gb B Eb - Standard Half-Stepp Down

Verse 1
Guitar 1                                                                
e|--------------------------------------------------------------------------------------------|
B|--------------------------------------------------------------------------------------------|
G|---10-10-10-10-10---------12-12-12-12-12---------14-14-14-14-14-----------------------------|
D|--------------------2x---------------------2x-----------------------------------------------| 4x
A|----8--8--8--8--8---------10-10-10-10-10---------12-12-12-12-12-----------------------------|
E|--------------------------------------------------------------------------------------------|



Chorus 1
Guitar 1
e|--------------------------------------------------------------------------------------------|
B|--------------------------------------------------------------------------------------------|
G|---7-7-7-7-7-7-7-7--5-5-5-5-5-5-5-5--3-3-3-3-3-3-3-3--5-5-5-5-5-5-5-5-----------------------|
D|---0-0-0-0-0-0-0-0--3-3-3-3-3-3-3-3--3-3-3-3-3-3-3-3--5-5-5-5-5-5-5-5-----------------------| 2x
A|---0-0-0-0-0-0-0-0--3-3-3-3-3-3-3-3--1-1-1-1-1-1-1-1--3-3-3-3-3-3-3-3-----------------------|
E|---x-x-x-x-x-x-x-x--------------------------------------------------------------------------|
                                                                                                
Guitar 2                                                                                      
e|--------------------------------------------------------------------------------------------|
B|--------------------------------------------------------------------------------------------|
G|-------------------------------------3-3-3-3-3-3-3-3--5-5-5-5-5-5-5-5-----------------------|
D|---0-0-0-0-0-0-0-0--3-3-3-3-3-3-3-3--3-3-3-3-3-3-3-3--5-5-5-5-5-5-5-5-----------------------| 2x
A|---0-0-0-0-0-0-0-0--3-3-3-3-3-3-3-3--1-1-1-1-1-1-1-1--3-3-3-3-3-3-3-3-----------------------|
E|---0-0-0-0-0-0-0-0--3-3-3-3-3-3-3-3---------------------------------------------------------|



Verse 2
Guitar 1                                                                 Ende Strophe 2
e|-----------------------------------------------------------------|--------------------------|
B|-----------------------------------------------------------------|--------------------------|
G|---10-10-10-10-10---------12-12-12-12-12---------14-14-14-14-14--|-----5-5-5-5-5-6-6-6-6-6--|
D|--------------------2x---------------------2x--------------------|-3x--5-5-5-5-5-6-6-6-6-6--|
A|----8--8--8--8--8---------10-10-10-10-10---------12-12-12-12-12--|-----3-3-3-3-3-4-4-4-4-4--|
E|-----------------------------------------------------------------|--------------------------|
                                                                                              
Guitar 2 (ab Hälfte)                                                                          
e|--------------------------------------------------------------------------------------------|
B|--------------------------------------------------------------------------------------------|
G|------------------5-5-5h7---7x--------------------------------------------------------------|
D|--------------------------------------------------------------------------------------------|
A|--------------------------------------------------------------------------------------------|
E|--------------------------------------------------------------------------------------------|



Chorus 2
Guitar 1
e|--------------------------------------------------------------------------------------------|
B|--------------------------------------------------------------------------------------------|
G|---7-7-7-7-7-7-7-7--5-5-5-5-5-5-5-5--3-3-3-3-3-3-3-3--5-5-5-5-5-5-5-5-----------------------|
D|---0-0-0-0-0-0-0-0--3-3-3-3-3-3-3-3--3-3-3-3-3-3-3-3--5-5-5-5-5-5-5-5-----------------------| 2x
A|---0-0-0-0-0-0-0-0--3-3-3-3-3-3-3-3--1-1-1-1-1-1-1-1--3-3-3-3-3-3-3-3-----------------------|
E|---x-x-x-x-x-x-x-x--------------------------------------------------------------------------|
                                                                                                
Guitar 2                                                                                      
e|--------------------------------------------------------------------------------------------|
B|--------------------------------------------------------------------------------------------|
G|-------------------------------------3-3-3-3-3-3-3-3--5-5-5-5-5-5-5-5-----------------------|
D|---0-0-0-0-0-0-0-0--3-3-3-3-3-3-3-3--3-3-3-3-3-3-3-3--5-5-5-5-5-5-5-5-----------------------| 2x
A|---0-0-0-0-0-0-0-0--3-3-3-3-3-3-3-3--1-1-1-1-1-1-1-1--3-3-3-3-3-3-3-3-----------------------|
E|---0-0-0-0-0-0-0-0--3-3-3-3-3-3-3-3---------------------------------------------------------|


Guitar 1
e|--------------------------------------------------------------------------------------------|
B|--------------------------------------------------------------------------------------------|
G|-10-10-10-10-10-10-10--9--------10-10-10-10-10-10-10-10---9--9--9-10-10-10--9--9------------|
D|-10-10-10-10-10-10-10-10---2x---10-10-10-10-10-10-10-10--10-10-10-10-10-10-10-10------------| 2x
A|--8--8--8--8--8--8--8--8---------8--8--8--8--8--8--8--8---8--8--8--8--8--8--8--8------------|
E|--------------------------------------------------------------------------------------------|
                                                                                                
Guitar 2                                                                                      
e|--------------------------------------------------------------------------------------------|
B|--------------------------------------------------------------------------------------------|
G|-------------------------------------3-3-3-3-3-3-3-3--5-5-5-5-5-5-5-5-----------------------|
D|---0-0-0-0-0-0-0-0--3-3-3-3-3-3-3-3--3-3-3-3-3-3-3-3--5-5-5-5-5-5-5-5-----------------------| 2x
A|---0-0-0-0-0-0-0-0--3-3-3-3-3-3-3-3--1-1-1-1-1-1-1-1--3-3-3-3-3-3-3-3-----------------------|
E|---0-0-0-0-0-0-0-0--3-3-3-3-3-3-3-3---------------------------------------------------------|



Interlude (Ende)
Guitar 1 & 2
e|--------------------------------------------------------------------------------------------|
B|--------------------------------------------------------------------------------------------|
G|--7-7-7-7-7--------5-5-5-5-5-6--------------------------------------------------------------|
D|--7-7-7-7-7---3x---5-5-5-5-5-6--------------------------------------------------------------|
A|--5-5-5-5-5--------3-3-3-3-3-4--------------------------------------------------------------|
E|--------------------------------------------------------------------------------------------|



Chorus 3
Guitar 1
e|--------------------------------------------------------------------------------------------|
B|--------------------------------------------------------------------------------------------|
G|---7-7-7-7-7-7-7-7--5-5-5-5-5-5-5-5--3-3-3-3-3-3-3-3--5-5-5-5-5-5-5-5-----------------------|
D|---0-0-0-0-0-0-0-0--3-3-3-3-3-3-3-3--3-3-3-3-3-3-3-3--5-5-5-5-5-5-5-5-----------------------| 2x
A|---0-0-0-0-0-0-0-0--3-3-3-3-3-3-3-3--1-1-1-1-1-1-1-1--3-3-3-3-3-3-3-3-----------------------|
E|---x-x-x-x-x-x-x-x--------------------------------------------------------------------------|
                                                                                                
Guitar 2                                                                                      
e|--------------------------------------------------------------------------------------------|
B|--------------------------------------------------------------------------------------------|
G|-------------------------------------3-3-3-3-3-3-3-3--5-5-5-5-5-5-5-5-----------------------|
D|---0-0-0-0-0-0-0-0--3-3-3-3-3-3-3-3--3-3-3-3-3-3-3-3--5-5-5-5-5-5-5-5-----------------------| 2x
A|---0-0-0-0-0-0-0-0--3-3-3-3-3-3-3-3--1-1-1-1-1-1-1-1--3-3-3-3-3-3-3-3-----------------------|
E|---0-0-0-0-0-0-0-0--3-3-3-3-3-3-3-3---------------------------------------------------------|


Guitar 1
e|--------------------------------------------------------------------------------------------|
B|--------------------------------------------------------------------------------------------|
G|-10-10-10-10-10-10-10--9--------10-10-10-10-10-10-10-10---9--9--9-10-10-10--9--9------------|
D|-10-10-10-10-10-10-10-10---2x---10-10-10-10-10-10-10-10--10-10-10-10-10-10-10-10------------| 2x
A|--8--8--8--8--8--8--8--8---------8--8--8--8--8--8--8--8---8--8--8--8--8--8--8--8------------|
E|--------------------------------------------------------------------------------------------|
                                                                                                
Guitar 2                                                                                      
e|--------------------------------------------------------------------------------------------|
B|--------------------------------------------------------------------------------------------|
G|-------------------------------------3-3-3-3-3-3-3-3--5-5-5-5-5-5-5-5-----------------------|
D|---0-0-0-0-0-0-0-0--3-3-3-3-3-3-3-3--3-3-3-3-3-3-3-3--5-5-5-5-5-5-5-5-----------------------| 2x
A|---0-0-0-0-0-0-0-0--3-3-3-3-3-3-3-3--1-1-1-1-1-1-1-1--3-3-3-3-3-3-3-3-----------------------|
E|---0-0-0-0-0-0-0-0--3-3-3-3-3-3-3-3---------------------------------------------------------|


Guitar 1 & 2
e|--------------------------------------------------------------------------------------------|
B|--------------------------------------------------------------------------------------------|
G|--7-7-7-7-7---------------------------------------------------------------------------------|
D|--7-7-7-7-7---2x----------------------------------------------------------------------------|
A|--5-5-5-5-5---------------------------------------------------------------------------------|
E|--------------------------------------------------------------------------------------------|



Songstruktur:
Verse 1
Chorus 1
Verse 2
Chorus 2
Interlude
Chorus 3

************************************

| /   slide up
| \   slide down
| h   hammer-on
| p   pull-off
| ~   vibrato
| +   harmonic
| x   Mute note
| b   Bend
| pb  Pre-bend
| br  Bend release
| pbr Pre-bend release
| brb Bend release bend

************************************
comments
We did not receive enough feedback on this tab! Please rate:
print report bad tab
1 2 3 4 5
I want to post or [tab]
guest
You may want to rate the tab now too:
select rating
Please do not post tabs as comments. Select "correction" instead!