Oops, an error
Loading. Please wait.

I Dont Want To Make Love To You Tab

516 views 42 this week
no commentswrite comment
1 2 3 4 5
accurate
x 1
Autoscroll
+/-
esc
set tempo
stop
Contributor
Difficulty
Tuning
intermediate
D A D G B E
WARNING: You are trying to view
                                    content from Ultimate-Guitar.com
                                    in an unauthorized application,
                                    which is prohibited.

                                    Please use an official Ultimate
                                    Guitar Tabs application for iPhone,
                                    iPad or Android to access legitimate
                                    chords, guitar, bass, and drum tabs
                                    from Ultimate-Guitar.com database.

                                    Type "ultimate guitar tabs" in Apple
                                    App Store's or Android Market's
                                    search to find the application.
-------------------------------------------------------------------------------
                  I Don't Want To Make Love To You - Drenge
-------------------------------------------------------------------------------
Tabbed by: Stewart12121
E-mail: Stewart@mason.sh

Tuning: Drop D


Intro
e|---------------------------------------------------------------------------|
B|---------------------------------------------------------------------------|
G|------------------------------------------------------------5b--3----------|
D|5-5-----5-5-----5-5-----2-2-3-3-4-4-5-5-----5-5-----5-5--------------------|
A|5-5-----5-5-----5-5-----2-2-3-3-4-4-5-5-----5-5-----5-5--------------------|
D|5-5-----5-5-----5-5-----2-2-3-3-4-4-5-5-----5-5-----5-5--------------------|

e|---------------------------------------------------------------------------|
B|---------------------------------------------------------------------------|
G|---------------------------------------------------------------------------|
D|5-5-----5-5-----5-5-----2-2-3-3-4-4-0-0-0-0-3-3-4-4-0-0-0-0-3-3-4-4--------|
A|5-5-----5-5-----5-5-----2-2-3-3-4-4-0-0-0-0-3-3-4-4-0-0-0-0-3-3-4-4--------|
D|5-5-----5-5-----5-5-----2-2-3-3-4-4-0-0-0-0-3-3-4-4-0-0-0-0-3-3-4-4--------|

Verse 1
e|----------------------------------------------------------------|
B|----------------------------------------------------------------|
G|----------------------------------------------------------------|
D|5-------------------2-2-3-3-4-4-5-------------------2-2-3-3-4-4-|
A|5-------------------2-2-3-3-4-4-5-------------------2-2-3-3-4-4-|
D|5-------------------2-2-3-3-4-4-5-------------------2-2-3-3-4-4-|

e|----------------------------------------------------------------|
B|----------------------------------------------------------------|
G|----------------------------------------------------------------|
D|5-------------------2-2-3-3-4-4---------------------------------|
A|5-------------------2-2-3-3-4-4---------------------------------|
D|5-------------------2-2-3-3-4-4---0-0-0-0-0-0-0-0-0-0-0-3-3-4-4-|

e|----------------------------------------------------------------|
B|----------------------------------------------------------------|
G|----------------------------------------------------------------|
D|5-------------------2-2-3-3-4-4-5-------------------2-2-3-3-4-4-|
A|5-------------------2-2-3-3-4-4-5-------------------2-2-3-3-4-4-|
D|5-------------------2-2-3-3-4-4-5-------------------2-2-3-3-4-4-|

e|--------------------------------|
B|--------------------------------|
G|--------------------------------|
D|5---3---------------3-/-5-------|
A|--------5---3---1---3-/-5-------|
D|--------------------3-/-5-------|

Chorus 1
e|----------------------------------------------------------------------|
B|----------------------------------------------------------------------|
G|----------------------------------------------------------------------|
D|5-5---8---3---5-5---8-10/11\10-8---5-5---8---3---5-5---8---10/11\10-8-|
A|5-5---8---3---5-5---8-10/11\10-8---5-5---8---3---5-5---8---10/11\10-8-|
D|5-5---8---3---5-5---8-10/11\10-8---5-5---8---3---5-5---8---10/11\10-8-|

Verse 2
e|----------------------------------------------------------------|
B|----------------------------------------------------------------|
G|----------------------------------------------------------------|
D|5-x-x-x-x-x-x-x-x-x-2-2-3-3-4-4-5-x-x-x-x-x-x-x-x-x-2-2-3-3-4-4-|
A|5-x-x-x-x-x-x-x-x-x-2-2-3-3-4-4-5-x-x-x-x-x-x-x-x-x-2-2-3-3-4-4-|
D|5-x-x-x-x-x-x-x-x-x-2-2-3-3-4-4-5-x-x-x-x-x-x-x-x-x-2-2-3-3-4-4-|

e|----------------------------------------------------------------|
B|----------------------------------------------------------------|
G|----------------------------------------------------------------|
D|5-x-x-x-x-x-x-x-x-x-2-2-3-3-4-4---------------------------------|
A|5-x-x-x-x-x-x-x-x-x-2-2-3-3-4-4---------------------------------|
D|5-x-x-x-x-x-x-x-x-x-2-2-3-3-4-4---0-0-0-0-0-0-0-0-0-0-0-3-3-4-4-|

e|----------------------------------------------------------------|
B|----------------------------------------------------------------|
G|----------------------------------------------------------------|
D|5-x-x-x-x-x-x-x-x-x-2-2-3-3-4-4-5-x-x-x-x-x-x-x-x-x-2-2-3-3-4-4-|
A|5-x-x-x-x-x-x-x-x-x-2-2-3-3-4-4-5-x-x-x-x-x-x-x-x-x-2-2-3-3-4-4-|
D|5-x-x-x-x-x-x-x-x-x-2-2-3-3-4-4-5-x-x-x-x-x-x-x-x-x-2-2-3-3-4-4-|

e|--------------------------------|
B|--------------------------------|
G|--------------------------------|
D|5---3---------------3-/-5-------|
A|--------5---3---1---3-/-5-------|
D|--------------------3-/-5-------|

Verse 3
e|----------------------------------------------------------------|
B|----------------------------------------------------------------|
G|----------------------------------------------------------------|
D|----------------------------------------------------------------|
A|----------------------------------------------------------------|
D|5-5-5-5-5-5-5---5---2-2-3-3-4-4-5-5-5-5-5-5-5---5---2-2-3-3-4-4-|

e|----------------------------------------------------------------|
B|----------------------------------------------------------------|
G|----------------------------------------------------------------|
D|----------------------------------------------------------------|
A|----------------------------------------------------------------|
D|5-5-5-5-5-5-5---5---2-2-3-3-4-4-0-0-0-0-0-0-0---0---0-0-3-3-4-4-|

e|----------------------------------------------------------------|
B|----------------------------------------------------------------|
G|----------------------------------------------------------------|
D|5-5-5-5-5-5-5---5---2-2-3-3-4-4-5-5-5-5-5-5-5---5---2-2-3-3-4-4-|
A|5-5-5-5-5-5-5---5---2-2-3-3-4-4-5-5-5-5-5-5-5---5---2-2-3-3-4-4-|
D|5-5-5-5-5-5-5---5---2-2-3-3-4-4-5-5-5-5-5-5-5---5---2-2-3-3-4-4-|

e|--------------------------------|
B|--------------------------------|
G|--------------------------------| 
D|5---3---------------3-/-5-------|
A|--------5---3---1---3-/-5-------|
D|--------------------3-/-5-------|

Chorus 2
e|----------------------------------------------------------------------|
B|----------------------------------------------------------------------|
G|----------------------------------------------------------------------|
D|5-5---8---3---5-5---8-10/11\10-8---5-5---8---3---5-5---8---10/11\10-8-|
A|5-5---8---3---5-5---8-10/11\10-8---5-5---8---3---5-5---8---10/11\10-8-|
D|5-5---8---3---5-5---8-10/11\10-8---5-5---8---3---5-5---8---10/11\10-8-|

e|------------------------------------------------------------------------------------|
B|------------------------------------------------------------------------------------|
G|------------------------------------------------------------------------------------|
D|5-5---8---3---5-5---8-10/11\10-8-10/11\10-8-10/11\10-10/11\10-8-10/11\10-8-10/11\10-|
A|5-5---8---3---5-5---8-10/11\10-8-10/11\10-8-10/11\10-10/11\10-8-10/11\10-8-10/11\10-|
D|5-5---8---3---5-5---8-10/11\10-8-10/11\10-8-10/11\10-10/11\10-8-10/11\10-8-10/11\10-|

Breakdown
e|----------------------------------------------------------------|
B|----------------------------------------------------------------|
G|----------------------------------------------------------------|
D|5---5-----3---2-----1-----------5---5-----3---2-----1-----------|
A|5---5-----3---2-----1-----------5---5-----3---2-----1-----------|
D|5---5-----3---2-----1-----------5---5-----3---2-----1-----------|

e|----------------------------------------------------------------|
B|----------------------------------------------------------------|
G|----------------------------------------------------------------|
D|5---5-----3---2-----1-----------5---5-----3-x-x-x-x-x-x-x-x-x-x-|
A|5---5-----3---2-----1-----------5---5-----3-x-x-x-x-x-x-x-x-x-x-|
D|5---5-----3---2-----1-----------5---5-----3-x-x-x-x-x-x-x-x-x-x-|

e|----------------------------------------------------------------|
B|----------------------------------------------------------------|
G|----------------------------------------------------------------|
D|5---5-----3-x-x-x-x-x-x-x-x-x-x-5---5-----3-x-x-x-x-x-x-x-x-x-x-|
A|5---5-----3-x-x-x-x-x-x-x-x-x-x-5---5-----3-x-x-x-x-x-x-x-x-x-x-|
D|5---5-----3-x-x-x-x-x-x-x-x-x-x-5---5-----3-x-x-x-x-x-x-x-x-x-x-|

e|----------------------------------------------------------------|
B|----------------------------------------------------------------|
G|----------------------------------------------------------------|
D|5---5-----3-x-x-x-x-x-x-x-x-x-x-5---5-----3-x-x-x-x-x-x-x-x-x-x-|
A|5---5-----3-x-x-x-x-x-x-x-x-x-x-5---5-----3-x-x-x-x-x-x-x-x-x-x-|
D|5---5-----3-x-x-x-x-x-x-x-x-x-x-5---5-----3-x-x-x-x-x-x-x-x-x-x-|

e|----------------------------------------------------------------|
B|----------------------------------------------------------------|
G|----------------------------------------------------------------|
D|5---5-----3-x-x-x-x-x-x-x-x-x-x-5---5-----3-x-x-x-x-x-x-x-x-x-x-|
A|5---5-----3-x-x-x-x-x-x-x-x-x-x-5---5-----3-x-x-x-x-x-x-x-x-x-x-|
D|5---5-----3-x-x-x-x-x-x-x-x-x-x-5---5-----3-x-x-x-x-x-x-x-x-x-x-|

e|----------------------------------------------------------------|
B|----------------------------------------------------------------|
G|----------------------------------------------------------------|
D|5---5-----3-x-x-x-x-x-x-x-x-x-x-5---5-----3-x-x-x-x-x-x-x-x-x-x-|
A|5---5-----3-x-x-x-x-x-x-x-x-x-x-5---5-----3-x-x-x-x-x-x-x-x-x-x-|
D|5---5-----3-x-x-x-x-x-x-x-x-x-x-5---5-----3-x-x-x-x-x-x-x-x-x-x-|

e|-------------------------------------------------------------------------|
B|-------------------------------------------------------------------------|
G|-------------------------------------------------------------------------|
D|10-10-10-10-10-10-10-11-12-----x-8-x-7-----------------------------------|
A|10-10-10-10-10-10-10-11-12-----x-8-x-7-----------------------------------|
D|10-10-10-10-10-10-10-11-12-----x-8-x-7-----------------------------------|

e|----------------------------------------------------------------|
B|----------------------------------------------------------------|
G|----------------------------------------------------------------|
D|5---5-----3---2-----1-----------5---5-----3---2-----1-----------|
A|5---5-----3---2-----1-----------5---5-----3---2-----1-----------|
D|5---5-----3---2-----1-----------5---5-----3---2-----1-----------|

e|----------------------------------------------------------------|
B|----------------------------------------------------------------|
G|----------------------------------------------------------------|
D|5---5-----3---2-----1-----------5---5-----3-x-x-x-x-x-x-x-x-x-x-|
A|5---5-----3---2-----1-----------5---5-----3-x-x-x-x-x-x-x-x-x-x-|
D|5---5-----3---2-----1-----------5---5-----3-x-x-x-x-x-x-x-x-x-x-|

e|----------------------------------------------------------------|
B|----------------------------------------------------------------|
G|----------------------------------------------------------------|
D|5---5-----3-x-x-x-x-x-x-x-x-x-x-5---5-----3-x-x-x-x-x-x-x-x-x-x-|
A|5---5-----3-x-x-x-x-x-x-x-x-x-x-5---5-----3-x-x-x-x-x-x-x-x-x-x-|
D|5---5-----3-x-x-x-x-x-x-x-x-x-x-5---5-----3-x-x-x-x-x-x-x-x-x-x-|

e|----------------------------------------------------------------|
B|----------------------------------------------------------------|
G|----------------------------------------------------------------|
D|5---5-----3-x-x-x-x-x-x-x-x-x-x-5---5-----3-x-x-x-x-x-x-x-x-x-x-|
A|5---5-----3-x-x-x-x-x-x-x-x-x-x-5---5-----3-x-x-x-x-x-x-x-x-x-x-|
D|5---5-----3-x-x-x-x-x-x-x-x-x-x-5---5-----3-x-x-x-x-x-x-x-x-x-x-|

e|----------------------------------------------------------------|
B|----------------------------------------------------------------|
G|----------------------------------------------------------------|
D|5---5-----3-x-x-x-x-x-x-x-x-x-x-5---5-----3-x-x-x-x-x-x-x-x-x-x-|
A|5---5-----3-x-x-x-x-x-x-x-x-x-x-5---5-----3-x-x-x-x-x-x-x-x-x-x-|
D|5---5-----3-x-x-x-x-x-x-x-x-x-x-5---5-----3-x-x-x-x-x-x-x-x-x-x-|

e|----------------------------------------------------------------|
B|----------------------------------------------------------------|
G|----------------------------------------------------------------|
D|5---5-----3-x-x-x-x-x-x-x-x-x-x-5---5-----3-x-x-x-x-x-x-x-x-x-x-|
A|5---5-----3-x-x-x-x-x-x-x-x-x-x-5---5-----3-x-x-x-x-x-x-x-x-x-x-|
D|5---5-----3-x-x-x-x-x-x-x-x-x-x-5---5-----3-x-x-x-x-x-x-x-x-x-x-|

e|-------------------------------------------------------------------------|
B|-------------------------------------------------------------------------|
G|-------------------------------------------------------------------------|
D|10-10-10-10-10-10-10-11-12-----x-8-x-7-----------------------------------|
A|10-10-10-10-10-10-10-11-12-----x-8-x-7-----------------------------------|
D|10-10-10-10-10-10-10-11-12-----x-8-x-7-----------------------------------|

e|----------------------------------------------------------------|
B|----------------------------------------------------------------|
G|----------------------------------------------------------------|
D|5---5-----3---2-----1-----------5---5-----3---2-----1-----------|
A|5---5-----3---2-----1-----------5---5-----3---2-----1-----------|
D|5---5-----3---2-----1-----------5---5-----3---2-----1-----------|

e|--------------------------------|
B|--------------------------------|
G|--------------------------------|
D|5---5-----3---2-----1-----------|
A|5---5-----3---2-----1-----------|
D|5---5-----3---2-----1-----------|


e|-------------------------------------------------------------------------|
B|-------------------------------------------------------------------------|
G|-------------------------------------------------------------------------|
D|10-10-10-10-10-10-10-11-12-----x-8-x-7-----------------------------------|
A|10-10-10-10-10-10-10-11-12-----x-8-x-7-----------------------------------|
D|10-10-10-10-10-10-10-11-12-----x-8-x-7-----------------------------------|

Running Order:
Intro
Verse 1
Chorus 1
Verse 2
Chorus 1
Verse 3
Chorus 2
Breakdown

************************************

| /   slide up
| \   slide down
| h   hammer-on
| p   pull-off
| ~   vibrato
| +   harmonic
| x   Mute note
| b   Bend
| pb  Pre-bend
| br  Bend release
| pbr Pre-bend release
| brb Bend release bend

************************************
comments
We did not receive enough feedback on this tab! Please rate:
print report bad tab
1 2 3 4 5
I want to post or [tab]
guest
You may want to rate the tab now too:
select rating
Please do not post tabs as comments. Select "correction" instead!