Oops, an error
Loading. Please wait.

Kun Minderne Tilbage Tab

3,745 views 15 this week
no commentswrite comment
1 2 3 4 5
excellent!
x 1
add to favorites launch autoscroll
font size
0
reset
Autoscroll
+/-
esc
set tempo
stop
Contributor
Difficulty
Tuning
intermediate
D G C F A D
WARNING: You are trying to view
                                    content from Ultimate-Guitar.com
                                    in an unauthorized application,
                                    which is prohibited.

                                    Please use an official Ultimate
                                    Guitar Tabs application for iPhone,
                                    iPad or Android to access legitimate
                                    chords, guitar, bass, and drum tabs
                                    from Ultimate-Guitar.com database.

                                    Type "ultimate guitar tabs" in Apple
                                    App Store's or Android Market's
                                    search to find the application.
   _________________________________________________
  / Drengene fra Angora                            /
 / Kun Minderne Tilbage (Fuck Hvor Var Det Fedt)  /
/________________________________________________/

Dette er den spanske guitar-del, som kører hele vejen igennem sangen.
Guitaren er stemt en hel tone ned til D G C F A D.
Tonearten er G mol, og dette er noteret i halvtakt, 2/4.



 Forspil:
  Gm            Bb/F          Eb            D
|-------------|-------------|-------------|-------------|
|-------1-----|-------1-----|-------1-----|-------0-----|
|-------2-----|-------0-----|-------2-----|-------1-----|
|----2-----2--|----2-----2--|----3-----3--|----2-----2--|
|-0-----------|-------------|-------------|-------------|
|-------------|-3-----------|-1-----------|-0-----------|

  Gm            Bb/F          Eb            Bb      F/A
|-------------|-------------|-------------|-----------------|
|-------1-----|-------1-----|-------1-----|-------1-------0-|
|-------2-----|-------0-----|-------2-----|-----0-------0---|
|----2-----2--|----2-----2--|----3-----3--|---2-------0-----|
|-0-----------|-------------|-------------|-3-------2-------|
|-------------|-3-----------|-1-----------|-----------------|



 1. Vers:  2x forspil



 Pre-Chorus:
    Gm            Bb/F          Dm            Eb    -/F    2x
||--------------|-------------|-------------|--------------||
||o-------1-----|-------1-----|-------0-----|-------1-----o||
||--------2-----|-------0-----|-------0-----|-------2------||
||-----2-----2--|----2-----2--|----2-----2--|----3-----3---||
||o-0-----------|-------------|-------------|-------------o||
||--------------|-3-----------|-0-----------|-1------------||



 Omkvæd:
  Gm            C             Gm            C
|-------0-----|-------2-----|-------0-----|-------2-----|
|-------1-----|-------3-----|-------1-----|-------3-----|
|----2-----2--|----2-----2--|----2-----2--|----2-----2--|
|-------------|-0-----------|-------------|-0-----------|
|-0-----------|-------------|-0-----------|-------------|
|-------------|-------------|-------------|-------------|

  Gm            D             Gm            C
|-------0-----|-------0-----|-------0-----|-------2-----|
|-------1-----|-------0-----|-------1-----|-------3-----|
|----2-----2--|-------1-----|----2-----2--|----2-----2--|
|-------------|----2-----2--|-------------|-0-----------|
|-0-----------|-------------|-0-----------|-------------|
|-------------|-0-----------|-------------|-------------|



 2. Vers:  Bemærk pauserne i hver anden takt.


 Omkvæd:   Spil først de første 6 takter og så alle 8.


 3. Vers:  Kun halvt så langt.
           Break på den sidste takt og træk pausen en ekstra takt.


 Omkvæd:   Her modulerer sangen en hel tone op til A mol,
           så smid en en capo på 2. bånd under eksplosionen.

           De nye akkorder er så:
           | Am | D | Am | D |

           | Am | E |

           | Am | D | Am | D |

           | Am | E | Am | D |


 Efterspil: Omkvædet gentages til sangen fader ud.




 TEKSTEN
***********
Den 3. september '98, for fanden
Første dag på højskole og første gang vi mødte hinanden
Fire måneder på grøn fløj, vi hang altid ud sammen
Tiden gik så stærkt YO, det var fryd og fucking gammen

Vi havde alle mulige fede fag f.eks. friluftsliv
Vi legede vikingeleg og byggede svedehytter af siv
Sov i en biuak det var noget der var godt for fællesskabet
Prøvede rappelling YO, det var fedt bare hænge der i rebet

[Pre-Chorus:]
Nu er tiden gået – Fuck hvor var det fedt
Kun minderne tilbage – Fuck hvor var det fedt
Den svedigste tid – Fuck hvor var det fedt

[Omkvæd:]
Fuck hvor var det...
Ja det var så fedt
Så fucking hot at gå på højskole
Det styrede for hårdt
Ja det var bigtime
Så ryst din røv til den her, wuh

Hvad fanden skal jeg sige? – Det var så fedt bare at være der!
Der var madhold vi lavede altid kylling med kartofler og ærter
Og vi havde et fag der hed japansk keramik
Det var rigtigt fedt at lave askebægre med en fremmed teknik

Når vi havde rytmisk sammenspil, så hyggede vi max
Te og kage, wah-guitar, Annita spillede sax
Og når vi havde drama, slap vi følelserne løs
Rico lærte at græde på kommando, men han var også bøs'

[Pre-Chorus]

[2x Omkvæd:]
Fuck hvor var det...
Ja det var så fedt
Så fucking hot at gå på højskole
Det styrede for hårdt
Ja det var bigtime
Så ryst din røv til...
Det var så fedt
Så fucking hot at gå på højskole
Det styrede for hårdt
Ja det var bigtime
Så ryst din røv til den her, wuh

Men pludselig kom dagen, hvor vi skulle sige farvel
Alle stod og græd – selv lærerne var med
Folk udvekslede telefonnumre, så vi kunne snakkes ved
Vi skal holde forbindelsen ved lige i al evighed

[2x Omkvæd]


+--------------------------------------------------------------------------+
Jon Sebastian Frederiksen - 20th /June /10
Just mail me at Maitinin@gmail.com with questions, comments and corrections!
comments
We did not receive enough feedback on this tab! Please rate:
print report bad tab
1 2 3 4 5
I want to post or [tab]
guest
You may want to rate the tab now too:
select rating
Please do not post tabs as comments. Select "correction" instead!