Oops, an error
Loading. Please wait.

Legends Of Archery Tab

ver2
ver2

Whole song

Interactive

More versions @911Tabs.com
3,725 views 9 this week
no commentswrite comment
1 2 3 4 5
excellent!
x 4
Autoscroll
+/-
esc
set tempo
stop
Contributor
WARNING: You are trying to view
                                    content from Ultimate-Guitar.com
                                    in an unauthorized application,
                                    which is prohibited.

                                    Please use an official Ultimate
                                    Guitar Tabs application for iPhone,
                                    iPad or Android to access legitimate
                                    chords, guitar, bass, and drum tabs
                                    from Ultimate-Guitar.com database.

                                    Type "ultimate guitar tabs" in Apple
                                    App Store's or Android Market's
                                    search to find the application.
Song: Legends of Archery
Artist: Driftless Pony Club

Tabbed by: NaotoNekoCutie
Email: NaotoNekoCutie@hotmail.com

Tuning: EADGBE (Standard)



{Intro; Drums Only for 2 measures}

[Guitar 1]
e||---------------------------------8-------8-------8-------8-------|
B||-6-------6-------6-------6---------------------------------------|
G||---7---7---7---7---7---7---7---7---7---7---7---7---7---7---7---7-| x4
D||-----------------------------------------------------------------|
A||-----------------------------------------------------------------|
E||-----------------------------------------------------------------|
        .       .       .       .       .       .       .       .

[Guitar 2]
e||---------------------------------8-------8-------8-------8-------|
B||-6-------6-------6-------6---------6-------6-------6-------6-----|
G||---7---7---7---7---7---7---7---7-------7-------7-------7-------7-| x2
D||-----------------------------------------------------------------|
A||-----------------------------------------------------------------|
E||-----------------------------------------------------------------|
        .       .       .       .       .       .       .       .  

  |---------------------------------8-------8-------8-------8-------|
  |-6-------6-------6-------6---------6-------6-------6-------6-----|
  |---7-7-7---7-7-7---7-7-7---7-7-7-----7-7-----7-7-----7-7-----7-7-| x2
  |-----------------------------------------------------------------|
  |-----------------------------------------------------------------|
  |-----------------------------------------------------------------|
        . .     . .     . .     . .     . .     . .     . .     . .

{Verse}

[Guitar 1]
e||---------------------------------8-------8-------8-------8-------|
B||-6-------6-------6-------6---------------------------------------|
G||---7---7---7---7---7---7---7---7---7---7---7---7---7---7---7---7-| x2
D||-----------------------------------------------------------------|
A||-----------------------------------------------------------------|
E||-----------------------------------------------------------------|
        .       .       .       .       .       .       .       .

[Guitar 2]
e||-----------------------------------------------------------------|
B||-----------------------------------------------------------------|
G||-----------------------------------------------------------------|
D||-----------------------------------------------------------------|
A||-5---5---5---8/--13--13--13--6---5---5---5---8---6---6---6---5---|
E||-----------------------------------------------------------------|
      .   .   .       .   .   .   .   .   .   .   .   .   .   .   .
         
  |-----------------------------------------------------------------|
  |-----------------------------------------------------------------|
  |-----------------------------------------------------------------|
  |-----------------------------------------------------------------|
  |-5---5---5---8/--13--13--13--6---5---5---5---8---6---6---6---5p0-|
  |-----------------------------------------------------------------|
      .   .   .       .   .   .   .   .   .   .   .   .   .   .


{Break}

[Guitar 1]
e||---------------------------------8-------8-------8-------8-------|
B||-6-------6-------6-------6---------------------------------------|
G||---7---7---7---7---7---7---7---7---7---7---7---7---7---7---7---7-|
D||-----------------------------------------------------------------|
A||-----------------------------------------------------------------|
E||-----------------------------------------------------------------|
        .       .       .       .       .       .       .       .

  |---------------------------------8-------8-------8-------8---8---|
  |-6-------6-------6-------6---------------------------------------|
  |---7---7---7---7---7---7---7---7---7---7---7---7---7---7---7-----|
  |-----------------------------------------------------------------|
  |-----------------------------------------------------------------|
  |-----------------------------------------------------------------|
        .       .       .       .       .       .       .        

  |-----------------------------------------------------------------|
  |---------6-------------------------------6--------------6--------|
  |-----7-------7---5---7---------------7-------7-------7-----7-----|  
  |-------------------------8---------------------------------------|
  |-----------------------------------------------------------------|
  |-----------------------------------------------------------------|
                                                    .             .

  |-----8-------8-------8-------8-------8-------8-------8-----------|
  |-----5-------6-------6-------5-------6-------5-------6-----------|
  |-----7-------7-------7-------7-------7-------7-------7-----------|
  |-----------------------------------------------------------------|
  |-----------------------------------------------------------------|
  |-----------------------------------------------------------------|


  |-----8-------8-------8-------8----------|
  |-----5-------6-------5-------6----------|
  |-----7-------7-------7-------7-------7\-|
  |----------------------------------------|
  |----------------------------------------|
  |----------------------------------------|


[Guitar 2]
e||---------------------------------8-------8-------8-------8-------|
B||-6-------6-------6-------6---------6-------6-------6-------6-----|
G||---7---7---7---7---7---7---7---7-------7-------7-------7-------7-|
D||-----------------------------------------------------------------|
A||-----------------------------------------------------------------|
E||-----------------------------------------------------------------|
        .       .       .       .       .       .       .       .
 
  |---------------------------------8-------8-------8-------8---8---|
  |-6-------6-------6-------6---------6-------6-------6-------6-6---|
  |---7---7---7---7---7---7---7---7-------7-------7-------7-----7---|
  |-------------------------------------------------------------8---|
  |-----------------------------------------------------------------|
  |-----------------------------------------------------------------|
        .       .       .       .       .       .       .

  |-8-------------------------------8-------------------------------|
  |-6-------------------------------6-------------------------------|
  |-7-------------------------------7-------------------------------|
  |-8-------------------------------8-------------------------------|
  |-----------------------------------------------------------------|
  |-----------------------------------------------------------------|


  |-----8-------8-------8-------8-------8-------8-------8-------8---|
  |-----6-------6-------6-------6-------6-------6-------6-------6---|
  |-----7-------7-------7-------7-------7-------7-------7-------7---|
  |-----8-------8-------8-------8-------8-------8-------8-------8---|
  |-----------------------------------------------------------------|
  |-----------------------------------------------------------------|


  |-----8-------8-------8-------8----------|
  |-----6-------6-------6-------6----------|
  |-----7-------7-------7-------7----------|
  |-----8-------8-------8-------8----------|
  |-------------------------------------5\-|
  |----------------------------------------|



{Solo}

[Guitar 1]
e||-----8---8-------8---8-------8---8-------8---8-------------------|
B||-----6---6-------6---6-------6---6-------6---6-----------5-5-----|
G||-7-7---------7-7---------7-7---------7-7---------7-7-----5-5-----|  x2
D||-----------------------------------------------------7-7-----5-5-|
A||-----------------------------------------------------------------|
E||-----------------------------------------------------------------|


  |-----8---10------8---10------8---10------8---10------------------|
  |-----------------------------------------------------5-5---------|
  |-7-7---------7-7---------7-7---------7-7---------7-7-5-5---------|  x2
  |---------------------------------------------------------8-8-7-7-|
  |-----------------------------------------------------------------|
  |-----------------------------------------------------------------|


  |---------------------------------8-------8-------8-------8-------|
  |-6-------6-------6-------6---------------------------------------|
  |---7---7---7---7---7---7---7---7---7---7---7---7---7---7---7-----|
  |-----------------------------------------------------------------|
  |-----------------------------------------------------------------|
  |-----------------------------------------------------------------|
        .       .       .       .       .       .       .        

[Guitar 2]
e||-----------------------------------------------------------------|
B||-----------------------------------------------------------------|
G||-------------------------------------5-5-----3-3-2-2-------------|  x2
D||-------------3---------------7---3-3-----3-3---------3-3-0-0-5-5-|
A||---------------5---------5-5---5---------------------------------|
E||-3-3-5-5-6-6-----3-3-5-5-----------------------------------------|


  |-----------------------------------------------------------------|
  |-----------------------------------------------------------------|
  |-----5555----7777----5555----7777----5555----7777777-555---------|  x2
  |---------------------------------------------------------888-777-|  <= Be Very Sloppy ;)
  |-8888----8888----8888----8888----8888----8888--------------------|
  |-----------------------------------------------------------------|


  |---------------------------------8-------8-------8-------8-------|
  |-6-------6-------6-------6---------6-------6-------6-------6-----|
  |---7---7---7---7---7---7---7---7-------7-------7-------7---------|
  |-----------------------------------------------------------------|
  |-----------------------------------------------------------------|
  |-----------------------------------------------------------------|
        .       .       .       .       .       .       .       .
 
{Outro}

[Guitar 1]
e||---------------------------------------------------8-8-8-8-8-8-8-|
B||---------6-------------------------------6---------6-6-6-6-6-6-6-|
G||-7---7-------7---5---7---------------7-------7-----7-7-7-7-7-7-7-| x4  
D||-------------------------8---------------------------------------|
A||-----------------------------------------------------------------|
E||-----------------------------------------------------------------|
                                                    .             .

  |-8-|
  |-6-| 
  |-7-|  x37
  |---|
  |---|
  |---|


[Guitar 2]
e||-----------------------------------------------------------------|
B||-----------------------------------------------------------------|
G||---------------------------------7---7---7-7-7-7---5-5-5-5-5-5-5-| x4  
D||-8---8---8-8-8-8-8---8---8-8-8-8-7---7---7-7-7-7---5-5-5-5-5-5-5-|
A||-8---8---8-8-8-8-8---8---8-8-8-8-5---5---5-5-5-5---3-3-3-3-3-3-3-|
E||-6---6---6-6-6-6-6---6---6-6-6-6---------------------------------|


  |---|
  |---| 
  |---|  x37
  |-8-|
  |-8-|
  |-6-|




************************************

 /   slide up
 \   slide down
 p   pull-off
 .   Palm mute

************************************
comments
print report bad tab
I want to post or [tab]
guest
You may want to rate the tab now too:
select rating
Please do not post tabs as comments. Select "correction" instead!