Oops, an error
Loading. Please wait.

Sinner Tab

ver1
ver1

Album

Whole song

Interactive

More versions @911Tabs.com
6,033 views 3 this week
2 commentsread comments
1 2 3 4 5
excellent!
x 4
Autoscroll
+/-
esc
set tempo
stop
Contributor
WARNING: You are trying to view
                                    content from Ultimate-Guitar.com
                                    in an unauthorized application,
                                    which is prohibited.

                                    Please use an official Ultimate
                                    Guitar Tabs application for iPhone,
                                    iPad or Android to access legitimate
                                    chords, guitar, bass, and drum tabs
                                    from Ultimate-Guitar.com database.

                                    Type "ultimate guitar tabs" in Apple
                                    App Store's or Android Market's
                                    search to find the application.
DROWNIGPOOL SINNER ALBUM
MIXED BY:JOE ADZHIYEV
this is mix of the songs on sinner it is the album. i take no credit for these tabs i
just mixed it up
Sinner

Transcribed By: Jephthah Rae
Email: jeffrae@knet.ca

Drop B:
B F# B E G# C#

Intro: w/ wah

e-----------------------------------------------------------------|
b-----------------------------------------------------------------|
g---------5/7-----5/8-8-8-8-8---------5/7-----5/8-8-8-81111-------|
d-0---0-0-x-x-0-0-x-x-x-x-x-x-0---0-0-x-x-0-0-x-x-x-x-x-x-x-0-3---|
a-0---0-0-3/5-0-0-3/6-6-6-6-6-0---0-0-3/5-0-0-3/6-6-6-6/9-9-0-3---|
d-0---0-0-----0-0-------------0---0-0-----0-0---------------0-3---|

e-----------------------------------------------------------------|
b-----------------------------------------------------------------|
g-----------------------------------------------------------------|
d-3---3---3---3---3---3---3-2----2---2---2---1-1---1---1-1-1-0----|
a-3---3---3---3---3---3---3-2----2---2---2---1-1---1---1-1-1-0----|
d-3---3---3---3---3---3---3-2----2---2---2---1-1---1---1-1-1-0----|

Verses:

e-----------------------------------------------------------------|
b-----------------------------------------------------------------|
g-----------------------------------------------------------------|
d-----------------------------------------------------------------|
a----0-0------------------------0---0-0--------------------0------|
d----0-0------------------------0---0-0--------------------0------|

e-----------------------------------------------------------------|
b-----------------------------------------------------------------|
g-----------------------------------------------------------------|
d-----------------------------------------------------x-x-x-x-x---|
a----0-0------------------------0---0-0-----------0-0-0-0-0-0-0-0-|
d----0-0------------------------0---0-0-----------0-0-----------0-|

e-----------------------------------------------------------------|
b-----------------------------------------------------------------|
g-----------------------------------------------------------------|
d-----------------------------------------------------------------|
a--------3h5-----3/6-6-6-6/9------------3h5-----3/6-6-6-6/9-------|
d----0-0-----0-0-------------0-0----0-0-----0-0-------------0-0---|

e-----------------------------------------------------------------|
b-----------------------------------------------------------------|
g-----------------------------------------------------------------|
d-----------------------------------------------------------------|
a--------3h5-----3/6-6-6-6/9------------3h5-----3p0---------------|
d----0-0-----0-0-------------0-0----0-0-----0-0-----7-6-5-3-5-3---|

Chorus:

e-----------------------------------------------------------------|
b-----------------------------------------------------------------|
g----------7----7-7---7-7-7-7--7\5----5---5-5----5---4---4---5----|
d-0----0---x----x-x---x-x-x-x--x-x----x---x-x----x---x---x---3----|
a-0----0---5----5-5---5-5-5-5--5\3----3---3-3----3---2---2---3----|
d-0----0-----------------------------------------------------3----|

e-----------------------------------------------------------------|
b-----------------------------------------------------------------|
g---------14----14-14-14-14-14-14\12--12--12--12-12---12-12---12--|
d-0----0---x-----x--x--x--x--x--x--x---x---x---x--x----x--x----x--|
a-0----0--12----12-12-12-12-12-12\10--10--10--10-10---10-10---10--|
d-0----0---0-----0--0--0--0--0------------------------------------|

e-----------------------------------------------------------------|
b-----------------------------------------------------------------|
g----------7----7-7---7-7-7-7--7\5----5---5-5----5---4---4---5----|
d-0----0---x----x-x---x-x-x-x--x-x----x---x-x----x---x---x---3----|
a-0----0---5----5-5---5-5-5-5--5\3----3---3-3----3---2---2---3----|
d-0----0-----------------------------------------------------3----|

e-----------------------------------------------------------------|
b-----------------------------------------------------------------|
g---------14----14-14-14-14-14-14\12--12------5--5----5--5--7-----|
d-0----0---x-----x--x--x--x--x--x--x---x------x--x----x--x--x-----|
a-0----0--12----12-12-12-12-12-12\10--10------3--3----3--3--5--0--|
d-0----0---0-----0--0--0--0--0---------------------------------0--|

Intro/Verse/Chorus

Bridge:

e-----------------------------------------------------------------|
b-----------------------------------------------------------------|
g-----------------------------------------------------------------|
d-0-------------3--------------5--------------6-5------6-5-----x\-|
a-0-------------3--------------5--------------6-5------6-5-----x\-|
d-0-------------3--------------5--------------6-5------6-5-----x\-|

Mini Solo: w/ wah

gtr. 3

e-----------------------------------------------------------------|
b-----------------------------------------------------------------|
g-----------------------------------------------------------------|
d-6p0-5p0-3h5-0-6p0-5p0-3h5p3-5---6p0-5p0-3h5-0-6p0-5p0-3h5p3-5---|
a-----------------------------------------------------------------|
d-----------------------------------------------------------------|

gtr. 1&2

e-----------------------------------------------------------------|
b-----------------------------------------------------------------|
g-----------------------------------------------------------------|
d-----------------------------------------------------------------|
a-----------------------------------------------------------------|
d-6p0-5p0-3-5-0-6p0-5-5-3-5-3-5-3-6p0-5p0-3-5-0-6p0-5-5-3-5-3-5-3-|

gtr. 3

e-----------------------------------------------------------------|
b-----------------------------------------------------------------|
g-----------------------------------------------------------------|
d-6p0-5p0-3h5-0-6p0-5p0-3h5p3-5---6p0-5p0-3h5-0-6p0-5p0-3h5p3p0---|
a-----------------------------------------------------------------|
d-----------------------------------------------------------------|

gtr. 1&2

e-----------------------------------------------------------------|
b-----------------------------------------------------------------|
g-----------------------------------------------------------------|
d-----------------------------------------------------------------|
a---------------------------------------------------------------0-|
d-6p0-5p0-3-5-0-6p0-5-5-3-5-3-5-3-6p0-5p0-3-5-0-6p0-5-5-3-5-3---0-|

Guitar Solo:

gtr. 4 w/ wah half cocked

e-17--------------------------------------------------------------
b-20b~~~~~~~~~~~~~~~~~~~~~~~~~~~~~~~~~~~~~~~~~~~~~~~~~~~~~~~~~~~--
g-----------------------------------------------------------------|
d-----------------------------------------------------------------|
a-----------------------------------------------------------------|
d-----------------------------------------------------------------|

gtr. 3 (trem pick)

e-----------------------------------------------------------------|
b-10-----------------10-----------10---------------10-------------|
g-12b~~~~~~~~~~~~~~~-12b~~~~~~~~~-12b~~~~~~~~~~~~~-12b~~~~~~~~~~--|
d-----------------------------------------------------------------|
a-----------------------------------------------------------------|
d-----------------------------------------------------------------|

gtr. 1&2

e-----------------------------------------------------------------|
b-----------------------------------------------------------------|
g-----------------------------------------------------------------|
d-6----5----0-6----6----0----0-----6----5----0-6----6----0---0----|
a-6----5----0-6----6----0----0-----6----5----0-6----6----0---0----|
d-6----5----0-6----6----0----0-----6----5----0-6----6----0---0----|


Outro Chorus:

x3
e-----------------------------------------------------------------|
b-----------------------------------------------------------------|
g-----------7-----7--7---7-7-7-7-7\5-----5-----5--5---------------|
d-0-----0---7-----7--7---7-7-7-7-7\5-----5-----5--5----3---3---5--|
a-0-----0---5-----5--5---5-5-5-5-5\3-----3-----3--3----3---3---5--|
d-0-----0----------------------------------------------3---3---5--|

then
e-----------------------------------------------------------------|
b-----------------------------------------------------------------|
g-----------7-----7--7---7-7-7-7-7\5-----5-----5--5---5-5-7-7--\--|
d-0-----0---7-----7--7---7-7-7-7-7\5-----5-----5--5---x-x-x-x--\--|
a-0-----0---5-----5--5---5-5-5-5-5\3-----3-----3--3---3-3-5-5--\--|
d-0-----0---------------------------------------------------------|
Author/Artist: Drowning Pool
Title: Bodies
Album: Sinner
Transcribed by: J. Keller
Email: x_hellfire_x@hotmail.com

Tune down to C
use wah
x = muted note
\ = slide down

------------------------------------------------------------------------------|
------------------------------------------------------------------------------|
-7-7-7------------------------------------------------------------------------|
-7-7-7-6--6-6-6-0-0-0--6-6-3-1------------------------------------------------|
-5-5-5-6--6-6-6-0-0-0--6-6-3-1------------------------------------------------|
-------6--6-6-6-0-0-0--6-6-3-1------------------------------------------------|
        play verse 2x

-------10-10-10-10-10-10-10-10---------15-15-15-15-15-15-15-15----------------|
-------10-10-10-10-10-10-10-10---------15-15-15-15-15-15-15-15----------------|
---------------------------------------15-15-15-15-15-15-15-15----------------|
------------------------------------------------------------------------------|
------------------------------------------------------------------------------|
------------------------------------------------------------------------------|
        play verse 4x
------------------------|----------------------------------------------------|
------------------------|----------------------------------------------------|
------------------------|----------------------------------------------------|
------------------------|-0x--0-3-3-5-5-7-7----------------------------------|
-0x--0x-1x-0x--0x-1x-3x-|-0x--0-3-3-5-5-7-7----------------------------------|
-0x--0x-1x-0x--0x-1x-3x-|-0x--0-3-3-5-5-7-7----------------------------------|
   play verse 7x

-----------10-10-10------------15-15-15-|----------10-10-10--------15-15-15--|
-----------10-10-10------------15-15-15-|----------10-10-10--------15-15-15--|
-------------------------------15-15-15-|------------------------------------|
-0x-0x-0x------------0x-0x-0x-----------|-0x-0x-0x-----------0-0-0-----------|
-0x-0x-0x------------0x-0x-0x-----------|-0x-0x-0x-----------0-0-0-----------|
-0x-0x-0x------------0x-0x-0x-----------|-0x-0x-0x-----------0-0-0-----------|
       play verse 3x

------------------------------------------------------------------------------|
------------------------------------------------------------------------------|
-7-7-7------------------------------------------------------------------------|
-7-7-7-6--6-6-6-0-0-0-6--6-3-1------------------------------------------------|
-5-5-5-6--6-6-6-0-0-0-6--6-3-1------------------------------------------------|
-------6--6-6-6-0-0-0-6--6-3-1------------------------------------------------|
         play verse 4x

-------10-10-10-10-10-10-10-10-----15-15-15-15-15-15-15-15--------------------|
-------10-10-10-10-10-10-10-10-----15-15-15-15-15-15-15-15--------------------|
-----------------------------------15-15-15-15-15-15-15-15--------------------|
------------------------------------------------------------------------------|
------------------------------------------------------------------------------|
------------------------------------------------------------------------------|
            play verse 2x

------------------------|-----------------------------------------------------|
------------------------|-----------------------------------------------------|
------------------------|-----------------------------------------------------|
------------------------|-0x-0-3-3-5-5-7-7------------------------------------|
-0x--0x-1x-0x--0x-1x-3x-|-0x-0-3-3-5-5-7-7------------------------------------|
-0x--0x-1x-0x--0x-1x-3x-|-0x-0-3-3-5-5-7-7------------------------------------|
     play verse 7x

----------10-10-10-----------15-15-15-|---------------------------------------|
----------10-10-10-----------15-15-15-|---------------------------------------|
-----------------------------15-15-15-|---------------------------------------|
-0x-0x-0x-----------0x-0x-0x----------|-0-0-0-0-6-6-6-6-----------------------|
-0x-0x-0x-----------0x-0x-0x----------|-0-0-0-0-6-6-6-6-----------------------|
-0x-0x-0x-----------0x-0x-0x----------|-0-0-0-0-6-6-6-6-----------------------|
       play verse 3x

------------------------------------------------------------------------------|
------------------------------------------------------------------------------|
-7-7-7------------------------------------------------------------------------|
-7-7-7-6--6-6-6-0-0-0-6--6-3-1------------------------------------------------|
-5-5-5-6--6-6-6-0-0-0-6--6-3-1------------------------------------------------|
-------6--6-6-6-0-0-0-6--6-3-1------------------------------------------------|
       play verse 4x

------------------------------------------------------------------------------|
------------------------------------------------------------------------------|
------------------------------------------------------------------------------|
-0-5-6-5-6-0-0-0x-0x0x0x0x0x0x0x0x0x-0x-5-6-5-0-3-3-3x-3x-3x-3x-1x-1x-1x-1x---|
-0-5-6-5-6-0-0-0x-0x0x0x0x0x0x0x0x0x-0x-5-6-5-0-3-3-3x-3x-3x-3x-1x-1x-1x-1x---|
-0-5-6-5-6-0-0-0x-0x0x0x0x0x0x0x0x0x-0x-5-6-5-0-3-3-3x-3x-3x-3x-1x-1x-1x-1x---|


------------------------------------------------------------------------------|
------------------------------------------------------------------------------|
------------------------------------------------------------------------------|
-0-5-6-5-6-0-0-0x-0x0x0x0x0x0x0x0x0x-0x-5-6-5-0-3-3--3-3-1-1-1-1-1------------|
-0-5-6-5-6-0-0-0x-0x0x0x0x0x0x0x0x0x-0x-5-6-5-0-3-3--3-3-1-1-1-1-1------------|
-0-5-6-5-6-0-0-0x-0x0x0x0x0x0x0x0x0x-0x-5-6-5-0-3-3--3-3-1-1-1-1-1------------|


-------10-10-10-10-10-10-10-10-----15-15-15-15-15-15-15-15-15-----------------|
-------10-10-10-10-10-10-10-10-----15-15-15-15-15-15-15-15-15-----------------|
-----------------------------------15-15-15-15-15-15-15-15-15-----------------|
------------------------------------------------------------------------------|
------------------------------------------------------------------------------|
------------------------------------------------------------------------------|
           play verse 6x

------------------------------------------------------------------------------|
------------------------------------------------------------------------------|
------------------------------------------------------------------------------|
------------------------------------------------------------------------------|
-0x-0x-0x---0x-0x-0x---0x-0x-0x---0x-0x-0x------------------------------------|
-0x-0x-0x---0x-0x-0x---0x-0x-0x---0x-0x-0x------------------------------------|


-----------------------------------------------------|------------------------|
-----------------------------------------------------|------------------------|
-----------------------------------------------------|------------------------|
-----------------------------------------------------|0x-0x0x0x-0x0x-3-3-5-5--|
-0x-0x-0x--xxxxx--0x-0x-0x---xxxxx--0x-0x-0x---xxxxx-|0x-0x0x0x-0x0x-3-3-5-5--|
-0x-0x-0x--xxxxx--0x-0x-0x---xxxxx--0x-0x-0x---xxxxx-|0x-0x0x0x-0x0x-3-3-5-5--|


-------------------------------|----------------------------------------------|
-------------------------------|----------------------------------------------|
-7-7-7-------------------------|-7-7-7----------------------------------------|
-7-7-7-6--6-6-6-0-0-0-6--6-3-1-|-7-7-7-6--6-6-6-0-0-0-6--6-3------------------|
-5-5-5-6--6-6-6-0-0-0-6--6-3-1-|-5-5-5-6--6-6-6-0-0-0-6--6-3------------------|
-------6--6-6-6-0-0-0-6--6-3-1-|-------6--6-6-6-0-0-0-6--6-3------------------|
       play verse 5x

Artist: Drowning Pool
Song: Tear Away

Transicribed by: Josh Minnish
Email: ibanezjoshm@hotmail.com

Drop C Tuning (CGCFAD)

This song rocks man!! I havent seen good enough tabs so I did it my self!! It
sounds close to me!! I also Finally did the Solo right and Outro!! Enjoy!!


Intro: (Use flanger Effect)
D------------------------------------|
A------------------------------------|
F--8-8-8-8-8/7-----------------------|
C--x-x-x-x-x/x-----------------------|  10x
G--6-6-6-6-6/5--0-0--0--0-0-0--0-0---|
C---------------0-0--0--0-0-0--0-0---|
P.M.            - -  -  - - -  - -


Intro 2: (Heavy Octave Part)
D------------------------------------------------------------------------------|
A------------------------------------------------------------------------------|
F--14-14--14-14--14-14--14-14--12-12-12-12-12-12--11-11--11-11--11-11--11-11---|
C---x--x---x--x---x--x---x--x---x--x--x--x--x--x---x--x---x--x---x--x---x--x---| 2x
G--12-12--12-12--12-12--12-12--10-10-10-10-10-10---9--9---9--9---9--9---9--9---|
C---0--0---0--0---0--0---0--0---0--0--0--0--0--0---0--0---0--0---0--0---0--0---|


Verse:
D-----------------------------------------------|
A-----------------------------------------------|
F--------------------------8-8-8-8-8/7----------|
C--------------------------x-x-x-x-x/x----------|  8 1/2x
G-0--0-0-0--0-0--0-0-0-0---6-6-6-6-6/5----------|
C-0--0-0-0--0-0--0-0-0-0------------------------|
P.M. - - -  - -  - - - -


Fill in Before First Chorus:
D--------------------------|
A--------------------------|
F----8-8-8-8-8-------------|
C----x-x-x-x-x---6-6-6-----|  1x
G----6-6-6-6-6---6-6-6-----|
C----------------6-6-6-----|


Chorus:
D----------------------------------------------|
A----------------------------------------------|
F----------------------------------------------|
C--0-0-0-x-x-0-0-x-x-x--8-8-8-8-8-5-5-5-5-5-5--|  3x then 5x 2nd time
G--0-0-0-5-5-0-0-5-5-5--8-8-8-8-8-5-5-5-5-5-5--|
C--0-0-0-0-0-0-0-0-0-0--8-8-8-8-8-5-5-5-5-5-5--|


Fill Before 2nd Chorus:
D------------------|
A------------------|
F------------------| 1x
C---12/0-----------|
G---12/0-----------|
C------------------|


Bridge:
D-----------------------------------|
A-----------------------------------|
F-----------------------------------|
C--1-0--1-0--1-0----1-0--1-0--1-0---|  1x
G--1-0--1-0--1-0----1-0--1-0--1-0---|
C--1-0--1-0--1-0----1-0--1-0--1-0---|


Solo: Tremelo Pick each Marked part (/) and Use a Wah Pedal
    /   /   /   /        /   /  / /  /  / /
D-------------------------------------------------------------|
A-------------------------------------------13br-13br-13br----|
F--14--12--15--14--14h15p14--10-9-7--5--8-7-------------------|
C-------------------------------------------------------------|  1x
G-------------------------------------------------------------|
C-------------------------------------------------------------|
   /                           /   /  /
D-------------------------------------------------------------|
A-----8--9-8-9-8--9-8/----------------------------------------|
F-12-------------------5-6-5-6-5---3--4b/0--------------------|
C-------------------------------------------------------------|
G-------------------------------------------------------------|
C-------------------------------------------------------------|


Outro: Use Light Distortion (Leave out last 0 on 2nd time)
D-------------------------------------|
A-------------------------------------|
F-----7----7/------3---3\7-----7------|
C-0-0----0-----0-0---0-----0-0---0----|  2x
G-------------------------------------|
C-------------------------------------|

Hint: If you have a Wah Pedal..Slightly press it down to give
the outro that cool effect!!
Band- Drowning Pool
Song- All Over Me

Tuning: B f# b e g# c#
i know that C.J. usually use drop c tuning, but for this song i think this is
the right tuning


Intro 1: w/effect
|--------------------|
|--------------------|
|-7---8---7---8-/-12-| x1
|-x---x---x---x---x--|
|-5---6---5---6-/-10-|
|--------------------|

Intro 2: x2

Guitar 1: same intro 1

Guitar 2: w/effect
|--------------------|
|--------------------|
|-7---8---7---5------|
|-x---x---x---x------|
|-5---6---5---3------|
|--------------------|

Verse 1:
|--------------------------------------------------------------------------|
|--------------------------------------------------------------------------|
|--------------------------------------------------------------------------| x2
|-0--0-0------------1--1-1---1--1-1---0--0-0------------5---5-5-5--5-5-5---|
|-0--0-0------------1--1-1---1--1-1---0--0-0------------5---5-5-5--5-5-5---|
|-0--0-0------------1--1-1---1--1-1---0--0-0------------5---5-5-5--5-5-5---|
Pm.  .              .  .     .  . .   .  .                  . .    . .

Pre-chorus 1:

	Part 1:

Guitar 1:
|---------------------------------------------------------|
|---------------------------------------------------------|
|---------------------------------------------------------|
|-0---0-0-0-0---1---1-1-1-1---0---0-0-0-0---5---5-5-5-5---|
|-0---0-0-0-0---1---1-1-1-1---0---0-0-0-0---5---5-5-5-5---|
|-0---0-0-0-0---1---1-1-1-1---0---0-0-0-0---5---5-5-5-5---|

	Part 2:

Guitar 1:
|-----------------------------------------------|
|-----------------------------------------------|
|-----------------------------------------------|
|-0---0-0-0-0---1---1-1-1-1---0---0-0-0-0---5---|
|-0---0-0-0-0---1---1-1-1-1---0---0-0-0-0---5---|
|-0---0-0-0-0---1---1-1-1-1---0---0-0-0-0---5---|

Guitar 2: w/effect and tremolo picking
|-----------------------------------------------|
|-----------------------------------------------|
|-----------------------------------------------|
|-5-----------8-6-----------8-5-----------------|
|-----------------------------------------------|
|-----------------------------------------------|

Chorus 1: w/ wah/wah and tremolo picking
|------------------------|
|------------------------|
|-7---8---5---7---8---12-|
|-x---x---x---x---x---x--|
|-5---6---3---5---6---10-|
|------------------------|

Verse 2: same verse 1

Pre-chorus 2:

Guitar 1:
|---------------------------------------------------------|
|---------------------------------------------------------|
|---------------------------------------------------------| x2
|-0---0-0-0-0---1---1-1-1-1---0---0-0-0-0---5---5-5-5-5---|
|-0---0-0-0-0---1---1-1-1-1---0---0-0-0-0---5---5-5-5-5---|
|-0---0-0-0-0---1---1-1-1-1---0---0-0-0-0---5---5-5-5-5---|

Guitar 2: w/effect and tremolo picking - starts on 2nd of guitar 1
|-----------------------------------------------|
|-----------------------------------------------|
|-----------------------------------------------| x1
|-5-----------8-6-----------8-5-----------3-----|
|-----------------------------------------------|
|-----------------------------------------------|

Chorus 2: w/ wah/wah and tremolo picking
|------------------------|
|------------------------|
|-7---8---5---7---8---12-| x2
|-x---x---x---x---x---x--|
|-5---6---3---5---6---10-|
|------------------------|

Interlude: w/ wah/wah and tremolo picking
|------------------------------------------------|
|--------------------------7---8---5-------------|
|-7---8---5---7---8---12---x---x---x---7---8---5-|
|-x---x---x---x---x---x----x---x---x---x---x---x-|
|-5---6---3---5---6---10---5---6---3---5---6---3-|
|------------------------------------------------|

Bridge:
|-------------------------------------------------------------------------|
|-------------------------------------------------------------------------|
|-------------------------------------------------------------------------|
|-0-0-0-0---0-0-0-0-1-1-1-1---1-1-1-1-0-0-0-0---0-0-0-0-5-5-5-5---5-5-5-5-|
|-0-0-0-0---0-0-0-0-1-1-1-1---1-1-1-1-0-0-0-0---0-0-0-0-5-5-5-5---5-5-5-5-|
|-0-0-0-0---0-0-0-0-1-1-1-1---1-1-1-1-0-0-0-0---0-0-0-0-5-5-5-5---5-5-5-5-|
Pm. . . .   . . . . . . . .   . . . . . . . .   . . . . . . . .   . . . .

|--------------------------------------------------------------------------|
|--------------------------------------------------------------------------|
|-------7---7---7-7-------8---8---8-8-------7---7---7-7-------8---8/-12-12-|
|-0-0-0-x---x-0-x-x-0-0-0-x---x-0-x-x-0-0-0-x---x-0-x-x-0-0-0-x---x--x--x--|
|-0-0-0-5---5-0-5-5-0-0-0-6---6-0-6-6-0-0-0-5---5-0-5-5-0-0-0-6---6/-10-10-|
|-0-0-0-0---0-0-0-0-0-0-0-0---0-0-0-0-0-0-0-0---0-0-0-0-0-0-0-0---0--0--0--|
Pm. . .       .     . . .       .     . . .       .     . . .

Pre-chorus 3: same pre-chorus 2

Chorus 3: same chorus 1

Pre-chorus 4: same pre-chorus 1


Tablature Keys:

h - hammer on
p - pull off
b - bend
r - relese bend
~ - sustain
/ - slide up
\ - slide down
v - vibrato
* - trill
x - mute string
pm - palm mute
nh - natural harmonic
ph - pitch harmonic
x\\\ - pick scrape (direction same as slide)
Band- Drowning Pool
Song- Reminded

Tuning: Drop C (C G C F A D)

Intro
D  ----------------------------------------------------------|
A  ----------------------------------------------------------|
F  ----------------------------------------------------------|
C  ----------------------------------------------------------|  3x
G  ----------------------------------------------------------|
C  ---7-7-7\5-5-5/8-8-8\5-5-5/7-7\5/7-7-7-5/8-8-8\5-5-5------|

2nd Intro, sort of like Chorus
D  --------------------------------|
A  --------------------------------|
F  --------------------------------|   2x
C  ---7-7-5--8-5--7-5-7-7-5-8-5----|
G  ---7-7-5--8-5--7-5-7-7-5-8-5----|
C  ---7-7-5--8-5--7-5-7-7-5-8-5----|

D  ----------------------|
A  ----------------------|
F  ----------------------|
C  ---9\7/10\-7-/5\-7----|   	Repeat this until verse starts....
G  ---7\5/-8-\-5/-7\-5---|
C  ----------------------|

Verse, ALL PALM MUTED EXEPT FOR THE LAST NOTE, ---> (5) <----|
D  ----------------------------------------------------------|
A  ----------------------------------------------------------|
F  ----------------------------------------------------------|
C  ---7-7-5-5--8-8-5-5--7-7-5--8-8-5-5--7-7-5-5--------------|
G  ---7-7-5-5--8-8-5-5--7-7-5--8-8-5-5--7-7-5-5--------------|
C  ---7-7-5-5--8-8-5-5--7-7-5--8-8-5-5--7-7-5-5--------------|

D  -----------------------------------------------------------|
A  -----------------------------------------------------------|
F  -----------------------------------------------------------|
C  8-8-5--7-7-5--7-7-5-5--8-8-5-5--7-7-5--8-8-5-7-7-(5)-------|  x2
G  8-8-5--7-7-5--7-7-5-5--8-8-5-5--7-7-5--8-8-5-7-7-(5)-------|
C  8-8-5--7-7-5--7-7-5-5--8-8-5-5--7-7-5--8-8-5-7-7-(5)-------|

Chorus

D  ------------------|
A  ------------------|
F  ------------------| x 4
C  ---7-7\5/8-0-0-0--|
G  ---7-7\5/8-0-0-0--|
C  ---7-7\5/8-0-0-0--|

D  ----------------------|
A  ----------------------|
F  ----------------------|
C  ----------------------|
G  9\7/10\7/9\7----------|
C  7\5/-8\5/7\5----------|

D  --------------------|
A  --------------------|
F   -------------------|
C  --------------------| On last time do this   (except for end of song)
G  10------------------|
C  -8------------------|

Verse

Chorus

Bridge
D  ------------------------------------------|
A  ------------------------------------------|
F  ------------------------------------------|   x3
C  555555555-/-777--000000000000-777\--------|
G  333333333-/-555--000000000000-555\--------|
C  ------------------------------------------|

D  ---------------------|
A  ---------------------|
F  ---------------------|
C  55555555---555--0----|
G  33333333---333--0----|
C  -----------xxx--0----|

Intro
2nd Part Of Chorus
Verse
Chorus
Bridge
Chorus

End With
D -----------|
A -----------|
F -----------|
C -000-------|
G -000-------|
C -xxx-------|
Song: Pity
Band: Drowning Pool
From: Sinner
By:   Adam Urbz
Mail: pickboy87@cs.com
Tune: Dropped D; Down One Whole Step (C,G,C,F,A,D)

Sb=Slight Bend
R=Release
<#>=Natural Harmonic

  Intro A:(gradually slow down speed)
D|------------------------------------|
A|------------------------------------|
F|------------------------------------|
C|--2-2-2--0-0-0-------3--3---0-0-0\--|
G|--2-2-2--0-0-0-------3--3---0-0-0\--|
C|--2-2-2--0-0-0-------3--3---0-0-0\--|
                               (Dive Bomb)
  Intro B:(strum)
D|---------------------------------------------Gtr.1|
A|--------------------------------------------------|
F|*------------------------------------------------*|
C|*-2--2---2-----0--0---0-----3----3-----0--0---0--*|
G|--2--2---2-----0--0---0-----3----3-----0--0---0---|
C|--2--2---2-----0--0---0-----3----3-----0--0---0---|
 |						    |
D|---------------------------------------------Gtr.2|
A|--------------------------------------------------|
F|*-9--9---9-----7-----(7)---10---10----10/12--12--*|
C|*-x--x---x-----x------x-----x----x-----x------x--*|
G|--7--7---7-----5-----(5)----8----8-----8/10--10---|
C|--------------------------------------------------|

  Verse:(w/wah)
D|-------------------------------------------|
A|------------------------<12>---------------|
F|*-----------------------------<12>--------*|
C|*-2-------2SbR-\-0------------------<12>--*|
G|-------------------------------------------|
C|-------------------------------------------|

  Chorus:
D|-----------------------------------|
A|-----------------------------------|
F|*---------------------------------*|
C|*-2-2-2--0-0-0-------3--3---0-0-0-*|
G|--2-2-2--0-0-0-------3--3---0-0-0--|
C|--2-2-2--0-0-0-------3--3---0-0-0--|

  Bridge:(play 4x with wah & flange,then without)
D|---------------------------------------|
A|---------------------------------------|
F|*-------------------------------------*|
C|*-0--2-2-2-2--0-0-0-0--3-3-3-3--0-0-0-*|
G|--0--2-2-2-2--0-0-0-0--3-3-3-3--0-0-0--|
C|--0--2-2-2-2--0-0-0-0--3-3-3-3--0-0-0--|

  Break:(w/wah)
D|------------------------------------|
A|------------------------------------|
F|------------------------------------|
C|--2-2-2-2-2-2-2-2-0-0-0-0-0-0-0-0---|
G|------------------------------------|
C|------------------------------------|
====
Mute Tab by Drowning Pool, www.Ultimate-Guitar.Com ยท Mute Tab @ 911Tabs.Com


Drowning Pool - Mute
Drop D down 1 step
Tabbed by puppetz_85
for more tabs: go.to/tab_zone

Intro
clean w/phaser
|----------------------------------------------------|
|----------------------------------------------------|
|----------------------------------------------------|
|-------2----3--3--3--3---5--------2----3--3--3---0--|
|-----2------3--3--3--3---5------2------3--3--3---0--|
|-0h2-----3--3--3--3--3---5--0h2-----3--3--3--3---0--|

Pre-Verse (dist. w/wah), Verse (clean)
|--------------------------------------------------|
|--------------------------------------------------|
|-7\9--9--9--10-10-10-12---7\9--9--9--10-10-10-7---|
|--------------------------------------------------|
|-5\7--7--7--8--8--8--10---5\7--7--7--8--8--8--5---|
|--------------------------------------------------|

Fill 1
|------------------|
|------------------|
|--7\9--9--9~~~~---|
|------------------|
|--5\7--7--7~~~~---|
|------------------|

Post-Verse
p.m.......   ............    .......    ....
|--------------------------------------------------|
|--------------------------------------------------|
|--------------------------------------------------|
|--0h2--2--2--3--3--5--5--5--0h2--2--2--3--3--0----|
|--0h2--2--2--3--3--5--5--5--0h2--2--2--3--3--0----|
|--0h2--2--2--3--3--5--5--5--0h2--2--2--3--3--0----|

Pre-Chorus
p.m......            ......
|----------------------------------------|
|----------------------------------------|
|------------9--7-10-----------9--7-12---|
|----------------------------------------|
|--0-0-0--0--7--5-8--0-0-0--0--7--5-10---|
|--0-0-0--0----------0-0-0--0------------|

Chorus
        p.m..       ....                ....       .....
|-------------------------------------------------------------|
|-------------------------------------------------------------|
|-------------------------------------------------------------|
|--2----2--2---3----3--3---5--5----2----2--2---3----3--3---0--|
|--2----2--2---3----3--3---5--5----2----2--2---3----3--3---0--|
|--2----2--2---3----3--3---5--5----2----2--2---3----3--3---0--|

Solo
  //  //   //  //  //  //  //
|-0--\12--/1--\13--15--0--\12--12h13p12\10--10h12p10\8--8h10p8\7--|
|-----------------------------------------------------------------|
|-----------------------------------------------------------------|
|-----------------------------------------------------------------|
|-----------------------------------------------------------------|
|-----------------------------------------------------------------|

w/wah
|--12-------------------------------------------------------------|
|--15b--12---14-14-14-14-12-12-12-12-------------------------12~~-|
|-------14b--14-14-14-14-12-12-12-12-------------------------14b~-|
|------------------------------------14-14-14-14-12-12-12-12------|
|-----------------------------------------------------------------|
|-----------------------------------------------------------------|
Band- Drowning Pool
Song- I Am

Tuning: Drop C (C G C F A D)

This song has two guitars, this tab only covers one of them.

Intro:  x1
D  -----------------------------------------------|
A  -----------------------------------------------|
F  -----------------------------------------------|
C  000--------0000--------0000-----0-66-0-53------|
G  000--------0000--------0000-----0-66-0-53------|
C  000-(4)----0000-(4)----0000-(4)-0-66-0-53------|

D  -----------------------------------------------|
A  -----------------------------------------------|
F  -----------------------------------------------|
C  000-(3)----0000-(3)----0000-(3)-0-66-0-53------|
G  000-(3)----0000-(3)----0000-(3)-0-66-0-53------|
C  000-(3)----0000-(3)----0000-(3)-0-66-0-53------|

Riff 1: x4
D  ---------------------------|
A  ---------------------------|
F  ---------------------------|
C  003--003--003--66-0-53-----|
G  003--003--003--66-0-53-----|
C  003--003--003--66-0-53-----|

D  -------------------------|
A  -------------------------|
F  -------------------------|
C  0*-----------------------|
G  0*-----------------------|
C  0*-----------------------|

Riff 2: x2
D  --------------------------------------------------------------------|
A  --------------------------------------------------------------------|
F  --------------------------------------------------------------------|
C  15--0--12--0---15--0--12--0---15--0--12--0---16h17-17-16-16---------|
G  15--0--12--0---15--0--12--0---15--0--12--0---16h17-17-16-16---------|
C  15--0--12--0---15--0--12--0---15--0--12--0---16h17-17-16-16---------|

D  -----------------------------------------------------------------|
A  -----------------------------------------------------------------|
F  -----------------------------------------------------------------|
C  15--0--12--0---15--0--12--0---15--0--12--0---10-10-10-10---------|
G  15--0--12--0---15--0--12--0---15--0--12--0---10-10-10-10---------|
C  15--0--12--0---15--0--12--0---15--0--12--0---10-10-10-10---------|

Riff 3 (Chourus)
D  --------------------------------------------   ----------------------------------|
A  --------------------------------------------   ----------------------------------|
F  ------------------------------------------x2   -------------------------------x2-|
C  00-xxx-00-xxx-00-xxx--00-66-0-53------------   003--003--003--66-0-53------------|
G  00-xxx-00-xxx-00-xxx--00-66-0-53------------   003--003--003--66-0-53------------|
C  00-xxx-00-xxx-00-xxx--00-66-0-53------------   003--003--003--66-0-53------------|

D  -----------------------|
A  -----------------------|
F  -----------------------|
C  0*---------------------|
G  0*---------------------|
C  0*---------------------|

Riff 2

Riff 3 (Chourus)

Riff 4: x4
D  --------------------|
A  --------------------|
F  --------------------|
C  2/8\2/8\2/8-8-8-8-8-|
G  2/8\2/8\2/8-8-8-8-8-|
C  2/8\2/8\2/8-8-8-8-8-|

During solo do Riff 1

Riff 4
Riff 3 (Chourus)
Intro
Follow
Drowning Pool
Sinner (2001)

TUNING:- Drop C 1/2 Step down (B F# B E G# C#)

INTRO

C#|------------------------------|------------------------------|
G#|------------------------------|------------------------------|
E |------------------------------|------------------------------|
B |------------------------------|------------------------------|
F#|------------------------------|------------------------------|
B |-3-5--5-6-5-3-5--5-5-5-6-5-3-5|-3-5--5-6-5-3-5--0-0-0-0-0-0-0|
                                                             x x

C#|------------------------------|----------------------------|
G#|------------------------------|----------------------------|
E |------------------------------|----------------------------|
B |------------------------------|----------------------------|
F#|------------------------------|----------------------------|
B |-3-5--5-6-5-3-5--5-5-5-6-5-3-5|-3-5--5-6-5-3-5--8-8-8-8-8-8|

C#|-------------------------------|
G#|-------------------------------|
E |-------------------------------| X3
B |-------------------------------|
F#|-3-5--5-6-5-3-5--5--5-5-6-5-3-5|
B |-3-5--5-6-5-3-5--5--5-5-6-5-3-5|

C#|-------------------------------|
G#|-------------------------------|
E |-------------------------------|
B |-------------------------------|
F#|-3-5---5-6-5-3-5--8-8-8-8-8-6-6|
B |-3-5---5-6-5-3-5--8-8-8-8-8-6-6|

VERSE

C#|------------------------|-------------------------|
G#|------------------------|-------------------------|
E |------------------------|-------------------------| X3
B |------------------------|-------------------------|
F#|5-5-5-6-6-5--5--5-6-6-5-|5-5-5-6-6-3--3--3-3-3-6-6|
B |5-5-5-6-6-5--5--5-6-6-5-|5-5-5-6-6-3--3--3-3-3-6-6|
  |--------------------------PM----------------------|

C#|------------------------|---------------------------|
G#|------------------------|---------------------------|
E |------------------------|---------------------------|
B |------------------------|---------------------------|
F#|5-5-5-6-6-5--5--5-6-6-5-|5-5-5-6-6-3--3--3-3-3-3-6--|
B |5-5-5-6-6-5--5--5-6-6-5-|5-5-5-6-6-3--3--3-3-3-3-6--|
  |--------------------PM------------------------------|

CHORUS

GUITAR 1
                                      _
C#|--------------|---------------|     |
G#|--------------|---------------|     |
E |--------------|---------------|     |
B |--------------|---------------|     |
F#|-5-5-5/6\5--5-|6-6-6-6-3-3-3/6|     |
B |-5-5-5/6\5--5-|6-6-6-6-3-3-3/6|     |
                                       |
GUITAR 2                               | X4
                                       |
C#|--------------|---------------|     |
G#|--------------|---------------|     |
E |-7-7-7/8\7--7-|8-8-8-8-5-5-5/8|     |
B |-5-5-5/6\5--5-|6-6-6-6-3-3-3/6|     |
F#|--------------|---------------|     |
B |--------------|---------------|    _|

BRIDGE

C#|---------------------------------------------|
G#|---------------------------------------------|
E |---------------------------------------------| X4
B |---------------------------------------------|
F#|-0-0-1-1-0--0-0-1-1-0--0-0-1-1-0--3-3-3-3-5-5|
B |-0-0-1-1-0--0-0-1-1-0--0-0-1-1-0--3-3-3-3-5-5|

SOLO

C#|-13-15-15-16-15-13-15-15--15-16-15-13-15-15/19-19-19-19-19-19-19|
G#|----------------------------------------------------------------|
E |----------------------------------------------------------------|
B |----------------------------------------------------------------|
F#|----------------------------------------------------------------|
B |----------------------------------------------------------------|

C#|-16-16-16-16-16-15-15-15--13-15-15-16-15-13-15--15--15-16-15-13-15|
G#|------------------------------------------------------------------|
E |------------------------------------------------------------------|
B |------------------------------------------------------------------|
F#|------------------------------------------------------------------|
B |------------------------------------------------------------------|

C#|-15-16-16-16-16-16-16-16-16-13-13-13-13-16-16-16|
G#|------------------------------------------------|
E |------------------------------------------------|
B |------------------------------------------------|
F#|------------------------------------------------|
B |------------------------------------------------|

C#|-13-15-15-16-15-13-15-15--15-16-15-13-15-15/19-19-19-19-19-19-19|
G#|----------------------------------------------------------------|
E |----------------------------------------------------------------|
B |----------------------------------------------------------------|
F#|----------------------------------------------------------------|
B |----------------------------------------------------------------|

C#|-16-16-16-16-16-15-15-15--13-15-15-16-15-13-15--15--15-16-15-13-15|
G#|------------------------------------------------------------------|
E |------------------------------------------------------------------|
B |------------------------------------------------------------------|
F#|------------------------------------------------------------------|
B |------------------------------------------------------------------|

C#|-15-16-16-16-16-16-16-16-16-13-13-13-13|
G#|---------------------------------------|
E |---------------------------------------|
B |---------------------------------------|
F#|---------------------------------------|
B |---------------------------------------|

w/wah
C#|-----------------------------------------------------------|
G#|-12h13------------------------12-13-15-15-15-15-15p13-12h13|
E |-------12-12-12-12h13-12\--12------------------------------|
B |-----------------------------------------------------------|
F#|-----------------------------------------------------------|
B |-----------------------------------------------------------|

C#|------------------------------------------------------------------|
G#|-12-12-12h13p12---------------------------------------------------|
E |----------------13-13-13-12h13-12-12-12-12-10-13-13-13-13-13-12h13|
B |------------------------------------------------------------------|
F#|------------------------------------------------------------------|
B |------------------------------------------------------------------|

C#|-------------------12-13-15-13-12-13-12----------------12-13-12h13p12|
G#|-12-13-15-13-12-13----------------------13h15p13-12-13---------------|
E |---------------------------------------------------------------------|
B |---------------------------------------------------------------------|
F#|---------------------------------------------------------------------|
B |---------------------------------------------------------------------|

C#|----12-12--------------------------------------------------------------|
G#|-13-------13p12-13p12--------------------------------------------------|
E |----------------------13-13-13-13-12-12\--13-13-12-13-12-13-12-13-12-13|
B |-----------------------------------------------------------------------|
F#|-----------------------------------------------------------------------|
B |-----------------------------------------------------------------------|

C#|---------------|
G#|---------------|
E |-12-13-13p12p10|
B |---------------|
F#|---------------|
B |---------------|

OUTRO

C#|-10--11--8--/15-15-16--13-13|
G#|----------------------------|
E |----------------------------| X3
B |----------------------------|
F#|----------------------------|
B |----------------------------|

C#|-10--11--8--15----15-16--13-13-13-13-13|
G#|---------------------------------------|
E |---------------12----------------------|
B |---------------------------------------|
F#|---------------------------------------|
B |---------------------------------------|

PLAY ORDER

INTRO
VERSE
CHORUS
VERSE
CHORUS
BRIDGE
SOLO
CHORUS
OUTRO
Author/Artist: Drowning Pool
Title: Sermon
Transcribed by: J. Keller
Email: x_hellfire_x@hotmail.com

This is my own version of the song. so there may be some mistakes

Play drop C

use heavy distortion

x = muted note
b = bend note
/ = slide up
\ = slide down


------------------------------------------------------------------------------|
------------------------------------------------------------------------------|
------------------------------------------------------------------------------|
------------------------------------------------------------------------------|
------------------------------------------------------------------------------|
-6x-0x-5x-0x-6x-0x-5x-0x-6x-5x-3x-5x-6x-0x-5x-0x-6x-0x-5x-0x-6x-5x-3x-5x------|


------------------------------------------------------------------------------|
------------------------------------------------------------------------------|
------------------------------------------------------------------------------|
-6--0--5--0--6--0--5--0--6-5-3-5----------------------------------------------|
-6--0--5--0--6--0--5--0--6-5-3-5----------------------------------------------|
-6--0--5--0--6--0--5--0--6-5-3-5----------------------------------------------|
    play verse 12x

------------------------------------------------------------------------------|
------------------------------------------------------------------------------|
------------------------------------------------------------------------------|
------------------------------------------------------------------------------|
------------------------------------------------------------------------------|
-5x-5x-6x-5x-3x-6x------------------------------------------------------------|
 play verse 12x      play as quarter notes

------------------------------------------------------------------------------|
------------------------------------------------------------------------------|
------------------------------------------------------------------------------|
-------------------------------------------------------5-5-5-3-3--------------|
--------5-5-5--------5-5-5-3-3------------5-5-5-------------------------------|
-5x5x5x-------6x6x6x-----------6x6x5x5x5x-------6x6x6x-----------6x6x---------|
    play verse 4x    play as 8th notes

------------------------------------------------------------------------------|
------------------------------------------------------------------------------|
------------------------------------------------------------------------------|
-5--5--6---6b--5--5--6---6b--5--5--6---6b--5--5--6---6\0----------------------|
-5--5--6---6b--5--5--6---6b--5--5--6---6b--5--5--6---6\0----------------------|
-5--5--6---6b--5--5--6---6b--5--5--6---6b--5--5--6---6\0----------------------|


------------------------------------------------------------------------------|
------------------------------------------------------------------------------|
------------------------------5--5-5-5-5-5-5----------------------------------|
-0--0-0-0-1--0-0-0-1-0--0-0-0-5--5-5-5-5-5-5----------------------------------|
-0--0-0-0-1--0-0-0-1-0--0-0-0-3--3-3-3-3-3-3----------------------------------|
-0--0-0-0-1--0-0-0-1-0--0-0-0-------------------------------------------------|
     play verse 4x

------------------------------------------------------------------------------|
------------------------------------------------------------------------------|
------------------------------------------------------------------------------|
------------------------------------------------------------------------------|
------------------------------------------------------------------------------|
-5x-5x-6x-5x-3x-6x------------------------------------------------------------|
    play verse 12x     play as quarter notes

------------------------------------------------------------------------------|
------------------------------------------------------------------------------|
------------------------------------------------------------------------------|
-------------------------------------------------------5-5-5-3-3--------------|
--------5-5-5--------5-5-5-3-3------------5-5-5-------------------------------|
-5x5x5x-------6x6x6x-----------6x6x5x5x5x-------6x6x6x-----------6x6x---------|
   play verse 4x as 8th notes

------------------------------------------------------------------------------|
------------------------------------------------------------------------------|
------------------------------------------------------------------------------|
-5--5--6---6b--5--5--6---6b--5--5--6---6b--5--5--6---6\0----------------------|
-5--5--6---6b--5--5--6---6b--5--5--6---6b--5--5--6---6\0----------------------|
-5--5--6---6b--5--5--6---6b--5--5--6---6b--5--5--6---6\0----------------------|


------------------------------------------------------------------------------|
------------------------------------------------------------------------------|
------------------5-----------------------------------------------------------|
-0--0--0----0--0--5-----------------------------------------------------------|
-0--0--0----0--0--3-----------------------------------------------------------|
-0--0--0----0--0--------------------------------------------------------------|
   play verse 2x

------------------------------------------------------------------------------|
------------------------------------------------------------------------------|
------------------------------5--5-5-5-5-5-5----------------------------------|
-0--0-0-0-1--0-0-0-1-0--0-0-0-5--5-5-5-5-5-5----------------------------------|
-0--0-0-0-1--0-0-0-1-0--0-0-0-3--3-3-3-3-3-3----------------------------------|
-0--0-0-0-1--0-0-0-1-0--0-0-0-------------------------------------------------|
    play verse 4x

------------------------------------------------------------------------------|
------------------------------------------------------------------------------|
------------------------------------------------------------------------------|
------------------------------------------------------------------------------|
------------------------------------------------------------------------------|
-6x-0x-5x5x-0x-6x-0x-6x6x-0x-6x-5x-3x-5x--------------------------------------|
    play verse 8 times

------------------------------------------------------------------------------|
------------------------------------------------------------------------------|
------------------------------------------------------------------------------|
-6-0-5-0-6-0-5-0-6-5-3-5------------------------------------------------------|
-6-0-5-0-6-0-5-0-6-5-3-5------------------------------------------------------|
-6-0-5-0-6-0-5-0-6-5-3-5------------------------------------------------------|
   play verse 12x

------------------------------------------------------------------------------|
------------------------------------------------------------------------------|
------------------------------5--5-5-5-5-5-5----------------------------------|
-0--0-0-0-1--0-0-0-1-0--0-0-0-5--5-5-5-5-5-5----------------------------------|
-0--0-0-0-1--0-0-0-1-0--0-0-0-3--3-3-3-3-3-3----------------------------------|
-0--0-0-0-1--0-0-0-1-0--0-0-0-------------------------------------------------|
  play verse 6x

------------------------------------------------------------------------------|
------------------------------------------------------------------------------|
---------------0--------------------------------------------------------------|
-----1-------1----------------------------------------------------------------|
-------3---------3------------------------------------------------------------|
-0-0-----0-0------------------------------------------------------------------|
  play verse 20x

------------------------------------------------------------------------------|
------------------------------------------------------------------------------|
--------------5-5-5-5---------------------------------------------------------|
-0--0-0-1-0-0-5-5-5-5-0--0-0-1-5-1-0------------------------------------------|
-0--0-0-1-0-0-3-3-3-3-0--0-0-1-5-1-0------------------------------------------|
-0--0-0-1-0-0---------0--0-0-1-5-1-0------------------------------------------|
       play verse 2x

-----------------------------|------------------------------------------------|
-----------------------------|------------------------------------------------|
-----------------------------|------------------------------------------------|
-----------------------5-----|-0----------------------------------------------|
-0--0-0-6-3-0--0-0-0-6---6-5-|-0----------------------------------------------|
-0--0-0-----0--0-0-0---------|-0----------------------------------------------|
  play verse 4x                end with open string
comments
print report bad tab
2 comments total.
0 reply
Elvisz wrote on February 17 2005, 12:00 am

At least somebody put the album together....i was getting sick of opening so many windows....

0 reply
TheDisturbed78 wrote on August 20 2007, 04:38 pm

it was alright

I want to post or [tab]
guest
You may want to rate the tab now too:
select rating
Please do not post tabs as comments. Select "correction" instead!