Oops, an error
Loading. Please wait.

Under The Sun Tab

ver2
ver2

Whole song

Interactive

More versions @911Tabs.com
140 views 3 this week
no commentswrite comment
1 2 3 4 5
excellent!
x 2
add to favorites launch autoscroll
font size
0
reset
Autoscroll
+/-
esc
set tempo
stop
Contributor
Difficulty
Tuning
novice
C# G# C# F# A# D#
WARNING: You are trying to view
                                    content from Ultimate-Guitar.com
                                    in an unauthorized application,
                                    which is prohibited.

                                    Please use an official Ultimate
                                    Guitar Tabs application for iPhone,
                                    iPad or Android to access legitimate
                                    chords, guitar, bass, and drum tabs
                                    from Ultimate-Guitar.com database.

                                    Type "ultimate guitar tabs" in Apple
                                    App Store's or Android Market's
                                    search to find the application.
Dry Cell: Under The Sun

Transcribed by: mysticguitar77

Date last modified: January 19, 2011

Tuning: Drop Db (Db,Ab,Db,Gb,Bb,Eb)

Notes: I'm tabbing what I covered in my video on YouTube, nothing more, so there may be 
some parts missing, like the lead part during the bridge. But, this is the basic 
framework of the song to help you get started.

Riff 1   "Underneath the sun!"
Eb|-------------------------------------|
Bb|-------------------------------------|
Gb|-------------------------------------|
Db|-----3-2b-----3-2b-----3--------3----|
Ab|-0-0------0-0------3-3---3b-3-3---3b-|
Db|-0-0------0-0------3-3------3-3------|
    * *      * *      * *      * *

Note: Make sure you get some vibrato on those bends.

Play Riff 1 twice

Riff 2 - Clean   "We measure our lives in years..."
Eb|----------------------|
Bb|--------0-----------0-|
Gb|-----2--2--------0--0-|
Db|-0-3----3----0-3----3-|
Ab|--------------------3-|
Db|----------------------|

Play Riff 1 twice

Riff 3   "Let it go!"
Eb|----------------------------------------|
Bb|----------------------------------------|
Gb|-10----7----10----7-7-7-7-7-7-7-7-7-7-7-|
Db|-10----7----10----7-7-7-7-7-7-7-7-7-7-7-|
Ab|-8-----5----8-----5-5-5-5-5-5-5-5-5-5-5-|
Db|-8-----5----8-----5-5-5-5-5-5-5-5-5-5-5-|
                     * * * *

Note: Gradually release palm mute.

Riff 4   "I'm all alone, so far away!" (chords only)
Eb|-----------------------------|
Bb|-3---------------------------|
Gb|-2---------------------------|
Db|-0----3----10----10----8\7-0-|
Ab|-0----3----10----8-----8\7-0-|
Db|-0----3----10----8-----8\7-0-|

Eb|-------------------------------|
Bb|-3-----------------------------|
Gb|-2-----------------------------|
Db|-0----7-0-3----10----10----3-2-|
Ab|-0----7-0-3----10----8-----3-2-|
Db|-0----7-0-3----10----8-----3-2-|

Note: Listen to the song for the strumming pattern or watch my video on YouTube.

Play Riff 1 twice
Play Riff 2   "We measure our lives in years..."
Play Riff 1 twice
Play Riff 3   "Let it go!"
Play Riff 4   "I'm all alone, so far away!"

Riff 5   "Sometimes I feel I'm on my way..."
Eb|-----------------------|
Bb|-3---------------------|
Gb|-2---------------------|
Db|-0----3----10----10----|
Ab|-0----3----10----8-----|
Db|-0----3----10----8-----|

Eb|---------------------------|
Bb|-3-------------------------|
Gb|-2-------------------------|
Db|-0----3----10----10----3-2-|
Ab|-0----3----10----8-----3-2-|
Db|-0----3----10----8-----3-2-|

Note: Chords are the same as in the chorus, but instead here you just strum them once 
and let them ring along with the lyrics.

Play Riff 4   "Sometimes I feel I'm on my way..."

Note: Play the chorus strumming pattern under the vocal harmonizing part during the 
bridge and continue to play it for the chorus.

Play Riff 4   "I'm all alone, so far away!"

Riff 6 - Ending   "I was looking for myself..."
Eb|----------------------------|
Bb|----------------------------|
Gb|-10----7----10----7---------|
Db|-10----7----10----7----0----|
Ab|-8-----5----8-----5----0----|
Db|-8-----5----8-----5----0----|

Let the final chord ring out for the remainder of the song and that's it!
comments
We did not receive enough feedback on this tab! Please rate:
print report bad tab
1 2 3 4 5
I want to post or [tab]
guest
You may want to rate the tab now too:
select rating
Please do not post tabs as comments. Select "correction" instead!