Oops, an error
Loading. Please wait.

My Free Style Bass Tab

1,270 views 6 this week
no commentswrite comment
1 2 3 4 5
please rate
add to favorites launch autoscroll
font size
0
reset
Autoscroll
+/-
esc
set tempo
stop
Contributor
Difficulty
intermediate
WARNING: You are trying to view
                                    content from Ultimate-Guitar.com
                                    in an unauthorized application,
                                    which is prohibited.

                                    Please use an official Ultimate
                                    Guitar Tabs application for iPhone,
                                    iPad or Android to access legitimate
                                    chords, guitar, bass, and drum tabs
                                    from Ultimate-Guitar.com database.

                                    Type "ultimate guitar tabs" in Apple
                                    App Store's or Android Market's
                                    search to find the application.
Dub Inc
My Free Style (Diversité)
Tabbed by Bruno Frenchy (brsosson@live.fr)
Enjoy yourself

Tune : E/A/D/G
Intro
G:---------------|------------------|
D:---------------|------------------|
A:---1---3-------|----1---3---------|
E:1--------1-----|-1--------1-------|   X 3

Chorus
                    It's my music
G:--------------|-------------------|
D:--------------|-------------------|
A:--------4--3--|--------1-3-4------|
E:--1--4--------|--1--4--------4----|
Music is a reason...  WoYoyoyoyoyo...
G:--------------|-------------------|
D:--------------|-------------------|
A:--------6--3--|--------1-3-4------|
E:--1--4--------|--1--4--------4----|

Refrain X2
My free style, flying over this world
Kill your bad minds ,but he's never back down
G:--------------|-------------------|
D:--------------|-------------------|
A:--------4--3--|--------1-3-4------|
E:--1--4--------|--1--4--------4----|
He's like a bird in a tree, cause this feeling is so free
He's flying in the sky and he never fall down...
G:--------------|-------------------|
D:--------------|-------------------|
A:--------6--3--|--------1-3-4------|
E:--1--4--------|--1--4--------4----|


Bridge
I never fall down...
G:--------------|-------------------|
D:--------------|-------------------|
A:--------4--3--|--------1-3-4------|
E:--1--4--------|--1--4--------4----|
I never fall down...
G:--------------|-------------------|
D:--------------|-------------------|
A:--------6--3--|--------1-3-4------|
E:--1--4--------|--1--4--------4----|



Verse 1 and 2
1)	On t'parle de ce que l'on voit, nous ne somme pas dans la musik pour chanter
n'importe quoi
2)	So glory l'amour d'un riff ou d'une phase
Y-a-t-il des ennemis en quelques croches on les effaces
G:--------------|-------------------|
D:--------------|-------------------|
A:--------4--3--|--------1-3-4------|
E:--1--4--------|--1--4--------4----|


1)	Chaque freestyle est un combat, à chacun sa technique contre le système ou l'état...
2)	So glory la vie donc je reste ras
C'est dans la musik que je laisserai une trace
G:--------------|-------------------|
D:--------------|-------------------|
A:--------6--3--|--------1-3-4------|
E:--1--4--------|--1--4--------4----|


1)	Passe le mic, on vient chanter pour ceux qui n'ont que des miettes, écoute notre son
il est sans strass et notre flot est sans paillette
2)	So Oyoyo, tout le monde ici pense qu'il n'y aura pas de place
Chacun devrait être libre et égaux
G:--------------|-------------------|
D:--------------|-------------------|
A:--------4--3--|--------1-3-4------|
E:--1--4--------|--1--4--------4----|


1)	Passe le mic que je canalise en moi la race des ancêtres
Du son pour réagir autant qu'pour faire la fête...
2)	so Oyoyo, laisser le temps pour tous les hommes, même si de notre temps ça devient chaud..
G:--------------|-------------------|
D:--------------|-------------------|
A:--------6--3--|--------1-3-4------|
E:--1--4--------|--1--4--------4----|



Refrain X2
My free style, flying over this world
Kill your bad minds ,but he's never back down
G:--------------|-------------------|
D:--------------|-------------------|
A:--------4--3--|--------1-3-4------|
E:--1--4--------|--1--4--------4----|
He's like a bird in a tree, cause this feeling is so free
He's flying in the sky and he never fall down...
G:--------------|-------------------|
D:--------------|-------------------|
A:--------6--3--|--------1-3-4------|
E:--1--4--------|--1--4--------4----|



Verse 3 and 4
3)	So murderer, lyrics for brothers, burning babylon with feelings no lyer
4)	A chaque seconde leurs musiques nous inondent de leurs pensées nauséabondes,
d'not'coté on construit des bombes...
G:--------------|-------------------|
D:--------------|-------------------|
A:--------4--3--|--------1-3-4------|
E:--1--4--------|--1--4--------4----|


3)	C'est comme ça, ce flot est faya, contre les oppresseurs et s'adressant aux ruda...
4)	Car il n'y a rien là dedans qui nous corresponde lorsque le vrai-faux se confondent
on revient en trombe donc :
G:--------------|-------------------|
D:--------------|-------------------|
A:--------6--3--|--------1-3-4------|
E:--1--4--------|--1--4--------4----|


3)	Je n'veux plus, ni de tes censures ni de tes caresses
Je n'veux plus que l'under ground essuie sans cesse ton stress
4)	Des lyrics conscients pour ceux d'en bas
Toujours indépendants pour plus de faya
G:--------------|-------------------|
D:--------------|-------------------|
A:--------4--3--|--------1-3-4------|
E:--1--4--------|--1--4--------4----|


3)	Et c'est sur, la musik n'est pas qu'un business
Tous les requins, les tchatches n'achèteront seulement tes fesses...
4)	Nous sommes et resterons toujours soldats rastas
Et même sans rien on garde la foi
G:--------------|-------------------|
D:--------------|-------------------|
A:--------6--3--|--------1-3-4------|
E:--1--4--------|--1--4--------4----|


Verse 5
-	Respect pour tous les groupes qui répètent dans les caves,
-	Pour les man qui tracent leur route et pour les frères qui savent
G:--------------|-------------------|
D:--------------|-------------------|
A:--------4--3--|--------1-3-4------|
E:--1--4--------|--1--4--------4----|

- que le monde est dans le doute et que l'heure est grave
- Au biz ou d'un tyran nous n'serons jamais esclaves!
G:--------------|-------------------|
D:--------------|-------------------|
A:--------6--3--|--------1-3-4------|
E:--1--4--------|--1--4--------4----|


Refrain X2
My free style, flying over this world
Kill your bad minds ,but he's never back down
G:--------------|-------------------|
D:--------------|-------------------|
A:--------4--3--|--------1-3-4------|
E:--1--4--------|--1--4--------4----|

He's like a bird in a tree, cause this feeling is so free
He's flying in the sky and he never fall down...
G:--------------|-------------------|
D:--------------|-------------------|
A:--------6--3--|--------1-3-4------|
E:--1--4--------|--1--4--------4----|



Bridge
I never fall down...
G:--------------|-------------------|
D:--------------|-------------------|
A:--------4--3--|--------1-3-4------|
E:--1--4--------|--1--4--------4----|
I never fall down...
G:--------------|-------------------|
D:--------------|-------------------|
A:--------6--3--|--------1-3-4------|
E:--1--4--------|--1--4--------4----|



Bass solo  X3
G:--------------|-------------------|
D:--------------|-------------------|
A:--------4--3--|--------1-3-4------|
E:--1--4--------|--1--4--------4----|

G:--------------|-------------------|
D:--------------|-------------------|
A:--------6--3--|--------1-3-4------|
E:--1--4--------|--1--4--------4----|
And...
G:--------------|-------------------|
D:--------------|-------------------|
A:--------4--3--|--------1-3-4------|
E:--1--4--------|--1--4--------4----|

G:--------------|-------------------|
D:--------------|-------------------|
A:--------6--3--|------------6--3---|
E:--1--4--------|-------------------|


Lalalalalalala………..oooooooooohohohoho


Verse 6
- On t'parle de ce que l'on voit, nous ne somme pas dans la musik pour dire n'importe quoi
G:--------------|-------------------|
D:--------------|-------------------|
A:--------4--3--|--------1-3-4------|
E:--1--4--------|--1--4--------4----|
Chaque freestyle est un combat, et souviens toi dirigé contre l'état
G:--------------|-------------------|
D:--------------|-------------------|
A:--------6--3--|--------1-3-4------|
E:--1--4--------|--1--4--------4----|

- Car lorsque t'écoute toutes les radio stations
surtout du business mais plus de vibrations
G:--------------|-------------------|
D:--------------|-------------------|
A:--------4--3--|--------1-3-4------|
E:--1--4--------|--1--4--------4----|

Ecoute cette version et dis moi comment ça sonne
On arrive dans le biz et on les empoisonne.
G:--------------|-------------------|
D:--------------|-------------------|
A:--------6--3--|--------1-3-4------|
E:--1--4--------|--1--4--------4----|



Refrain X3
My free style, flying over this world
Kill your bad minds ,but he's never back down
G:--------------|-------------------|
D:--------------|-------------------|
A:--------4--3--|--------1-3-4------|
E:--1--4--------|--1--4--------4----|
He's like a bird in a tree, cause this feeling is so free
He's flying in the sky and he never fall down...
G:--------------|-------------------|
D:--------------|-------------------|
A:--------6--3--|--------1-3-4------|
E:--1--4--------|--1--4--------4----|

Bass soft ending
comments
We did not receive enough feedback on this tab! Please rate:
print report bad tab
1 2 3 4 5
I want to post or [tab]
guest
You may want to rate the tab now too:
select rating
Please do not post tabs as comments. Select "correction" instead!