Oops, an error
Loading. Please wait.

Vampires Tab

3,624 views 6 this week
1 commentread comment
1 2 3 4 5
excellent!
x 3
Autoscroll
+/-
esc
set tempo
stop
Contributor
Difficulty
intermediate
WARNING: You are trying to view
                                    content from Ultimate-Guitar.com
                                    in an unauthorized application,
                                    which is prohibited.

                                    Please use an official Ultimate
                                    Guitar Tabs application for iPhone,
                                    iPad or Android to access legitimate
                                    chords, guitar, bass, and drum tabs
                                    from Ultimate-Guitar.com database.

                                    Type "ultimate guitar tabs" in Apple
                                    App Store's or Android Market's
                                    search to find the application.
www.dukestheband.com

Vampires by Dukes
Guitar Tab

4/4 time

Main riff
     F              D9        F               D9

||---0--------------0-0-------0-|---0----------0-0--------------|
||---1--------------5-5-------1-|---1----------5-5--------------|
||---2--------------5-5-------2-|---2----------5-5--------------|
||---3--------------4-4-------3-|---3----------4-4--------------|
||---3--------------5-5-------3-|---3----------5-5--------------|
||------------------------------|-------------------------------|

     Cmaj7          F         Cmaj7            F

|----0--------------0-0-------0-|---0----------0-0-------------||
|----5--------------1-1-------5-|---5----------1-1-------------||
|----4--------------2-2-------4-|---4----------2-2-------------||
|----5--------------3-3-------5-|---5----------3-2-------------||
|----3--------------3-3-------3-|---3----------3-3-------------||
|-------------------------------|------------------------------||


First half of verse with vocals
     F                              C

||---0--------------------------|---0--------------------------||
||---1--------------------------|---1--------------------------||
||---2--------------------------|---0--------------------------||
||---3--------------------------|---2--------------------------||
||---3--------------------------|---3--------------------------||
||------------------------------|------------------------------||
    I heard you never go to sleep

Last riff before chorus
     F              D9        F             D9          Bb (hold)

|----0--------------0-0-------0-|---0-------0-=0---------------||
|----1--------------5-5-------1-|---1-------5-=5--------3------||
|----2--------------5-5-------2-|---2-------5--5--------3------||
|----3--------------4-4-------3-|---3-------4--4--------3------||
|----3--------------5-5-------3-|---3-------5--5--------1------||
|-------------------------------|------------------------------||
                  you could take a chance on me then again you could be wrong

Guitar line before chorus

|-------------|-15-----13----12-----10\8------|
|---------/15-|-----13----10----10------------|
|-------------|-------------------------------|
|-------------|-------------------------------|
|-------------|-------------------------------|
|-------------|-------------------------------|


Chorus

     C          Csus4 C              G     Gsus4   G

|----8-----------8--|-8----------|---3-------3--|--3------------|
|----8-----------8--|-8----------|---3-------3--|--3------------|
|----9-----------10-|-9----------|---4-------5--|--4------------|
|----10----------10-|-10---------|---5-------5--|--5------------|
|----10-------------|-10---------|---5----------|--5------------|
|----8--------------|-8----------|---3----------|---------------|
    come on all you vampires

     Bb          F

|----6-----------1--|--1----------||
|----6-----------1--|--1----------||
|----7-----------2--|--2----------||
|----8-----------3--|--3----------||
|----8-----------3--|--3----------||
|----6-----------1--|--1----------||

Verse 2 Same as verse 1

Chorus (last chord before the bridge is Am)


Bridge
     Eb/F                           C                (Bb last time)
									Repeat x4
||------------------------------|------------------------------||
||----8-------------------------|---5--------------------------||
||----8-------------------------|---5---------------------3----||
||----8-------------------------|---5---------------------3----||
||----8-------------------------|---3---------------------1----||
||------------------------------|------------------------------||


Guitar Solo

   ^        ^    	 ^		 ~~~~~~~~~~~~~~~~
|----------------|---------------|----------------|----------------|
|-13--------13---|-13---8/10-----|----------------|----------------|
|----------------|-----------7/9-|----------------|9b109b109b109b10|
|----------------|---------------|----------------|----------------|
|----------------|---------------|----------------|----------------|
|----------------|---------------|----------------|----------------|
|----------------|---------------|----------------|----------------|


  ^		  ^			    ~~~~~~~		          ~~~~~~~~~
|----------------|---------------|----------------|----------------||
|-13-----5---/15-|------8/10-----|----------------|----------------||
|----------------|-----------7\5-|-----------5--7-|-7pb7—-5--------||
|----------------|---------------|--------/7------|----------------||
|----------------|---------------|----------------|----------------||
|----------------|---------------|----------------|----------------||
|----------------|---------------|----------------|----------------||

Chorus

Tablature Legend
----------------
 ~   - Sustain
 b   - bend
 pb  - pre-bend
 /   - slide up
 \   - Slide down


Lyrics and Chords


F				          C
I heard you never go to sleep the nights improbably long
F				                           C
The streets are teeming with the dead and we rarely get along 


F            D9       F       D9    Cmaj7     F        Cmaj7      F
And if youre walking home tonight take another road home 

F               D9       F       D9        Bb
Cause you could take a chance on me 
then again you could be wrong


C
Come on all you vampires 
With your blood sucking ways 

            G   		      	     Bb
Come on and turn me out 
ooooh 
When the lights go out 

F
How you gonna find your way

And Ive been talking in my sleep and what I said I got it wrong
And every word that I will sing is in someone elses song 


Im moving out I’m moving soon Im gonna cast my doubts down there 

I left my wallet on the shelf just to show you I don't care 



Come on all you vampires with your blood sucking ways come on and turn me out 

When the lights go out 
how you gonna find your way 


Come on all you vampires 
with your blood sucking ways come on and turn me
			     Am
out 
ooooh 
When the lights go out how you gonna find your way 



Eb/F						      C
Well maybe we were doomed from the beginning 

	Eb/F								               C
And I guess I should have warned you lady dont go to your end
 Eb/F 
							                 C
Cause I've been hearing lately the stars not aligned at our meeting
  Eb/F 							         Bb
I really shoulda warned you that I would be your end 



Come on all you vampires with your blood sucking ways come on and turn me out 

When the lights go out 
how you gonna find your way 


Come on all you vampires 
with your blood sucking ways come on and turn me out 

When the lights go out how you gonna find your way





comments
We did not receive enough feedback on this tab! Please rate:
print report bad tab
1 2 3 4 5
1 comment total.
0 reply
i<3green day wrote on August 9 2010, 01:26 am

aaaaaaahhhh!!!! ive been looking for a tab for this for aaaages thaaaaanks!!(:

I want to post or [tab]
guest
You may want to rate the tab now too:
select rating
Please do not post tabs as comments. Select "correction" instead!