Oops, an error
Loading. Please wait.

Home Tab

655 views 3 this week
no commentswrite comment
1 2 3 4 5
please rate
Autoscroll
+/-
esc
set tempo
stop
Contributor
WARNING: You are trying to view
                                    content from Ultimate-Guitar.com
                                    in an unauthorized application,
                                    which is prohibited.

                                    Please use an official Ultimate
                                    Guitar Tabs application for iPhone,
                                    iPad or Android to access legitimate
                                    chords, guitar, bass, and drum tabs
                                    from Ultimate-Guitar.com database.

                                    Type "ultimate guitar tabs" in Apple
                                    App Store's or Android Market's
                                    search to find the application.
-----------------------------------------------------------------
Home - Duncan Sheik
-----------------------------------------------------------------
Tabbed by: Zachary Franco
Email: zacharyfranco@gmail.com

Tuning: Standard tuning with the capo on the 3rd fret


   Em(add9)  (Gmaj7)  Csus2#11    C(add9)  G(no3rd)   G(add9)/B   Em11
e |----0----|----x----|----x----|----3----|----3----|----3----|----3----||
B |----3----|----3----|----3----|----3----|----3----|----3----|----3----||
G |----0----|----0----|----0----|----0----|----0----|----2----|----2----||
D |----4----|----4----|----4----|----2----|----0----|----0----|----0----||
A |----2----|----x----|----3----|----3----|----x----|----2----|----2----||
E |----0----|----3----|----x----|----x----|----3----|----x----|----0----||

t = thumb
i = index finger
m = middle finger
r = ring finger

Intro/Verse x4
Chorus x4
Verse x4
Chorus x4
Outro (Continue to play the chorus progression as the lyrics continue with "it
feels like I'm home.")

Intro/Verse:

       Em(add9)
e|--0---------------0-----------------------0----------------------|
B|---3-----------------3-------3---------------3-------3-----------|
G|----0---------------------------0-----------------------0--------|
D|-----4----------4--4-------4--4---------4--4-------4--4----------|
A|------2-----------------0h2---------------------0h2--------------|
E|-------0------0----------------------0---------------------------|
                t t m t i t t m t i    t t m t i  t t m t i
             Gmaj7                                  Csus2#11
e|-----------------------------------------------------------------|
B|--------3----------3------------3--------------------------------|
G|-----------0----------0------------0-----------------------------|
D|------4--4-------4--4---------4--4-------4--4--------------------|
A|-----------------------------3----------3--2--0h2----------------|
E|-----3----------3------------------------------------------------|
       t t m t i  t t m t i   t t m t i   t i t i


Chorus: You should be able to find the strum pattern for these chords
C(add9)      G(no3rd)      (Gadd9)/B          Em11

Lyrics:
Don't get me wrong
I'm feeling okay
But when I'm without you
It's just not the same

Don't misunderstand me
I'm feeling alright
But when I'm without you
The day turns into night
Into night

I dream of a future
A possible place
We lie together
Face to face

And I'm looking forward
I will not deny
I dream of a future
Made for you and I
You and I

I'm with you
No longer alone
When I'm with you
Feels like I'm home

And you are with me
No longer alone
How can it be?
Feels like I'm home

I look through the darkness
Into the sky
The moon up above me
Brilliantly shines

I've never been happier
Watching it glow
Here by myself
But I know I'm not alone
I'm not alone

I look through the brightness
Into the sky
The sun up above me
Spitting out fire

Call me a child
Call me naive
The world is much brighter
Than it ever used to be
Used to be

I'm with you
No longer alone
When I'm with you
Feels like I'm home

And you are with me
No longer alone
How can it be?
Feels like I'm home

Feels like I'm home
Feels like I'm home
Feels like I'm home
Feels like I'm home

| /  slide up
| \  slide down
| h  hammer-on
| p  pull-off
| ~  vibrato
| +  harmonic
| x  Mute note
comments
We did not receive enough feedback on this tab! Please rate:
print report bad tab
1 2 3 4 5
I want to post or [tab]
guest
You may want to rate the tab now too:
select rating
Please do not post tabs as comments. Select "correction" instead!