Oops, an error
Loading. Please wait.

Wishful Thinking Tab

ver2
ver2

Whole song

More versions @911Tabs.com
5,689 views 9 this week
1 commentread comment
1 2 3 4 5
excellent!
x 5
Autoscroll
+/-
esc
set tempo
stop
Contributor
NEW! There's an official Ultimate Guitar app which is ideal
for learning songs when you're away from computer. Get the app
WARNING: You are trying to view
                                    content from Ultimate-Guitar.com
                                    in an unauthorized application,
                                    which is prohibited.

                                    Please use an official Ultimate
                                    Guitar Tabs application for iPhone,
                                    iPad or Android to access legitimate
                                    chords, guitar, bass, and drum tabs
                                    from Ultimate-Guitar.com database.

                                    Type "ultimate guitar tabs" in Apple
                                    App Store's or Android Market's
                                    search to find the application.
#----------------------------------PLEASE NOTE---------------------------------#
#This file is the author's own work and represents their interpretation of the #
#song. You may only use this file for private study, scholarship, or research. #
#------------------------------------------------------------------------------#

Song: WISHFUL THINKING
Artist: Duncan Sheik
Chords by: Louie A. Ebojo
emaail: ebbskyz@yahoo.com


Capo 2nd Fret. All chords relative to capo

Chords:	EADGBe

D		x54030
D6		xx0202
A7sus4	x02033
A6(9)		x04420
A9/C#		x4x200
A9		x0x200
Em		022000
Em7		xx2403
Em7/B		x22033
C9		x32033
G		320033
GM7		3x0032
GM7/C		x30032
GM7/B		x20032
G6		3x0030
GM7(9)	3x0202
Bm		x24430
Bm7		x24030


Intro:

e--12-------9------10-------7------9------5------7------9--10-------|
B-----0-------0-------0-------0------0------0------0----------------|
G--12---12--9---9--10---10--7---7--9---9--6---6--7---7--9--10-------|
D-------------------------------------------------------------------|
A-------------------------------------------------------------------|
E-------------------------------------------------------------------|

e--12-------9------10-------7------9---10--9--7---------------------|
B-----0-------0-------0-------0-------------------------------------|
G--12---12--9---9--10---10--7---7--9---10--9--7---------------------|
D-------------------------------------------------------------------|
A-------------------------------------------------------------------|
E-------------------------------------------------------------------|

	
  D            A7sus4 C9
Listen to the waves,
            Em7/B       G
Everything communicates
 D           A7sus4
Will it ever be
   C9               GM7/C
Anything more than wishful thinking?


Em      Bm
Oh no, there you go
 A6(9)            G6
Looked away and missed the show
Em         Bm
How much wasted time
A6(9)      GM7
Will you survive?

 D                  A7sus4 C9
Feel the blades of grass
                  Em7/B G
How it brings you back
D              A7sus4
It will always be
 C9              GM7/C
Only as green as you can see.


Em      Bm
Oh no, there you go
 A6(9)            G6
Looked away and missed the show
Em         Bm
How much wasted time
A6(9)      GM7
Will you survive?

Em        Bm
Oh yeah, fooled again,
  A6(9)                 G6
I don't know how and I don't know when
Em        Bm 
Not much else to blame
     A6(9)     GM7
But wishful thinking.


Brdige:

  Em7                                 D6
e-----------3-----------------3-----------------2-----------------2---------|
B--------0-----0-----------0-----0-----------0-----0-----------0-----0------|
G-----4-----------4-----4-----------4-----2-----------2-----2-----------2---|
D--2-----------------2-----------------0-----------------0------------------|
A---------------------------------------------------------------------------|
E---------------------------------------------------------------------------|
                             Little Breakdowns                      


   A9/C#                               A9
e-----------0-----------------0-----------------0-----------------0---------|
B--------0-----0-----------0-----0-----------0-----0-----------0-----0------|
G-----2-----------2-----2-----------2-----2-----------2-----2-----------2---|
D---------------------------------------------------------------------------|
A--4-----------------4-----------------0-----------------0------------------|
E---------------------------------------------------------------------------|
     Coastal  Towns


  GM7/B                                GM7
e-----------2-----------------2------------------2------------------2-------|
B--------3-----3-----------3-----3------------3-----3------------3-----3----|
G-----0-----------0-----0-----------0------0-----------0------0----------0--|
D---------------------------------------------------------------------------|
A--2-----------------2------------------------------------------------------|
E---------------------------------------3------------------3----------------|
  They come                            suddenly


  GM7/B                                GM7/F#
e-----------2-----------------2------------------2------------------2-------|
B--------3-----3-----------3-----3------------3-----3------------3-----3----|
G-----0-----------0-----0-----------0------0-----------0------0----------0--|
D---------------------------------------------------------------------------|
A--2-----------------2------------------------------------------------------|
E---------------------------------------2------------------2----------------|
  Crashing over you                                                  They

   GM7                                     A6(9)
e-----------2-----------------2-------------0------|
B--------3-----3-----------3-----3----------2------|
G-----0-----------0-----0-----------0-------4------| pause
D-------------------------------------------4------|
A-------------------------------------------0------|
E---3----------------3-----------------------------|
   Come easily…


Em7      D6        
Little breakdowns
  A9/C#          A9
In coastal towns.
GM7/B      GM7
They come suddenly
 GM7/B            GM7/F#
Crashing over you.
     GM7          A6(9) pause
They come easily.


      D                   A7sus4 C9
I'm falling through the skies
             GM7/C
And frozen places.


Em      Bm
Oh no, there you go
 A6(9)            G6
Looked away and missed the show
Em         Bm
How much wasted time
A6(9)      GM7
Will you survive?

Em        Bm
Oh yeah, fooled again,
  A6(9)                 G6
I don't know how and I don't know when
Em        Bm 
Not much else to blame
     A6(9)     GM7    Em
But wishful thinking.


Em    Bm       A6(9)
And I try to realize
        GM7                      Em
That I needn't look any further
                   Bm
The whole of the universe
   A6(9)     GM7  Em
Is plain to see
      Bm          A6(9)
And I try not to rely
            GM7                Em
On another world or the future
                   Bm         A6(9) GM7-Em-Bm
The whole of the universe is a mystery.
               A6(9) GM7-Em-Bm
And it gets me over
                 A6(9) GM7-Em-Bm
Yeah, it gets me over
               A6(9) GM7-Em-Bm
And it gets me over
                 A6(9) GM7 pause
Yeah, it gets me over you.


Outro:

    A6(9)     Bm7
e---0--0--0----0----------|
B---2--2--2----3----------|
G---4--4--4----0----------| 
D---4--4--4----4----------|
A---0--0--0----2----------|
E-------------------------|

    A6(9)    GM7(9)
e---0--0--0----2----------|
B---2--2--2----0----------|
G---4--4--4----2----------| 
D---4--4--4---------------|
A---0--0--0----x----------|
E--------------3----------|


	A6(9)-Bm7 pause; A6(9)-GM7(9) pause; (2x)
comments
print report bad tab
1 comment total.
0 reply
makabayanj wrote on January 29 2009, 02:07 am

Hey, I've waited for so long for this tab man!
Where have you been? Anyway, it's worth the wait!
Great job dude! Perfect!

I want to post or [tab]
guest
You may want to rate the tab now too:
select rating
Please do not post tabs as comments. Select "correction" instead!