Oops, an error
Loading. Please wait.

Please Please Baby Tab

7,197 views 12 this week
1 commentread comment
1 2 3 4 5
worth learning
x 1
Autoscroll
+/-
esc
set tempo
stop
Contributor
WARNING: You are trying to view
                                    content from Ultimate-Guitar.com
                                    in an unauthorized application,
                                    which is prohibited.

                                    Please use an official Ultimate
                                    Guitar Tabs application for iPhone,
                                    iPad or Android to access legitimate
                                    chords, guitar, bass, and drum tabs
                                    from Ultimate-Guitar.com database.

                                    Type "ultimate guitar tabs" in Apple
                                    App Store's or Android Market's
                                    search to find the application.
------------------------------------------------------------------

      DWIGHT YOAKAM - PLEASE, PLEASE, BABY. From HILLBILLY DE LUXE
                      album. Released 1987.

------------------------------------------------------------------

      Tabbed by:PJVillanueva






Chorus:
Please, please baby, baby come back home
It's so cold and dark here all alone
If you come back I promise I'll be good
If you come home, baby, I'll act like I should

I laughed when you packed your bags and told me goodbye
I hollered, I don't need you, ah but honey, that's a lie

Chorus:
Please, please baby, baby come back home
'Cause it's so cold and dark here all alone
If you come back I promise I'll be good
If you come home, baby, I'll act like I should

If you don't come home dear, I know I'll go insane
Sweetheart, I plead guilty, darlin' I'll take all the blame

Chorus:
Please, please baby, baby come back home
'Cause it's so cold and dark here all alone
If you come back I promise I'll be good
If you come home, baby, I'll act like I should

Chorus:
Please, please baby, baby come back home
'Cause it's so cold and dark here all alone
If you come back I promise I'll be good
If you come home, baby, I'll act like I should
If you come home, baby, I'll act like I should
 
 

 

    12/8

                                       
 
e|------ ------ 3---2- 0-----|------ ------ ------ ------|
B|--------------3---2--0---2-|3-2-0--2---0--2---32-0-----|
G|-------------------------2-|3-2-0--2---0--2---32-0---2-|
D|---------------------------|-------------------------2-|
A|---------------------------|---------------------------|
E|---------------------------|---------------------------|



e|------ ------ ------ ------|------ ------ ------ ------|
B|2---0----------------------|---------------------------|
G|2---0------0---------------|---------------------------|
D|-------2------2P1P0------0-|-------------------------2-|
A|---------------------2-----|2P1P0------0------2--4-----|
E|---------------------------|-------0-----/4------------|


  E
e|------ ------ ------ ------|------ ------ ------ ------|
B|---------------------------|---------------------------|
G|-------------------------2-|---------------------------|
D|-------------------------2-|-------------------------2-|
A|--------------2---2--4-----|--------------2---2--4-----|
E|0------3-H-4---------------|0------3-H-4---------------|
                                            Please, 
                                                please baby, 
  A
e|------ ------ ------ ------|------ ------ ------ ------|
B|---------------------------|---------------------------|
G|---------------------------|---------------------------|
D|--------------2---2--4---2-|--------------2------4---2-|
A|0---0--3-H-4---------------|0------3-H-4---------------|
E|---------------------------|---------------------------|
                           baby          come   back   home

  E
e|------ ------ ------ ------|------ ------ ------ ------|
B|---------------------------|---------------------------|
G|---------------------------|---------------------------|
D|-------------------------2-|-------------------------2-|
A|--------------2---2--4-----|--------------2---2--4-----|
E|0---0--3-H-4---------------|0---0--3-H-4---------------|
                                           It's so     cold 

  A
e|------ ------ ------ ------|------ ------ ------ ------|
B|---------------------------|---------------------------|
G|---------------------------|---------------------------|
D|--------------2------4-----|--------------2---2--4-----|
A|0------3-H-4---------------|0------3-H-4---------------|
E|---------------------------|---------------------------|
                       and dark   here   all    alone

  E
e|------ ------ ------ ------|------ ------ ------ ------|
B|---------------------------|---------------------------|
G|---------------------------|---------------------------|
D|-------------------------2-|-------------------------2-|
A|--------------2------4-----|--------------2------4-----|
E|0---0--3-H-4---------------|0---0--3-H-4---------------|
                                         If you come   back 

  A
e|------ ------ ------ ------|------ ------ ------ ------|
B|---------------------------|---------------------------|
G|---------------------------|---------------------------|
D|--------------2------4-----|--------------2------4---2-|
A|0------3-H-4---------------|0------3-H-4---------------|
E|---------------------------|---------------------------|
                       I   promise       I'll   be     good

  E
e|------ ------ ------ ------|------ ------ ------ ------|
B|---------------------------|---------------------------|
G|---------------------------|---------------------------|
D|-------------------------2-|---------------------------|
A|--------------2---2--4-----|--------------2---2--4-----|
E|0------3-H-4---------------|0---0--3-H-4---------------|
                                         If you come   home,

  B
e|------ ------ ------ ------|------ ------ ------ ------|
B|---------------------------|---------------------------|
G|---------------------------|---------------------------|
D|---------------------------|---------------------------|
A|---------------------------|---------------------------|
E/7---7--7-----/7---7--7-----/7---7--6------5------3B4-0-|
             baby,         I'll   act       like I     should                                        

  E
e|------ ------ ------ ------|------ ------ ------ ------|
B|---------------------------|---------------------------|
G|---------------------------|---------------------------|
D|-----------2------0--------|-----------2------0--------|
A|---------------------------|---------------------------|
E|----0--3B4-----------3B4-0-|----0--3B4-----------3B4---|   
                                                I      laughed

  A
e|------ ------ ------ ------|------ ------ ------ ------|
B|---------------------------|---------------------------|
G|-------------------------2-|---------------------------|
D|--------------2---2--4-----|--------------2---2--4---2-|
A|0---0--3-H-4---------------|0---0--3-H-4---------------|
E|---------------------------|---------------------------|
                when   you packed your   bags      and told                         
  E
e|------ ------ ------ ------|------ ------ ------ ------|
B|---------------------------|---------------------------|
G|---------------------------|---------------------------|
D|-------------------------2-|-------------------------2-|
A|--------------2---2--4-----|--------------2---2--4-----|
E|0------3-H-4---------------|0------3-H-4---------------|
                me     goodbye                     I  hollered,                                    

  A
e|------ ------ ------ ------|------ ------ ------ ------|
B|---------------------------|---------------------------|
G|-------------------------2-|---------------------------|
D|--------------2------4-----|--------------2---2--4-----|
A|0------3-H-4---------------|0------3-H-4---------------|
E|---------------------------|---------------------------|
             I      don't  need you,     oh        but honey,                     

  E                           B
e|------ ------ ------ ------|------ ------ ------ ------|
B|---------------------------|---------------------------|
G|---------------------------|---------------------------|
D|---------------------------|---------------------------|
A|--------------2---2--4-----|----9-------------9--------|
E|0------3-H-4---------------|7------7------7------7-----|
             that's    a   lie                             


e|------ ------ ------ ------|
B|---------------------------|
G|---------------------------|
D|---------------------------|
A|----9------9------9--9---9-|
E|7------7------7---7--7---7-|          
                Please, 
                    please baby, 
  A
e|------ ------ ------ ------|------ ------ ------ ------|
B|---------------------------|---------------------------|
G|-------------------------2-|-------------------------2-|
D|--------------2---2--4-----|--------------2---2--4-----|
A|0------3-H-4---------------|0---0--3-H-4---------------|
E|---------------------------|---------------------------|
                           baby          come   back   home                     

  E
e|------ ------ ------ ------|------ ------ ------ ------|
B|---------------------------|---------------------------|
G|---------------------------|---------------------------|
D|-------------------------2-|-------------------------2-|
A|--------------2---2--4-----|--------------2---2--4-----|
E|0---0--3-H-4---------------|0---0--3-H-4---------------|
                                           It's so     cold
e|4----- ----2- ------ ------|4----- ----2- ------ ------|
B|5----------3---------------|5----------3---------------|
G|4----------2---------------|4----------2---------------|
D|---------------------------|---------------------------|
A|---------------------------|---------------------------|
E|---------------------------|---------------------------|


  A
e|------ ------ ------ ------|------ ------ ------ ------|
B|---------------------------|---------------------------|
G|---------------------------|---------------------------|
D|--------------2---2--4---2-|--------------2---2--4-----|
A|0---0--3-H-4---------------|0---0--3-H-4---------------|
E|---------------------------|---------------------------|
                       and dark   here   all    alone

  E
e|------ ------ ------ ------|------ ------ ------ ------|
B|---------------------------|---------------------------|
G|---------------------------|---------------------------|
D|-------------------------2-|---------------------------|
A|--------------2---2--4-----|--------------2---2--4-----|
E|0---0--3-H-4---------------|0------3-H-4---------------|
                                         If you come   back 
e|4----- ----2- ------ ------|4----- ----2- ------ ------|
B|5----------3---------------|5----------3---------------|
G|4----------2---------------|4----------2---------------|
D|---------------------------|---------------------------|
A|---------------------------|---------------------------|
E|---------------------------|---------------------------|


  A
e|------ ------ ------ ------|------ ------ ------ ------|
B|---------------------------|---------------------------|
G|-------------------------2-|-------------------------2-|
D|--------------2---2--4-----|--------------2------4-----|
A|0---0--3-H-4---------------|0---0--3-H-4---------------|
E|---------------------------|---------------------------|
                       I   promise       I'll   be     good

  E
e|------ ------ ------ ------|------ ------ ------ ------|
B|---------------------------|---------------------------|
G|---------------------------|---------------------------|
D|-------------------------2-|---------------------------|
A|--------------2---2--4-----|--------------2---2--4-----|
E|0------3-H-4---------------|0---0--3-H-4---------------|
                                         If you come   home,
e|4----- ----2- ------ ------|4----- ----2- ------ ------|
B|5----------3---------------|5----------3---------------|
G|4----------2---------------|4----------2---------------|
D|---------------------------|---------------------------|
A|---------------------------|---------------------------|
E|---------------------------|---------------------------|


  B
e|------ ------ ------ ------|------ ------ ------ ------|
B|---------------------------|---------------------------|
G|---------------------------|---------------------------|
D|---------------------------|---------------------------|
A|---------------------------|---------------------------|
E/7---7--7-----/7---7--7-----/7---7--6------5---5--3B4-0-|
             baby,         I'll   act       like I     should                                        

  E
e|------ ------ ------ ------|------ ------ ------ ------|
B|---------------------------|---------------------------|
G|---------------------------|---------------------------|
D|-----------2------0--------|-----------2------0--2-----|
A|---------------------------|---------------------------|
E|----0--3B4-----------3B4-0-|----0--3B4-----------------|


       1st Guitar Solo
  
e|------ ------ ------ ------|------ ------ ------ ------|
B|---------------------------|---------------------------|
G|---------------------------|---------------------------|
D|2------2------4B5----------|---4B5R4---2--0------0-----|
A|----4----------------------|------------------2--------|
E|---------------------------|-------------------------3B|


  
e|------ ------ ------ ------|------ ------ ------ ------|
B|---------------------------|---------------------------|
G|---------------------------|---------------------------|
D|-------2-------------------|----2----------------------|
A|------------------0--------|-------------------------4-|
E|4------------------------3B4---------------------------|


  
e|------ ------ ------ ------|------ ------ ------ ------|
B|---------------------------|---------------------------|
G|---------------------------|---------------------------|
D|2------2---4--5P4P2--0-----|2--------------------------|
A|----2--------------------4-|----4-/5---2--0------0-----|
E|---------------------------|-------------------------3B4


  
e|------ ------ ------ ------|------ ------ ------ ------|
B|---------------------------|---------------------------|
G|---------------------------|---------------------------|
D|-------2------2------0-----|-----------2---------------|
A|---------------------------|0------------------------0-|
E|-----------0------0------0-|----3----------------------|


  
e|------ ------ ------ ------|------ ------ ------ ------|
B|---------------------------|---------------------------|
G|---------------------------|---------------------------|
D|---------------------------|--------------------------02
A|-------0------0---0------0-|----0------0------0--------|
E|3B5------------------3B5---|-------3B5-----------------|



e|------ ------ ------ ------|------ ------ ------ ------|
B|---------------------------|---------------------------|
G|---------------------------|---------------------------|
D020202020---02020202020---02020202020---02020202020---1-|
A|---------------------------|---------------------------|
E|---------------------------|---------------------------|


  
e|------ ------ ------ ------|------ ------ ------ ----0-|
B|0------2---3-/4------0-----|2/3----2------0----------020
G|---------------------0-----|2/3----2------0---1--------|
D|-------2---3-/4---1--------|---------------------2-----|
A|---------------------------|---------------------------|
E|---------------------------|---------------------------|


  
e|------ ------ ------ ------|------ ------ ------ ------|
B2020202-----0---------------|0--------------------------|
G|-------2------0H1----2-----|-------2---0-H1------0-----|
D|------------------2--------|----2-------------2------2-|
A|---------------------------|---------------------------|
E|---------------------------|---------------------------|  


  A
e|------ ------ ------ ------|------ ------ ------ ------|
B|---------------------------|---------------------------|
G|-------------------------2-|---------------------------|
D|--------------2---2--4-----|--------------2---2--4---2-|
A|0---0--3-H-4---------------|0---0--3-H-4---------------|
E|---------------------------|---------------------------|
  If  you    don't  come   home   dear   you,   I      know

                                
  E
e|------ ------ ------ ------|------ ------ ------ ------|
B|---------------------------|---------------------------|
G|---------------------------|---------------------------|
D|-------------------------2-|-------------------------2-|
A|--------------2---2--4-----|--------------2---2--4-----|
E|0------3-H-4---------------|0------3-H-4---------------|
      I'll   go     insane                                                   

  A
e|------ ------ ------ ------|------ ------ ------ ------|
B|---------------------------|---------------------------|
G|-------------------------2-|---------------------------|
D|--------------2------4-----|--------------2---2--4-----|
A|0------3-H-4---------------|0------3-H-4---------------|
E|---------------------------|---------------------------|
 Sweetheart, I      plead  guilty,       darlin'       I'll 
           
  E                           B
e|------ ------ ------ ------|------ ------ ------ ------|
B|---------------------------|---------------------------|
G|---------------------------|---------------------------|
D|---------------------------|---------------------------|
A|--------------2---2--4-----|----9-------------9--------|
E|0------3-H-4---------------|7------7------7------7-----|
      take   all       the blame          


e|------ ------ ------ ------|
B|---------------------------|
G|---------------------------|
D|---------------------------|
A|----9------9------9--9---9-|
E|7------7------7---7--7---7-|          
                Please, 
                    please baby, 
  A
e|------ ------ ------ ------|------ ------ ------ ------|
B|---------------------------|---------------------------|
G|-------------------------2-|-------------------------2-|
D|--------------2---2--4-----|--------------2---2--4-----|
A|0---0--3-H-4---------------|0---0--3-H-4---------------|
E|---------------------------|---------------------------|
                           baby          come   back   home                     

  E
e|------ ------ ------ ------|------ ------ ------ ------|
B|---------------------------|---------------------------|
G|---------------------------|---------------------------|
D|-------------------------2-|-------------------------2-|
A|--------------2---2--4-----|--------------2---2--4-----|
E|0---0--3-H-4---------------|0---0--3-H-4---------------|
                                           It's so     cold
e|4----- ----2- ------ ------|4----- ----2- ------ ------|
B|5----------3---------------|5----------3---------------|
G|4----------2---------------|4----------2---------------|
D|---------------------------|---------------------------|
A|---------------------------|---------------------------|
E|---------------------------|---------------------------|


  A
e|------ ------ ------ ------|------ ------ ------ ------|
B|---------------------------|---------------------------|
G|-------------------------2-|-------------------------2-|
D|--------------2---2--4-----|--------------2---2--4-----|
A|0---0--3-H-4---------------|----0--3-H-4---------------|
E|---------------------------|---------------------------|
                       and dark   here   all    alone

  E
e|------ ------ ------ ------|------ ------ ------ ------|
B|---------------------------|---------------------------|
G|---------------------------|---------------------------|
D|-------------------------2-|---------------------------|
A|--------------2---2--4-----|--------------2---2--4-----|
E|0---0--3-H-4---------------|----0--3-H-4---------------|
                                         If you come   back 
e|4----- ----2- ------ ------|4----- ----2- ------ ------|
B|5----------3---------------|5----------3---------------|
G|4----------2---------------|4----------2---------------|
D|---------------------------|---------------------------|
A|---------------------------|---------------------------|
E|---------------------------|---------------------------|


  A
e|------ ------ ------ ------|------ ------ ------ ------|
B|---------------------------|---------------------------|
G|-------------------------2-|-------------------------2-|
D|--------------2---2--4-----|--------------2---2--4-----|
A|0---0--3-H-4---------------|0---0--3-H-4---------------|
E|---------------------------|---------------------------|
                       I   promise       I'll   be     good

  E
e|------ ------ ------ ------|------ ------ ------ ------|
B|---------------------------|---------------------------|
G|---------------------------|---------------------------|
D|-------------------------2-|---------------------------|
A|--------------2---2--4-----|--------------2---2--4-----|
E|0---0--3-H-4---------------|0---0--3-H-4---------------|
                                         If you come   home,
e|4----- ----2- ------ ------|4----- ----2- ------ ------|
B|5----------3---------------|5----------3---------------|
G|4----------2---------------|4----------2---------------|
D|---------------------------|---------------------------|
A|---------------------------|---------------------------|
E|---------------------------|---------------------------|


  B
e|------ ------ ------ ------|------ ------ ------ ------|
B|---------------------------|---------------------------|
G|---------------------------|---------------------------|
D|---------------------------|---------------------------|
A|---------------------------|---------------------------|
E/7---7--7-----/7---7--7-----/7---7--6------5---5--3B4-0-|
             baby,         I'll   act       like I     should                                        

  E
e|------ ------ ------ ------|------ ------ ------ ------|
B|---------------------------|---------------------------|
G|---------------------------|---------------------------|
D|-----------2------0--------|-----------2------0--------|
A|---------------------------|---------------------------|
E|----0--3B4-----------3B4-0-|----0--3B4-----------3B4---|   
  



       Fiddle Solo .......



       2nd Guitar Solo

 
e|2-B-3- 0----- 2-B-3- 0-----|------ ------ ------ ------|
B|2-B-3--0------2-B-3--0---2/3----2-P0------2------0---0-|
G|-------------------------2/3----2-P0------2------0---1-|
D|---------------------------|-----------2---------------|
A|---------------------------|---------------------------|
E|---------------------------|---------------------------|


  
e|----0- ---0-- ------ ------|0---3B4----3B4----0- 0-----|
B|----0-----0----------------|0---2B3----2B3----0--0-----|
G|---------------------------|0-----------------0--0-----|
D|2---0--2--0H2P0----------0-|---------------------------|
A|---------------------------|---------------------------|
E|---------------------------|---------------------------|


  
e|8B9--- 0---3B4------ 0---8B9------ 0---3B4----R- 3B4--/|
B|7B8----0---2B3-------0---7B8-------0---2B3----R--2B3--/|
G|---------------------------|---------------------------|
D|---------------------------|---------------------------|
A|---------------------------|---------------------------|
E|---------------------------|---------------------------|


  
e|----12 12---- 12---- 12--12|------ 12--12 ----0- ----0-|
B|----15-15-----14-----12--15|-------14--12-----0------/-|
G|---------------------------|------------------0--------|
D|---------------------------|---------------------------|
A|---------------------------|---------------------------|
E|---------------------------|---------------------------|


  
e|000000000000000000000000000000000000000000000000000000/|
B|5--------------------------|---------------------------|
G|---------------------------|---------------------------|
D|---------------------------|---------------------------|
A|---------------------------|---------------------------|
E|---------------------------|---------------------------|


  
e|------ ------ 0----- ------|------ ------ ------ ------|
B|8-B-10R8-B-9--0---3--------|------------------0--------|
G|---------------------3\2-0-|2------0-B-1---------------|
D|---------------------------|--------------2---0------0-H
A|---------------------------|---------------------------|
E|---------------------------|---------------------------|


  
e|------ ------ ------ ------|4----- ----6- 7----- ------|
B|0------2---3-/4---0--------|---------------------------|   
G|---------------------------4----0--5--6--7----0--------8    
D|1------2---3-/4---0--------|---------------------------|
A|---------------------------|---------------------------|
E|---------------------------|---------------------------| 



e|8----- ----9- 10---- ----11|12---- ----13 14---- ----16|
B|---------------------------|---------------------------|
G|----0-----9--10---0-----11-12---0-----13-14---0----16-18     
D|---------------------------|---------------------------|
A|---------------------------|---------------------------|
E|---------------------------|---------------------------|


  
e|17-\-- ------ ------ ------|
B|---------------------------|
G|---------------------------|
D|---------------------------|
A|---------------------------|
E|---------------------------|
                Please, 
                    please baby,
  A
e|------ ------ ------ ------|------ ------ ------ ------|
B|---------------------------|---------------------------|
G|-------------------------2-|-------------------------2-|
D|--------------2---2--4-----|--------------2---2--4-----|
A|0------3-H-4---------------|0---0--3-H-4---------------|
E|---------------------------|---------------------------|
                           baby          come   back   home                     

  E
e|------ ------ ------ ------|------ ------ ------ ------|
B|---------------------------|---------------------------|
G|---------------------------|---------------------------|
D|-------------------------2-|-------------------------2-|
A|--------------2---2--4-----|--------------2---2--4-----|
E|0---0--3-H-4---------------|0---0--3-H-4---------------|
                                           It's so     cold
e|4----- ----2- ------ ------|4----- ----2- ------ ------|
B|5----------3---------------|5----------3---------------|
G|4----------2---------------|4----------2---------------|
D|---------------------------|---------------------------|
A|---------------------------|---------------------------|
E|---------------------------|---------------------------|


  A
e|------ ------ ------ ------|------ ------ ------ ------|
B|---------------------------|---------------------------|
G|---------------------------|---------------------------|
D|--------------2---2--4---2-|--------------2---2--4-----|
A|0---0--3-H-4---------------|0---0--3-H-4---------------|
E|---------------------------|---------------------------|
                       and dark   here   all    alone

  E
e|------ ------ ------ ------|------ ------ ------ ------|
B|---------------------------|---------------------------|
G|---------------------------|---------------------------|
D|-------------------------2-|---------------------------|
A|--------------2---2--4-----|--------------2---2--4-----|
E|0---0--3-H-4---------------|0------3-H-4---------------|
                                         If you come   back 
e|4----- ----2- ------ ------|4----- ----2- ------ ------|
B|5----------3---------------|5----------3---------------|
G|4----------2---------------|4----------2---------------|
D|---------------------------|---------------------------|
A|---------------------------|---------------------------|
E|---------------------------|---------------------------|


  A
e|------ ------ ------ ------|------ ------ ------ ------|
B|---------------------------|---------------------------|
G|-------------------------2-|-------------------------2-|
D|--------------2---2--4-----|--------------2------4-----|
A|0---0--3-H-4---------------|0---0--3-H-4---------------|
E|---------------------------|---------------------------|
                       I   promise       I'll   be     good

  E
e|------ ------ ------ ------|------ ------ ------ ------|
B|---------------------------|---------------------------|
G|---------------------------|---------------------------|
D|-------------------------2-|---------------------------|
A|--------------2---2--4-----|--------------2---2--4-----|
E|0------3-H-4---------------|0---0--3-H-4---------------|
                                         If you come   home,
e|4----- ----2- ------ ------|4----- ----2- ------ ------|
B|5----------3---------------|5----------3---------------|
G|4----------2---------------|4----------2---------------|
D|---------------------------|---------------------------|
A|---------------------------|---------------------------|
E|---------------------------|---------------------------|


  B
e|------ ------ ------ ------|------ ------ ------ ------|
B|---------------------------|---------------------------|
G|---------------------------|---------------------------|
D|---------------------------|---------------------------|
A|---------------------------|---------------------------|
E/7---7--7-----/7---7--7-----/7---7--6------5---5--3B4-0-|
             baby,         I'll   act       like I     should                                        

  E
e|------ ------ ------ ------|------ ------ ------ ------|
B|---------------------------|---------------------------|
G|---------------------------|---------------------------|
D|-----------2------0--------|-----------2------0--------|
A|---------------------------|---------------------------|
E|----0--3B4-----------3B4-0-|----0--3B4-----------3B4---|   
                                         If you come   home,

  B
e|------ ------ ------ ------|------ ------ ------ ------|
B|---------------------------|---------------------------|
G|---------------------------|---------------------------|
D|---------------------------|---------------------------|
A|---------------------------|---------------------------|
E/7---7--7-----/7---7--7-----/7---7--6------5---5--3B4-0-|
             baby,         I'll   act       like I     should      

  
e|------ ----0- ------ ------|------ ------ ------ ------|
B|-----------0--2-H3P2P0-----|2/3-2--0------2---0------0-|
G|--------------2-H3P2P0-----|2/3-2--0------2---0------0-|
D|-------------------------2-|-----------2---------2-----|
A|---------------------------|---------------------------|
E|---------------------------|---------------------------|

                                            (.
                                            E5
e|------ ------ ------ ------|------ ------ 0----- ------|
B|---------------------------|--------------0------------|
G|---------------------------|--------------x------------|
D|2P1P0------0---------------|-----------2--2------------|
A|-------2------2P1P0------0-|----2--4------2------------|
E|---------------------0-----/4-------------0------------|



  




        B  Bend
        R  Release
        /  Slide up
        \  Slide down
        H  Hammer-on
        P  Pull-off
        ~  Vibrato
        +  Harmonic
        x  Mute note
        .  Play note like a dot in standard notation
        ^  Ties two notes together
        (. Pause
comments
We did not receive enough feedback on this tab! Please rate:
1 2 3 4 5
1 comment total.
0 reply
andrew.cushen.5 wrote on July 30 2013, 02:39 pm

Pretty good, missing some hammer-ons in the first 2 bars, like on the first double-stop, hammer it from the 2nd fret. Also should be noted, to really make the opening double-stops work, pick with bare fingers and snap the strings hard.

I want to post or [tab]
guest
You may want to rate the tab now too:
select rating
Please do not post tabs as comments. Select "correction" instead!