Oops, an error
Loading. Please wait.

Smoke Along The Track Tab

2,769 views 3 this week
1 commentread comment
1 2 3 4 5
not so good
x 1
Autoscroll
+/-
esc
set tempo
stop
Contributor
Hey! There's an official Ultimate Guitar app which is ideal
for learning songs when you're away from computer. Get the app
WARNING: You are trying to view
                                    content from Ultimate-Guitar.com
                                    in an unauthorized application,
                                    which is prohibited.

                                    Please use an official Ultimate
                                    Guitar Tabs application for iPhone,
                                    iPad or Android to access legitimate
                                    chords, guitar, bass, and drum tabs
                                    from Ultimate-Guitar.com database.

                                    Type "ultimate guitar tabs" in Apple
                                    App Store's or Android Market's
                                    search to find the application.
----------------------------------------------------------------------

    DWIGHT YOAKAM - SMOKE ALONG THE TRACK (Rose/Helms). From HILLBILLY
                    DE LUXE album. Released in 1987.

---------------------------------------------------------------------

    Tabbed by:PJVillanueva





One day the train was passing, I caught it comin' by
To look this old world over, under God's blue sky
My darlin' stood there weepin' as I was lookin' back
I kissed my baby cryin' in the smoke along the track

Chorus:
Bye, bye, so long, there's something down the track 
It's callin' me
Bye, bye, so long, I guess that's just the way
I'll always be
Now when I get this feelin'
Don't try to hold me back
I'll only leave you cryin' 
In the smoke along the track

I like to keep on goin', it helps me when I'm blue
I get the urge to travel, that's all I want to do
I know I just can't settle down because I like to roam
And when I hear that whistle blow I've gotta move along

Chorus:
Bye, bye, so long, there's something down the track 
It's callin' me
Bye, bye, so long, I guess that's just the way
I'll always be
Now when I get this feelin'
Don't try to hold me back
I'll only leave you cryin' 
In the smoke along the track

I know my baby loves me, I love my baby too
But she don't understand me when I'm feelin' blue
And when I hear that whistle blow I hurry home to pack
And kiss my baby cryin' in the smoke along the track

Chorus:
Bye, bye, so long, there's something down the track 
It's callin' me
Bye, bye, so long, I guess that's just the way
I'll always be
Now when I get this feelin'
Don't try to hold me back
I'll only leave you cryin' 
In the smoke along the track




                                     
  
e|------ ------ ------ ------|------ ------ ------ ------|
B|---------------------------|---------------------------|
G|---------------------------|---------------------------|
D|---------------------------|--------------0------1-----|
A|---------------------------|-------2-------------------|
E|---------------------------|---------------------------|


  E                           E7  E
e|------ ------ ------ ------|------ ---0-- ------ ------|
B|---------------------------|3-P-0----------------------|
G|-------0---------1---------|-----------------0-H-1-----|
D|2--------------------------|---------------------------|
A|---------------------------|---------------------------|
E|---------------------------|---------------------------|


  A7                          E
e|------ 3----- ------ ------|------ ------ ------ ------|
B|-----------------2---------|-----------------0---------|
G|2--------------------------|-------0-H-1---------0-----|
D|---------------------2-----|2--------------------------|
A|---------------------------|---------------------------|
E|---------------------------|---------------------------|


  
e|------ ------ ------ ------|------ ------ ------ ------|
B|-----------------0---------|----------0----------------|
G|0------0-H-1---------1-----|0-H-1----------------3-----|
D|---------------------------|-----------------5---------|
A|---------------------------|---------------------------|
E|---------------------------|---------------------------|


  B7
e|------ ------ ------ ------|------ ------ ------ ------|
B|---------------------------|---------------------------|
G|--------------2------------|---------------------------|
D|-------1-------------------|2--------------------------|
A|2---------------P0---------|---------------------2--/--|
E|---------------------3B4---|---------------------------|

e|------ ------ ------ ------|------ ------ 7----- ------|
B|---------------------------|--------------7-B-9--------|
G|---------------------------|---------------------------|
D|---------------------------|---------------------------|
A|---------------------------|---------------------------|
E|---------------------------|---------------------------|

                           VERSE 1
  E7                          E
e|------ ------ ------ ------|------ ------ ------ ------|
B|---------------------------|---------------------------|
G|7--------------------------|-----------------1---------|
D|6--------------------------|-------2-------------2-----|
A|7--------------------------|---------------------------|
E|---------------------------|---------------------------|
                       One    day    the train     was passing, 
e|7----- ------ ------ ------|------ ------ ------ ------|
B|7-B-9----------------------|---------------------------|
G|---------------------------|---------------------------|
D|---------------------------|---------------------------|
A|---------------------------|---------------------------|
E|---------------------------|---------------------------|


                              A
e|------ ------ ------ ------|------ ------ ------ ------|
B|---------------------------|-----------------2---------|
G|1----------------1---------|-------2-------------------|
D|2--------------------2-----|-------2-------------2-----|
A|---------------------------|---------------------------|
E|---------------------------|---------------------------|
                       I caught  it         comin'    by


  E
e|------ ------ ------ ------|------ ------ ------ ------|
B|---------------------------|---------------------------|
G|-------1---------1---------|-------1---------1---------|
D|-------2-------------2-----|-------2-------------2-----|
A|---------------------------|---------------------------|
E|---------------------------|---------------------------|
                          To  look this old    world 


e|------ ------ ------ ------|------ ------ ------ ------|
B|---------------------------|---------------------------|
G|-------1---------1---------|-------1---------1---------|
D|-------2-------------2-----|-------2-------------------|
A|---------------------------|---------------------1-----|
E|---------------------------|---------------------------|
  over,                       under     God's      blue 

  B7
e|------ ------ ------ ------|
B|---------------------------|
G|-------2---------2---------|
D|-------1---------1---------|
A|2--------------------------|
E|--------------2------------|
  sky                  My 

  E
e|------ ------ ------ ------|------ ------ ------ ------|
B|---------------------------|---------------------------|
G|-------1---------1---------|-------1---------1---------|
D|-------2-------------2-----|-------2-------------2-----|
A|---------------------------|---------------------------|
E|---------------------------|---------------------------|
  darlin'       stood there   weepin'              as I 

  A                           E
e|------ ------ ------ ------|------ ------ ------ ------|
B|-------2-------------------|---------------------------|
G|-------2---------2---------|-------1---------1---------|
D|---------------------------|-------2-------------2-----|
A|---------------------------|---------------------------|
E|---------------------------|---------------------------|
         was    lookin'   back                     I 

  
e|------ ------ ------ ------|------ ------ ------ ------|
B|---------------------------|---------------------------|
G|-------1---------1---------|-------1---------1---------|
D|-------2-------------2-----|-------2-------------2-----|
A|------------------------2--|---------------------------|
E|---------------------------|---------------------------|
  kissed my     baby      cryin'            in     the smoke 

  B7                          E
e|------ ------ ------ ------|------ ------ ------ ------|
B|---------------------------|---------------------------|
G|-------2-------------------|---------------------------|
D|-------1-------------------|2--------------------------|
A|2----------------0---------|-----------------2-----/---|
E|---------------------3B4---|---------------------------|
         along         the track
e|------ ------ ------ ------|------ ------ 10---- ------|
B|---------------------------|--------------11-B-12------|
G|---------------------------|---------------------------|
D|---------------------------|---------------------------|
A|---------------------------|---------------------------|
E|---------------------------|---------------------------|


  
e|0----- ------ ------ ------|
B|---------------------------|
G|---------------------------|
D|-------6-------------6-----|
A|7-------------7------------|
E|---------------------------|
                   Bye, 
e|10---- ------ ------ ------|
B|11-B-12--------------------|
G|---------------------------|
D|---------------------------|
A|---------------------------|
E|---------------------------|

                          CHORUS
                              E7  E
e|------ ------ ------ ------|------ ---0-- ------ ------|
B|-----------------0---------|3-P-0----------------------|
G|-------0-H-1---------------|-----------------0---1-----|
D|2--------------------------|---------------------------|
A|---------------------------|---------------------------|
E|---------------------------|---------------------------|
  bye,             so         long,            there's 

  A7
e|------ 3----- ------ ------|3----- ---3-- ------ ------|
B|-----------------2---------|---------------------------|
G|2--------------------2-----|-----------------2---------|
D|---------------------------|---------------------------|
A|---------------------------|---------------------------|
E|---------------------------|---------------------------|
  something down       the track     It's   callin'   

  E                           E7  E
e|------ ------ ------ ------|------ ---0-- ------ ------|
B|---------------------------|3-P-0----------------------|
G|-------0---------1---------|-----------------0---------|
D|-------2---------2---------|---------------------------|
A|---------------------------|---------------------------|
E|---------------------------|---------------------------|
  me                                           Bye, 

  
e|------ ------ ------ ------|------ ------ ------ ------|
B|---------------------------|---------------------------|
G|-------0-H-1-----1---------|-------0-H-1-----1-P-0-----|
D|-------2---------2---------|-------2---------2---------|
A|---------------------------|---------------------------|
E|---------------------------|---------------------------|
  bye,             so         long,            I 

                              E7  E
e|------ ------ ------ ------|------ ---0-- ------ ------|
B|---------------------------|3-P-0----------------------|
G|-------0-H-1-----1-P-0-----|-----------------0-H-1-----|
D|-------2---------2---------|-----------------2---------|
A|---------------------------|---------------------------|
E|---------------------------|---------------------------|
  guess  that's just   the way   I'll   always        be

  B7add9
e|------ ------ ------ ------|------ ------ ------ ------|
B|-----------------2---------|2----------------2---------|
G|-------2-------------------|----------2----------------|
D|-------1-------------------|-------1-------------------|
A|2--------------------------|---------------------------|
E|---------------------------|---------------------------|
                                               Now 

  E                           E7  E
e|------ ------ ------ ------|------ ---0-- ------ ------|
B|---------------------------|3-P-0----------------------|
G|-------0-H-1-----1-P-0-----|1----------------0---1-----|
D|-------2---------2---------|---------------------------|
A|---------------------------|---------------------------|
E|---------------------------|---------------------------|
  when I     get   this       feelin'          Don't 

  A7                          E
e|------ 3----- ------ ------|------ ------ ------ ------|
B|-------2---------2---------|-----------------0---------|
G|2--------------------------|-------0-H-1---------------|
D|---------------------------|-------2-------------------|
A|---------------------------|---------------------------|
E|---------------------------|---------------------------|
  try    to hold       me back                        I'll

                              E7  E
e|------ ------ ------ ------|------ ---0-- ------ ------|
B|-----------------0---------|3-P-0----------------------|
G|-------0-H-1-----1---------|1----------------1-P-0-----|
D|-------2-------------------|---------------------------|
A|---------------------------|---------------------1-----|
E|---------------------------|---------------------------|
  only       leave you        cryin'           in  the smoke 

  B                           E
e|------ ------ ------ ------|------ ------ ------ ------|
B|---------------------------|---------------------------|
G|---------------------------|---------------------------|
D|-------1-------------------|2--------------------------|
A|2---------------P0---------|---------------------2--/--|
E|---------------------3B4---|---------------------------|
         along         the track                      
e|------ ------ ------ ------|------ ------ 10---- ------|
B|---------------------------|--------------11-B-12------|
G|---------------------------|---------------------------|
D|---------------------------|---------------------------|
A|---------------------------|---------------------------|
E|---------------------------|---------------------------|         

                           VERSE 2
  E7                          E
e|------ ------ ------ ------|------ ------ ------ ------|
B|---------------------------|---------------------------|
G|7--------------------------|-------1-------------------|
D|6--------------------------|2------2---------2---------|
A|7--------------------------|---------------------------|
E|---------------------------|---------------------------|
                          I   like   to keep   on 
e|10---- ------ ------ ------|------ ------ ------ ------|
B|11-B-12--------------------|---------------------------|
G|---------------------------|---------------------------|
D|---------------------------|---------------------------|
A|---------------------------|---------------------------|
E|---------------------------|---------------------------|


                              A7
e|------ ------ ------ ------|------ 3----- ---3-- ------|
B|---------------------------|-------2---------2---------|
G|-------1---------1---1-----|---------------------------|
D|2------2-------------2-----|2--------------------------|
A|---------------------------|---------------------------|
E|---------------------------|---------------------------|
  goin',                  it  helps  me     when I'm  blue                     

  E
e|------ ------ ------ ------|------ ------ ------ ------|
B|---------------------------|---------------------------|
G|-------1---------1---------|-------1---------1---------|
D|-------2-------------2-----|-------2-------------2-----|
A|---------------------------|---------------------------|
E|---------------------------|---------------------------|
                          I   get    the urge      to travel, 


e|------ ------ ------ ------|------ ------ ------ ------|
B|---------------------------|-----------------0---------|
G|-------1---------1---------|-------1-------------------|
D|-------2-------------2-----|-------2-------------------|
A|---------------------------|---------------------------|
E|---------------------------|---------------------------|
                   that's     all    I      want   to do   


  B7
e|------ ------ ------ ------|
B|---------------------------|
G|-----------------2---------|
D|-------1-------------1-----|
A|2--------------------------|
E|--------------2------------|
                          I

  E
e|------ ------ ------ ------|------ ------ ------ ------|
B|---------------------------|---------------------------|
G|-------1---------1---------|-------1---------1---------|
D|-------2-------------2-----|-------2-------------2-----|
A|---------------------------|---------------------------|
E|---------------------------|---------------------------|
  know I        just   can't  settle    down       because 

  A                           E
e|------ ------ ------ ------|------ ------ ------ ------|
B|-------2-------------------|---------------------------|
G|-------2---------2---------|-------1---------1---------|
D|2--------------------------|-------2-------------2-----|
A|---------------------------|---------------------------|
E|---------------------------|---------------------------|
         I      like   to roam                        And
      

  
e|------ ------ ------ ------|------ ------ ------ ------|
B|---------------------------|---------------------------|
G|-------0-H-1-----1---------|-------1-------------3-----|
D|-------2-------------2-----|-------2---------5---------|
A|---------------------------|---------------------------|
E|---------------------------|---------------------------|
  when I    hear       that   whistle   blow       I've 


  B7                          E
e|------ ------ ------ ------|------ ------ ------ ------|
B|---------------------------|---------------------------|
G|--------------2------------|---------------------------|
D|-------1-------------------|2--------------------------|
A|2---------------P0---------|-----------------2-----/---|
E|---------------------3B4---|---------------------------|
  gotta     move       along       
e|------ ------ ------ ------|------ ------ 10---- ------|
B|---------------------------|--------------11-B-12------|
G|---------------------------|---------------------------|
D|---------------------------|---------------------------|
A|---------------------------|---------------------------|
E|---------------------------|---------------------------|


  E7
e|------ ------ ------ ------|
B|---------------------------|
G|7--------------------------|
D|6--------------------------|
A|7------7-------------6-----|
E|--------------7------------|
                   Bye, 
e|10---- ------ ------ ------|
B|11-B-12--------------------|
G|---------------------------|
D|---------------------------|
A|---------------------------|
E|---------------------------|

                          CHORUS
  E
e|------ ------ ------ ------|------ ---0-- ------ ------|
B|---------------------------|-------0-------------------|
G|-------0-H-1-----1-P-0-----|-----------------0-H-1-----|
D|2------2---------2---------|-----------------2---------|
A|---------------------------|---------------------------|
E|---------------------------|---------------------------|
  bye,             so         long,            there's 

  A7
e|------ 3----- ------ ------|3----- ---3-- ------ ------|
B|-------2---------2---------|2----------------2---------|
G|2--------------------2-----|-------2-------------2-----|
D|---------------------------|---------------------------|
A|---------------------------|---------------------------|
E|---------------------------|---------------------------|
  something down       the track     It's   callin'   

  E                           E7  E
e|------ ------ ------ ------|------ ---0-- ------ ------|
B|---------------------------|3-P-0----------------------|
G|-------0---------1---------|-----------------0-H-1-----|
D|-------2-------------------|-----------------2---------|
A|---------------------------|---------------------------|
E|---------------------------|---------------------------|
  me                                           Bye, 

  
e|------ ------ ------ ------|------ ------ ------ ------|
B|---------------------------|---------------------------|
G|-------0-H-1-----1---------|0------0-H-1-----1-P-0-----|
D|-------2---------2---------|2------2---------2---------|
A|---------------------------|---------------------------|
E|---------------------------|---------------------------|
  bye,             so         long,            I 

                              E7  E
e|------ ------ ------ ------|------ ------ ------ ------|
B|---------------------------|3-P-0-----0----------------|
G|-------0-H-1-----1-P-0-----|---------------------3-----|
D|-------2---------2---------|-----------------5---------|
A|---------------------------|---------------------------|
E|---------------------------|---------------------------|
  guess  that's just   the way   I'll   always        be

  B7
e|------ ------ ------ ------|------ ------ ------ ------|
B|---------------------------|---------------------------|
G|--------------2------------|2---------2----------------|
D|-------1---------1---------|-------1-------------------|
A|2--------------------------|----------------P0---------|
E|---------------------------|---------------------3B4---|
                                               Now 

  E
e|------ ------ ------ ------|------ ---0-- ------ ------|
B|---------------------------|---0-----------------------|
G|-------0-H-1-----1-P-0-----|-----------------0-H-1-----|
D|-------2---------2---------|---------------------------|
A|---------------------------|---------------------------|
E|---------------------------|---------------------------|
  when I     get   this       feelin'          Don't 

  A7                          E
e|------ 3----- ------ ------|------ ------ ------ ------|
B|-------2-------------------|---------------------------|
G|-------2---------2---------|-------0-H-1---------0-----|
D|---------------------------|-------2-------------------|
A|---------------------------|---------------------------|
E|---------------------------|---------------------------|
  try    to hold       me back                        I'll

                              E7  E
e|------ ------ ------ ------|------ ------ ------ ------|
B|-----------------0---------|3-P-0-----0----------------|
G|0------0-H-1---------------|1--------------------3-----|
D|2------2-------------------|-----------------5---------|
A|---------------------------|---------------------------|
E|---------------------------|---------------------------|
  only       leave you        cryin'           in  the smoke 

  B7                          E
e|------ ------ ------ ------|------ ------ ------ ------|
B|---------------------------|---------------------------|
G|--------------2------------|---------------------------|
D|-------1-------------------|2--------------------------|
A|2---------------P0---------|---------------------------|
E|---------------------3B4---|---------------------------|
         along         the track
e|------ ------ ------ ------|------ ------ 10---- ------|
B|---------------------------|--------------11-B-12------|
G|---------------------------|---------------------------|
D|---------------------------|---------------------------|
A|---------------------------|---------------------------|
E|---------------------------|---------------------------|



e|------ ------ ------ ------|------ ------ ------ ------|
B|---------------------------|---------------------------|
G|---------------------------|-------0---------1---------|
D|--------------0------1-----|2--------------------------|
A|-------2-------------------|---------------------------|
E|---------------------------|---------------------------|

e|10---- ------ ------ ------|------ ------ ------ ------|
B|11-B-12--------------------|---------------------------|
G|---------------------------|---------------------------|
D|---------------------------|---------------------------|
A|---------------------------|---------------------------|
E|---------------------------|---------------------------|    


  E7  E                       A7
e|------ ---0-- ------ ------|------ 3----- ------ ------|
B|3-P-0----------------------|-------2-------------------|
G|-----------------0-H-1-----|2----------------2---------|
D|---------------------------|---------------------------|
A|---------------------------|---------------------------|
E|---------------------------|---------------------------|


  E
e|------ ------ ------ ------|------ ------ ------ ------|
B|---------------------------|---------------------------|
G|-------0-H-1--1-P-0--------|0------0-H-1-----1-P-0-----|
D|-------2------2------------|2------2---------2---------|
A|---------------------------|---------------------------|
E|---------------------------|---------------------------|


                              B
e|------ ------ ------ ------|------ ------ ------ ------|
B|---------------------------|---------------------------|
G|2------0-H-1-----0---------|---------------------------|
D|2------2---------2---------|-------1-------------------|
A|---------------------1-/-2-|----------------P0---------|
E|---------------------------|---------------------3B4---|


  E                           E7
e|------ ------ ------ ------|------ ------ ------ ------|
B|---------------------------|---------------------------|
G|---------------------------|7--------------------------|
D|2--------------------------|6--------------------------|
A|---------------------2--/--|7--------------------------|
E|0--------------------------|---------------------------|
                                                      I
                           VERSE 3
  E
e|------ ------ ------ ------|------ ------ ------ ------|
B|---------------------------|---------------------------|
G|1----------------1---------|-------1-------------1-----|
D|2--------------------2-----|-------2-------------2-----|
A|---------------------------|---------------------------|
E|---------------------------|---------------------------|
  know   my     baby      loves  me,           I      love

  A7                          E                   
e|------ 3----- ---3-- ------|------ ------ ------ ------|
B|-------2---------2---------|---------------------------|
G|---------------------------|-------1---------1---------|
D|---------------------------|-------2-------------2-----|
A|---------------------------|---------------------------|
E|---------------------------|---------------------------|
         my     baby      too                         But                


e|------ ------ ------ ------|------ ------ ------ ------|
B|---------------------------|---------------------------|
G|-------1---------1---------|-------1---------1---------|
D|-------2-------------2-----|-------2-------------2-----|
A|---------------------------|---------------------------|
E|---------------------------|---------------------------|
  she don't     understand           me 

                              B7
e|------ ------ ------ ------|------ ------ ------ ------|
B|---------------------------|---------------------------|
G|-------1---------1---------|-------2---------2---------|
D|-------2-------------2-----|-------1-------------1-----|
A|---------------------------|2--------------------------|
E|---------------------------|--------------2------------|
  When I'm      feeling   blue                        And

  E
e|------ ------ ------ ------|------ ------ ------ ------|
B|---------------------------|---------------------------|
G|-------1---------1---------|-------1---------1---------|
D|-------2-------------2-----|-------2-------------2-----|
A|---------------------------|---------------------------|
E|---------------------------|---------------------------|
  when I        hear   that   whistle   blow       I 

  A7                          E
e|------ 3----- ---3-- ------|------ ------ ------ ------|
B|-------2---------2---------|---------------------------|
G|---------------------------|-------1---------1---------|
D|---------------------------|-------2-------------2-----|
A|---------------------------|---------------------------|
E|---------------------------|---------------------------|
  hurry     home       to pack                        And 

  
e|------ ------ ------ ------|------ ------ ------ ------|
B|---------------------------|---------------------------|
G|-------1---------1---------|-------1---------1---------|
D|-------2-------------2-----|-------2-------------------|
A|---------------------------|---------------------------|
E|---------------------------|---------------------------|
  kiss   my     baby      cryin'            in     the 

  
e|------ ------ ------ ------|------ ------ ------ ------|
B|-----------------0---------|---------------------------|
G|---------------------------|-------1---------1---------|
D|-------1-------------------|-------2-------------2-----|
A|-------2-------------------|---------------------------|
E|---------------------------|---------------------------|
  smoke  along         the track 
       
e|------ ------ ------ ------|------ ------ 10---- ------|
B|---------------------------|--------------11-B-12------|
G|---------------------------|---------------------------|
D|---------------------------|---------------------------|
A|---------------------------|---------------------------|
E|---------------------------|---------------------------|


  
e|------ ------ ------ ------|
B|---------------------------|
G|-------1---------1---------|
D|-------2-------------------|
A|---------------------2--/--|
E|---------------------------|
                   Bye, 
e|10---- ------ ------ ------|
B|11-B-12--------------------|
G|---------------------------|
D|---------------------------|
A|---------------------------|
E|---------------------------|

                          CHORUS
  E7
e|------ ------ ------ ------|------ ------ ------ ------|
B|---------------------------|---------------------------|
G|-------7---------7---------|-------7--7------7---------|
D|-------6-------------6-----|-------6--6----------6-----|
A|7--------------------------|7--------------------------|
E|--------------7------------|--------------7------------|
  bye,             so         long,            there's 

  A7
e|------ 3----- ------ ------|3----- ------ ------ ------|
B|-------2-------------------|2------2---------2---------|
G|2----------------2---------|----------2----------------|
D|---------------------------|---------------------------|
A|---------------------------|---------------------------|
E|---------------------------|---------------------------|
  something down       the track     It's   callin'   

  E7
e|------ 0----- ------ ------|0----- ------ ---0-- ------|
B|-----------------3---------|----------3----------------|
G|---------------------1-----|-------1-------------1-----|
D|---------------------------|---------------------------|
A|---------------------------|---------------------------|
E|---------------------------|---------------------------|
  me                                           Bye, 

  
e|------ 0----- ------ ------|------ ------ ---0-- ------|
B|-----------------3---------|----------3----------------|
G|1--------------------1-----|-------1-------------1-----|
D|---------------------------|---------------------------|
A|---------------------------|---------------------------|
E|---------------------------|---------------------------|
  bye,             so         long,            I 

  
e|------ ---0-- ------ ------|0----- ------ ---0-- ------|
B|-----------------3---------|----------3----------------|
G|1--------------------1-----|-------1-------------1-----|
D|---------------------------|---------------------------|
A|---------------------------|---------------------------|
E|---------------------------|---------------------------|
  guess  that's just   the way   I'll   always        be

  B7
e|------ ------ ------ ------|------ ------ ------ ------|
B|---------------------------|---------------------------|
G|-------2---------2---------|-------2---------2---------|
D|-------1-------------1-----|-------1-------------1-----|
A|2--------------------------|2--------------------------|
E|--------------2------------|--------------2------------|
                                               Now 

  E                           E7
e|------ 0----- ------ ------|0----- ------ ---0-- ------|
B|---------------------------|----------3----------------|
G|---------------------------|-------1-------------1-----|
D|---------------------------|---------------------------|
A|---------------------------|---------------------------|
E|---------------------------|---------------------------|
  when I     get   this       feelin'          Don't 

  A7                          E7
e|------ 3----- ------ ------|------ 0----- ------ ------|
B|-------2-------------------|-----------------3---------|
G|-----------------2---------|---------------------1-----|
D|---------------------------|---------------------------|
A|---------------------------|---------------------------|
E|---------------------------|---------------------------|
  try    to hold       me back                        I'll


e|------ 0----- ------ ------|0----- ------ ---0-- ------|
B|-----------------3---------|----------3----------------|
G|---------------------------|-------1-------------1-----|
D|---------------------------|---------------------------|
A|---------------------------|---------------------------|
E|---------------------------|---------------------------|
  only       leave you        cryin'           in  the smoke 

  B7add9                      E7
e|------ ------ ------ ------|------ 0----- ------ ------|
B|-----------------2---------|-----------------3---------|
G|-------2-------------------|---------------------------|
D|-------1-------------------|---------------------------|
A|2--------------------------|---------------------------|
E|---------------------------|---------------------------|
         along         the track
e|------ ------ ------ ------|------ ------ 10---- ------|
B|---------------------------|--------------11-B-12------|
G|---------------------------|---------------------------|
D|---------------------------|---------------------------|
A|---------------------------|---------------------------|
E|---------------------------|---------------------------|


  
e|0----- ------ ---0-- ------|------ 0----- ------ ------|
B|----------3----------------|-----------------3---------|
G|-------1-------------1-----|---------------------------|
D|---------------------------|---------------------------|
A|---------------------------|---------------------------|
E|---------------------------|---------------------------|
                          I'll       just   leave you        
e|10---- ------ ------ ------|------ ------ ------ ------|
B|11-B-12--------------------|---------------------------|
G|---------------------------|---------------------------|
D|---------------------------|---------------------------|
A|---------------------------|---------------------------|
E|---------------------------|---------------------------|


                              B7
e|0----- ------ ---0-- ------|------ ------ ------ ------|
B|----------3----------------|-------0-------------------|
G|-------1-------------1-----|-------2---------2---------|
D|---------------------------|-------1---------1---------|
A|---------------------------|2--------------------------|
E|---------------------------|--------------2------------|
  cryin'        in     the smoke     along         the track

  E7
e|------ 10---- ------ ------|10---- ------ ------ ------|
B|-----------------9---------|-----------------9---------|
G|---------------------------|----------7----------------|
D|------------------------9--|-------9-------------9-----|
A|---------------------------|---------------------------|
E|---------------------------|---------------------------|

e|------ ------ 10---- ---10-|------ ------ ------ ------|
B|--------------11-B-12---11-B-12------------------------|
G|---------------------------|---------------------------|
D|---------------------------|---------------------------|
A|---------------------------|---------------------------|
E|---------------------------|---------------------------|



e|------ 10---- ------ ------|10---- ------ ------ ------|
B|-----------------9---------|----------9----------------|
G|---------------------------|-----------------7---------|
D|9--------------------9-----|-------9-------------9-----|
A|---------------------------|---------------------------|
E|---------------------------|---------------------------|

e|------ ------ ------ ------|------ ------ 10---- ---10-|
B|---------------------------|--------------11-B-12---11-B
G|---------------------------|---------------------------|
D|---------------------------|---------------------------|
A|---------------------------|---------------------------|
E|---------------------------|---------------------------|



e|------ 10---- ------ ------|10---- ---10- ------ ------|
B|-----------------9---------|-----------------9---------|
G|---------------------------|---------------------------|
D|9--------------------9-----|-------9-------------9-----|
A|---------------------------|---------------------------|
E|---------------------------|---------------------------|
  
e|------ ------ ------ ------|------ ------ ------ ------|
B|12-------------------------|---------------------------|
G|---------------------------|---------------------------|
D|---------------------------|---------------------------|
A|---------------------------|---------------------------|
E|---------------------------|---------------------------|



e|------ 10---- ------ ------|10---- ---10- ------ ------|
B|-----------------9---------|-----------------9---------|
G|---------------------------|---------------------------|
D|9--------------------9-----|-------9-------------9-----|
A|---------------------------|---------------------------|
E|---------------------------|---------------------------|
  
e|------ ------ 10---- ---10-|------ ------ ------ ------|
B|--------------11-B-12---11-B-12------------------------|
G|---------------------------|---------------------------|
D|---------------------------|---------------------------|
A|---------------------------|---------------------------|
E|---------------------------|---------------------------|
  ..........................Fade.........................


e|------ 10---- ------ ------|10---- ---10- ------ ------|
B|-----------------9---------|-----------------9---------|
G|---------------------------|---------------------------|
D|9--------------------9-----|-------9-------------9-----|
A|---------------------------|---------------------------|
E|---------------------------|---------------------------|
  
e|------ ------ ------ ------|------ ------ 10---- ---10-|
B|---------------------------|--------------11-B-12---11-B
G|---------------------------|---------------------------|
D|---------------------------|---------------------------|
A|---------------------------|---------------------------|
E|---------------------------|---------------------------|
  .......................................................


e|------ 10---- ------ ------|10---- ---10- ------ ------|
B|-----------------9---------|-----------------9---------|
G|---------------------------|---------------------------|
D|9--------------------9-----|-------9-------------9-----|
A|---------------------------|---------------------------|
E|---------------------------|---------------------------|
  
e|------ ------ ------ ------|------ ------ ------ ------|
B|12-------------------------|---------------------------|
G|---------------------------|---------------------------|
D|---------------------------|---------------------------|
A|---------------------------|---------------------------|
E|---------------------------|---------------------------|
  .......................................................


e|------ 10---- ------ ------|10---- ---10- ------ ------|
B|-----------------9---------|-----------------9---------|
G|---------------------------|---------------------------|
D|9--------------------9-----|-------9-------------9-----|
A|---------------------------|---------------------------|
E|---------------------------|---------------------------|
  
e|------ ------ 10---- ---10-|------ ------ ------ ------|
B|--------------11-B-12---11-B-12------------------------|
G|---------------------------|---------------------------|
D|---------------------------|---------------------------|
A|---------------------------|---------------------------|
E|---------------------------|---------------------------|
  .......................................................




  



        B  Bend
        R  Release
        /  Slide up
        \  Slide down
        H  Hammer-on
        P  Pull-off
        ~  Vibrato
        +  Harmonic
        x  Mute note
        .  Play note like a dot in standard notation
        ^  Ties two notes together
        (. Pause
comments
We did not receive enough feedback on this tab! Please rate:
print report bad tab
1 2 3 4 5
1 comment total.
0 reply
andrew.cushen.5 wrote on July 30 2013, 01:58 pm

This is not a bad start, but Pete finger-picked this song and you are missing all the low notes played with the thumb.

I want to post or [tab]
guest
You may want to rate the tab now too:
select rating
Please do not post tabs as comments. Select "correction" instead!