Oops, an error
Loading. Please wait.

Homicidal Retribution Bass Tab

ver1
ver1

Whole song

Interactive

More versions @911Tabs.com
2,553 views 9 this week
no commentswrite comment
1 2 3 4 5
excellent!
x 5
Autoscroll
+/-
esc
set tempo
stop
Contributor
Difficulty
advanced
Hey! There's an official Ultimate Guitar app which is ideal
for learning songs when you're away from computer. Get the app
WARNING: You are trying to view
                                    content from Ultimate-Guitar.com
                                    in an unauthorized application,
                                    which is prohibited.

                                    Please use an official Ultimate
                                    Guitar Tabs application for iPhone,
                                    iPad or Android to access legitimate
                                    chords, guitar, bass, and drum tabs
                                    from Ultimate-Guitar.com database.

                                    Type "ultimate guitar tabs" in Apple
                                    App Store's or Android Market's
                                    search to find the application.
Homicidal Retribution
Dying Fetus
War of Attrition
Bass Tab

This is my first tab so go easy!
The whole thing is tabbed by ear, and was extremely hard, so a thank you would  
make all the difference.
If your attempting a song like this i'm going to assume you can work out the mutes by yourself :P

Tuning: E  [highest]
        B
        F#
        C# [lowest]

BPM: Roughly 235 is as close as I can figure out.
Time signature: 4/4, changes noted.

E |------------------|------------------------|
B |------------------|------------------------|
F#|-8-10-7-8-5-7-3-5-|-8-10-7-8-5-7-3-5-------|
C#|------------------|------------------------|

Pause, count like this: 3/4, 5/4, 3/4, 5/4
Then:

3/4
E |------------------------------|
B |------------------------------|
F#|----7h10p7-6h9p6--------------|
C#|-000--------------------------|
   |-t-|
5/4
E |------------------------------|
B |-----------------7h10p7-------|
F#|----7h10p7-6h9p6--------5h8p5-|
C#|-000--------------------------|
   |-t-|
3/4
E |------------------------------|
B |------------------------------|
F#|----7h10p7-6h9p6--------------|
C#|-000--------------------------|
   |-t-|
5/4
E |--------------------------------|
B |--------------------------------|
F#|--------------------1h4p1-------|
C#|-000-777-9h12p9-333-------------|
   |-t-|-t-|      |-t--------------|
3/4
E |------------------------------|
B |------------------------------|
F#|----7h10p7-6h9p6--------------|
C#|-000--------------------------|
   |-t-|
5/4
E |------------------------------|
B |-----------------7h10p7-------|
F#|----7h10p7-6h9p6--------5h8p5-|
C#|-000--------------------------|
   |-t-|
3/4
E |------------------|
B |------------------|
F#|-----7h10p7-6h9p6-|
C#|-000--------------|
   |-t-|
5/4
E |-------------------------------|
B |-------------------------------|
F#|-------------------------------|
C#|-000-777-9h12p9-7h10p7-10p7h10-|
   |-t-|-t-|
3/4
E |------------------------------|
B |------------------------------|
F#|-----7h10p7-6h9p6-------------|
C#|-000--------------------------|
   |-t-|
5/4
E |------------------------------|
B |-----------------7h10p7-------|
F#|----7h10p7-6h9p6--------5h8p5-|
C#|-000--------------------------|
   |-t-|
3/4
E |------------------------------|
B |------------------------------|
F#|-----7h10p7-6h9p6-------------|
C#|-000--------------------------|
   |-t-|
5/4
E |--------------------------------|
B |--------------------------------|
F#|--------------------1h4p1-------|
C#|-000-777-9h12p9-333-------------|
   |-t-|-t-|      |-t--------------|
3/4
E |------------------------------|
B |------------------------------|
F#|-----7h10p7-6h9p6-------------|
C#|-000--------------------------|
   |-t-|
5/4
E |-------------------------------|
B |-------------------------------|
F#|-------------------------------|
C#|-000-777-9h12p9-7h10p7-10p7h10-|
   |-t-|-t-|
3/4
E |------------------------------|
B |------------------------------|
F#|-----7h10p7-6h9p6-------------|
C#|-000--------------------------|
   |-t-|
5/4
E |------------------------------|
B |-----------------7h10p7-------|
F#|----7h10p7-6h9p6--------5h8p5-|
C#|-000--------------------------|
   |-t-|
3/4
E |------------------------------|
B |------------------------------|
F#|-----7h10p7-6h9p6-------------|
C#|-000--------------------------|
   |-t-|
5/4
E |--------------------------------|
B |--------------------------------|
F#|--------------------1h4p1-------|
C#|-000-777-9h12p9-333-------------|
   |-t-|-t-|      |-t--------------|
3/4
E |------------------------------|
B |------------------------------|
F#|-----7h10p7-6h9p6-------------|
C#|-000--------------------------|
   |-t-|
5/4
E |------------------------------|
B |-----------------7h10p7-------|
F#|----7h10p7-6h9p6--------5h8p5-|
C#|-000--------------------------|
   |-t-|
3/4
E |------------------------------|
B |------------------------------|
F#|-----7h10p7-6h9p6-------------|
C#|-000--------------------------|
   |-t-|
5/4
E |-------------------------------|
B |-------------------------------|
F#|-------------------------------|
C#|-000-777-9h12p9-7h10p7-10p7h10-|
   |-t-|-t-|
3/4
E |------------------------------|
B |------------------------------|
F#|-----7h10p7-6h9p6-------------|
C#|-000--------------------------|
   |-t-|
5/4
E |------------------------------|
B |-----------------7h10p7-------|
F#|----7h10p7-6h9p6--------5h8p5-|
C#|-000--------------------------|
   |-t-|
3/4
E |------------------------------|
B |------------------------------|
F#|-----7h10p7-6h9p6-------------|
C#|-000--------------------------|
   |-t-|
4/4
E |---------------------------------|
B |---------------------------------|
F#|-----------------4-4-4-4-5-5-5-5-|
C#|-2-2-2-2-3-3-3-3-----------------|

E |---------------------------------|
B |---------------------------------|
F#|-7-7-7-7-6-6-6-6-9-9-9-9-8-8-8-8-|
C#|---------------------------------|

E |---------------------------------|
B |---------------------------------|
F#|-----------------4-4-4-4-5-5-5-5-|
C#|-2-2-2-2-3-3-3-3-----------------|

E |---------------------------------|
B |---------------------------------|
F#|-7-7-7-7-6-6-6-6-9-9-9-9-8-8-8-8-|
C#|---------------------------------|

E |---------------------------------|
B |---------------------------------|
F#|-----------------4-4-4-4-5-5-5-5-|
C#|-2-2-2-2-3-3-3-3-----------------|

E |---------------------------------|
B |---------------------------------|
F#|-7-7-7-7-6-6-6-6-9-9-9-9-8-8-8-8-|
C#|---------------------------------|

E |------------------------------|
B |------------------------------|
F#|-----4-5-7-6-9-8--------------|
C#|-2-3--------------------------|

E |----------------------------------|
B |----------------------------------|
F#|---------4-5-4-5-7-6-7-6-9-8-9-8--|
C#|-2-3-2-3--------------------------|

E |----------------------------------|
B |----------------------------------|
F#|---------4-5-4-5-7-6-7-6-9-8-9-8--|
C#|-2-3-2-3--------------------------|

E |----------------------------------|
B |----------------------------------|
F#|---------4-5-4-5-7-6-7-6-9-8-9-8--|
C#|-2-3-2-3--------------------------|

E |----------------------------------|
B |----------------------------------|
F#|---------4-5-4-5-7-6-7-6-9-8-9-8--|
C#|-2-3-2-3--------------------------|

BPM changes to: 220

E |-16p12-------------------------------12-16-12----|
B |-------14--------------------------14------------|
F#|---------13--17p15p14--------17--14--------------|
C#|-----------15--------12h14h15--15-------------4~-|

E |----------------------------------------------|
B |----------------------------------------------|
F#|----------------------------------------------|
C#|-3-3-3-3-3-3-3-3-4-4-3-3-3-3-3-3--------------|

E |-16p12-------------------------------12-16-12----|
B |-------14--------------------------14------------|
F#|---------13--17p15p14--------17--14--------------|
C#|-----------15--------12h14h15--15-------------4~-|

E |----------------------------------------------|
B |----------------------------------------------|
F#|----------------------------------------------|
C#|-3-3-3-3-3-3-3-3-4-4-3-3-3-3-3-3--------------|

E |-16p12-------------------------------12-16-12----|
B |-------14--------------------------14------------|
F#|---------13--17p15p14--------17--14--------------|
C#|-----------15--------12h14h15--15-------------4~-|

E |----------------------------------------------|
B |----------------------------------------------|
F#|----------------------------------------------|
C#|-3-3-3-3-3-3-3-3-4-4-3-3-3-3-3-3--------------|

E |-16p12-------------------------------12-16-12----|
B |-------14--------------------------14------------|
F#|---------13--17p15p14--------17--14--------------|
C#|-----------15--------12h14h15--15-------------4~-|

E |----------------------------------------------|
B |----------------------------------------------|
F#|----------------------------------------------|
C#|-3-3-3-3-3-3-3-3-4-4-3-3-3-3-3-3--------------|

E |----------------------------------------|
B |---------------------4-4-7-7------------|
F#|-----------------5-5--------------------|
C#|-3-3-3-3-3-3-3-3-------------5-5--------|

E |----------------------------------------------|
B |----------------------------------------------|
F#|----------------------------------------------|
C#|-3-3-3-3-3-3-3-3-4-4-3-3-3-3-/7-4/7-4---------|

E |-------------------------|
B |-----------------4---5---|
F#|-------------------------|
C#|-3-3-3-3-3-3-3-3---3---3-|

E |----------------------------------------|
B |---------------------4-4-7-7------------|
F#|-----------------5-5--------------------|
C#|-3-3-3-3-3-3-3-3-------------5-5--------|

E |----------------------------------------------|
B |----------------------------------------------|
F#|----------------------------------------------|
C#|-3-3-3-3-3-3-3-3-4-4-3-3-3-3-/7-4/7-4---------|

E |----------------------------------------------|
B |----------------------------------------------|
F#|----------------------------------------------|
C#|-3-3-3-3-3-3-3-3-4-4-3-3-3-3-3-3--------------|

E |----------------------------------------|
B |---------------------4-4-7-7------------|
F#|-----------------5-5--------------------|
C#|-3-3-3-3-3-3-3-3-------------5-5--------|

E |----------------------------------------------|
B |----------------------------------------------|
F#|----------------------------------------------|
C#|-3-3-3-3-3-3-3-3-4-4-3-3-3-3-/7-4/7-4---------|

E |-------------------------|
B |-----------------4---5---|
F#|-------------------------|
C#|-3-3-3-3-3-3-3-3---3---3-|

E |----------------------------------------|
B |---------------------4-4-7-7------------|
F#|-----------------5-5--------------------|
C#|-3-3-3-3-3-3-3-3-------------5-5--------|

E |----------------------------------------------|
B |----------------------------------------------|
F#|----------------------------------------------|
C#|-3-3-3-3-3-3-3-3-4-4-3-3-3-3-/7-4/7-4---------|

E |-------------------------------------|
B |-------------------------------------|
F#|-------------------------------------|
C#|-0-000-0-000-1-000-1-000-4-000-4-000-|

E |---------6h7p6----------------------|
B |-----6-7-------8-7------------------|
F#|-7-8---------------8-10-7-8-5-7-3-5-|
C#|------------------------------------|

E |-------------------------------------|
B |-------------------------------------|
F#|-------------------------------------|
C#|-0-000-0-000-1-000-1-000-4-000-4-000-|

E |---------6h7p6-----[------------------]
B |-----6-7-------8-7-[------------------]
F#|-7-8---------------[-8-10-7-8-5-7-3-5-] X3
C#|-------------------[------------------]

E |-------------------------------------|
B |-------------------------------------|
F#|-------------------------------------|
C#|-0-000-0-000-1-000-1-000-4-000-4-000-|

E |---------6h7p6----------------------|
B |-----6-7-------8-7------------------|
F#|-7-8---------------8-10-7-8-5-7-3-5-|
C#|------------------------------------|

E |-------------------------------------|
B |-------------------------------------|
F#|-------------------------------------|
C#|-0-000-0-000-1-000-1-000-4-000-4-000-|

E |---------6h7p6-----|
B |-----6-7-------8-7-|
F#|-7-8---------------|
C#|-------------------|

8/4
E |--------------------------|
B |--------------------------|
F#|-8-10-7-8-5-7-3-5---------| X4
C#|--------------------------|

BPM changes to: 195

E |------------------------------------|
B |------------------------------------|
F#|-------3-3-3-------2-2-2------------|
C#|-4-4-4-------3-3-3-------4-3-5-4----|

E |-----------------------------------------------------|
B |-----------------------------------------------------|
F#|----------------------------------3---------2--------|
C#|-1--0-0-1/2\1-0-0-1/2\1-0-0-4-0-0--4-3--0-0--3-2-0-0-|

E |-----------------------------------------------------|
B |-----------------------------------------------------|
F#|----------------------------------3---------2--------|
C#|-1--0-0-1/2\1-0-0-1/2\1-0-0-4-0-0--4-3--0-0--3-2-0-0-|

E |-----------------------------------------------------|
B |-----------------------------------------------------|
F#|----------------------------------3---------2--------|
C#|-1--0-0-1/2\1-0-0-1/2\1-0-0-4-0-0--4-3--0-0--3-2-0-0-|

E |-------------------------------------------------|
B |-------------------------------------------------|
F#|-------------------------------------------------|
C#|-1--0-0-1/2\1-0-0-1/2\1-0-0----------------------|

E |------------------------------------|
B |------------------------------------|
F#|-------3-3-3-------2-2-2------------|
C#|-4-4-4-------3-3-3-------4-3-5-4----|

E |------------------------------------|
B |------------------------------------|
F#|-1/4---------------------2----------|
C#|-----0-0-0-0-1/4-0-4\3-0---4-3-0----|

E |------------------------------------|
B |------------------------------------|
F#|-1/4---------------------2----------|
C#|-----0-0-0-0-1/4-0-4\3-0---4-3-0----|

E |------------------------------------|
B |------------------------------------|
F#|-1/4---------------------2----------|
C#|-----0-0-0-0-1/4-0-4\3-0---4-3-0----|

E |------------------------------------|
B |------------------------------------|
F#|-8-5---------3---5-8-5--------------|
C#|-----5-6-3-0---5-------5-6-3-6-3----|

E |------------------------------------|
B |------------------------------------|
F#|-1/4---------------------2----------|
C#|-----0-0-0-0-1/4-0-4\3-0---4-3-0----|

E |------------------------------------|
B |------------------------------------|
F#|-1/4---------------------2----------|
C#|-----0-0-0-0-1/4-0-4\3-0---4-3-0----|

E |------------------------------------|
B |------------------------------------|
F#|-1/4---------------------2----------|
C#|-----0-0-0-0-1/4-0-4\3-0---4-3-0----|

E |------------------------------------|
B |------------------------------------|
F#|-8-5---------3---5-8-5--------------|
C#|-----5-6-3-0---5-------5-6-3-6-3----|

E |-----------------------------------------------------|
B |-----------------------------------------------------|
F#|----------------------------------3---------2--------|
C#|-1--0-0-1/2\1-0-0-1/2\1-0-0-4-0-0--4-3--0-0--3-2-0-0-|

E |-----------------------------------------------------|
B |-----------------------------------------------------|
F#|----------------------------------3---------2--------|
C#|-1--0-0-1/2\1-0-0-1/2\1-0-0-4-0-0--4-3--0-0--3-2-0-0-|

E |-----------------------------------------------------|
B |-----------------------------------------------------|
F#|----------------------------------3---------2--------|
C#|-1--0-0-1/2\1-0-0-1/2\1-0-0-4-0-0--4-3--0-0--3-2-----|

BPM changes to 235

E |---------------------------------------------------|
B |---------------------------------7-7-7-7-7-7-------|
F#|-------------5-5-5-5-5-5-8-8-8-8-------------------|
C#|-1-1-1-1-1-1---------------------------------------|

E |---------------------6-6-6-6-6-6---------------------|
B |---------------------------------8-8-8-8-8-8-5-5-5-5-|
F#|-8-8-8-8-8-8-5-5-5-5---------------------------------|
C#|-----------------------------------------------------|

E |------------------------------------|
B |-7-7-7-7-7-7------------------------|
F#|-------------8-8-8-8-8-8-5-5-5-5----|
C#|------------------------------------|

E |------------------------------------|
B |------------------------------------|
F#|------------------------------------|
C#|-5-5-5-5-5-5-6-6-6-6-6-6-8-8--------|

E |---------------------------------------------------|
B |---------------------------------7-7-7-7-7-7-------|
F#|-------------5-5-5-5-5-5-8-8-8-8-------------------|
C#|-1-1-1-1-1-1---------------------------------------|

E |---------------------6-6-6-6-6-6---------------------|
B |---------------------------------8-8-8-8-8-8-5-5-5-5-|
F#|-8-8-8-8-8-8-5-5-5-5---------------------------------|
C#|-----------------------------------------------------|

E |------------------------------------|
B |-7-7-7-7-7-7------------------------|
F#|-------------8-8-8-8-8-8-5-5-5-5----|
C#|------------------------------------|

E |------------------------------------|
B |------------------------------------|
F#|------------------------------------|
C#|-5-5-5-5-5-5-6-6-6-6-6-6-8-8--------|

E |------------------------------------|
B |-----------------7-7-7--------------|
F#|-------5-5-5-8-8-------8-8-8-5-5----|
C#|-1-1-1------------------------------|

E |-6-6-6------------------------------|
B |-------8-8-8-5-5-7-7-7--------------|
F#|-----------------------8-8-8-5-5----|
C#|------------------------------------|

E |------------------------------------|
B |------------------------------------|
F#|------------------------------------|
C#|-5-5-5-6-6-6-8-8--------------------|

E |------------------------------------|
B |-----------------7-7-7--------------|
F#|-------5-5-5-8-8-------8-8-8-5-5----|
C#|-1-1-1------------------------------|

E |-6-6-6------------------------------|
B |-------8-8-8-5-5-7-7-7--------------|
F#|-----------------------8-8-8-5-5----|
C#|------------------------------------|

E |------------------------------------|
B |------------------------------------|
F#|------------------------------------|
C#|-5-5-5-6-6-6-8-8--------------------|

E |---------------------------------------------------|
B |---------------------------------7-7-7-7-7-7-------|
F#|-------------5-5-5-5-5-5-8-8-8-8-------------------|
C#|-1-1-1-1-1-1---------------------------------------|

E |---------------------6-6-6-6-6-6---------------------|
B |---------------------------------8-8-8-8-8-8-5-5-5-5-|
F#|-8-8-8-8-8-8-5-5-5-5---------------------------------|
C#|-----------------------------------------------------|

E |------------------------------------|
B |-7-7-7-7-7-7------------------------|
F#|-------------8-8-8-8-8-8-5-5-5-5----|
C#|------------------------------------|

E |------------------------------------|
B |------------------------------------|
F#|------------------------------------|
C#|-5-6-8------------------------------|

Rest, count like this: 3/4, 7/8, 9/8, 7/8, 9/8
Then:
9/8
E |--------------------------------------------|
B |-----13-14----------------------------------|
F#|---15-----15-14-----------------------------|
C#|-12------------15-12------------------------|

7/8
E |------------------------------------|
B |------------------------------------|
F#|-2----------------------------------|
C#|---0-0-3-3-1-1----------------------|

9/8
E |------------------------------------|
B |------------------------------------|
F#|-2----------------------------------|
C#|---1-1-1-3-4\2-1-1------------------|

7/8
E |------------------------------------|
B |------------------------------------|
F#|-2----------------------------------|
C#|---0-0-3-3-1-1----------------------|

9/8
E |------------------------------------|
B |------------------------------------|
F#|------------------------------------|
C#|-1-1-1-1-4/5-4/5--------------------|

7/8
E |------------------------------------|
B |------------------------------------|
F#|-2----------------------------------|
C#|---0-0-3-3-1-1----------------------|

9/8
E |------------------------------------|
B |------------------------------------|
F#|-2----------------------------------|
C#|---1-1-1-3-4\2-1-1------------------|

7/8
E |------------------------------------|
B |------------------------------------|
F#|-2----------------------------------|
C#|---0-0-3-3-1-1----------------------|

9/8
E |------------------------------------|
B |--------------13-14-----------------|
F#|------------15-----15-14------------|
C#|-4--1-1-1-12------------15-12-------|

7/8
E |------------------------------------|
B |------------------------------------|
F#|-2----------------------------------|
C#|---0-0-3-3-1-1----------------------|

9/8
E |------------------------------------|
B |------------------------------------|
F#|-2----------------------------------|
C#|---1-1-1-3-4\2-1-1------------------|

7/8
E |------------------------------------|
B |------------------------------------|
F#|-2----------------------------------|
C#|---0-0-3-3-1-1----------------------|

9/8
E |------------------------------------|
B |------------------------------------|
F#|------------------------------------|
C#|-4--1-1-1-1-4/5-4/5-----------------|

7/8
E |------------------------------------|
B |------------------------------------|
F#|-2----------------------------------|
C#|---0-0-3-3-1-1----------------------|

9/8
E |------------------------------------|
B |------------------------------------|
F#|-2----------------------------------|
C#|---1-1-1-3-4\2----------------------|

7/8
E |------------------------------------|
B |------------------------------------|
F#|-2----------------------------------|
C#|----0-0-3-3-1-1---------------------|

9/8
E |------------------------------------|
B |--------------13-14-----------------|
F#|------------15-----15-14------------|
C#|-4--1-1-1-12------------15-12-------|

9/8
E |------------------------------------|
B |------------------------------------|
F#|-2----------------------------------|
C#|---1-1-1-3-4\2-1-1------------------|

7/8
E |------------------------------------|
B |------------------------------------|
F#|-2----------------------------------|
C#|---0-0-3-3-1-1----------------------|

9/8
E |------------------------------------|
B |------------------------------------|
F#|------------------------------------|
C#|-4--1-1-1-1-4/5-4/5-----------------|

7/8
E |------------------------------------|
B |------------------------------------|
F#|-2----------------------------------|
C#|---0-0-3-3-1-1----------------------|

9/8
E |------------------------------------|
B |------------------------------------|
F#|-2----------------------------------|
C#|---1-1-1-3-4\2----------------------|

7/8
E |------------------------------------|
B |------------------------------------|
F#|-2----------------------------------|
C#|----0-0-3-3-1-1---------------------|

9/8
E |------------------------------------|
B |--------------13-14-----------------|
F#|------------15-----15-14------------|
C#|-4--1-1-1-12------------15-12-------|

4/4
E |------------------------------------|
B |------------------------------------|
F#|------------------------------------|
C#|-7-7-1-2--1-1-1--1---4--------------|

E |------------------------------------|
B |------------------------------------|
F#|------------------------------------|
C#|-1-1-1--1--2-1-1-1--2--1------------|

E |------------------------------------|
B |------------------------------------|
F#|------------------------------------|
C#|-7-7-1-2-1-1-1--1---4---------------|

E |------------------------------------|
B |------------------------------------|
F#|------------------------------------|
C#|-1-1-1--1--2-1-1-1--2--1------------|

E |------------------------------------|
B |------------------------------------|
F#|------------------------------------|
C#|-7-7-1-2--1-1-1--1---4--------------|

E |------------------------------------|
B |------------------------------------|
F#|------------------------------------|
C#|-1-1-1--1--2-1-1-1--2--1------------|

E |------------------------------------|
B |------------------------------------|
F#|------------------------------------|
C#|-7-7-1-2-1-1-1--1---4---------------|

E |------------------------------------|
B |------------------------------------|
F#|------------------------------------|
C#|-1-1-1--1--2-1-1-1--2--1------------|

BPM changes to 205

E |--------------------------------16--11h16p11--16----|
B |------------------------------16--12--------12--16--|
F#|----------------7/14-17-14-17-----------------------|
C#|-2-1--6-5--2-1--------------------------------------|

E |------------------------------------|
B |------------------------------------|
F#|-1-4-2-5-1-4-0-3--------------------|
C#|------------------------------------|

E |--------------------------------16--11h16p11--16----|
B |------------------------------16--12--------12--16--|
F#|----------------7/14-17-14-17-----------------------|
C#|-2-1--6-5--2-1--------------------------------------|

E |------------------------------------|
B |------------------------------------|
F#|-1-4-2-5-1-4-0-3--------------------|
C#|------------------------------------|

E |------------------------------------|
B |------------------------------------|
F#|------------------------------------|
C#|-2-1-1-1-6-5-5-5-2-1-1-1------------|

E |----------------16--11h16p11--16----|
B |--------------16--12--------12--16--|
F#|-7/14-17-14-17----------------------|
C#|------------------------------------|

E |------------------------------------|
B |------------------------------------|
F#|-1-4-2-5-1-4-0-3--------------------|
C#|------------------------------------|

Thats all! Hope this was helpful, it took a long time so please leave a rating and a comment :)
comments
print report bad tab
I want to post or [tab]
guest
You may want to rate the tab now too:
select rating
Please do not post tabs as comments. Select "correction" instead!