Oops, an error
Loading. Please wait.

Judgement Day Tab

ver1
ver1

Whole song

Interactive

More versions @911Tabs.com
1,695 views 1 this week
no commentswrite comment
1 2 3 4 5
excellent!
x 1
Autoscroll
+/-
esc
set tempo
stop
Contributor
Hey! There's an official Ultimate Guitar app which is ideal
for learning songs when you're away from computer. Get the app
WARNING: You are trying to view
                                    content from Ultimate-Guitar.com
                                    in an unauthorized application,
                                    which is prohibited.

                                    Please use an official Ultimate
                                    Guitar Tabs application for iPhone,
                                    iPad or Android to access legitimate
                                    chords, guitar, bass, and drum tabs
                                    from Ultimate-Guitar.com database.

                                    Type "ultimate guitar tabs" in Apple
                                    App Store's or Android Market's
                                    search to find the application.
Judgement Day                                   
Dying Fetus


Tuning: C# F# B E G# C#


      E  E  E  E  E  E  E  E     E  E  E  E  E  E  E  E   
C#||--------------------------|--------------------------|
G#||--------------------------|--------------------------|
E ||--------------------------|--------------------------|
B ||--------------------------|--------------------------|
F#||--4--4--------5--------4--|--------5-----5--4--8--7--|
C#||--2--2--0--0--3--0--0--2--|--0--0--3--0--3--2--6--5--|


  E  E  E  E  E  E  E  E     E  E  E  E  E  E  E  E   
--------------------------|--------------------------|
--------------------------|--------------------------|
--------------------------|--------------------------|
--------------------------|--------------------------|
--4--4--------5--------4--|--------5-----5--4--8--7--|
--2--2--0--0--3--0--0--2--|--0--0--3--0--3--2--6--5--|


  E  E  E  E  E  E  E  E     E  E  E  E  E  E  E  E   
--------------------------|--------------------------|
--------------------------|--------------------------|
--------------------------|--------------------------|
--------------------------|--------------------------|
--4--4--------5--------4--|--------5-----5--4--8--7--|
--2--2--0--0--3--0--0--2--|--0--0--3--0--3--2--6--5--|


  E  E  E  E  E  E  E  E     E  E  E  E  E  E  E  E   
--------------------------|--------------------------|
--------------------------|--------------------------|
--------------------------|--------------------------|
--------------------------|--------------------------|
--4--4--------5--------4--|--------5-----5--4--8--7--|
--2--2--0--0--3--0--0--2--|--0--0--3--0--3--2--6--5--|


  E  E  E  E  E  E  E  E     E  E  E  E  E  E  E  E   
--------------------------|--------------------------|
--------------------------|--------------------------|
--------------------------|--------------------------|
--------------------------|--------------------------|
--4--4--------5--------4--|--------5-----5--4--8--7--|
--2--2--0--0--3--0--0--2--|--0--0--3--0--3--2--6--5--|


  E  E  E  E  E  E  E  E     E  E  E  E  E  E  E  E   
--------------------------|--------------------------|
--------------------------|--------------------------|
--------------------------|--------------------------|
--------------------------|--------------------------|
--4--4--------5--------4--|--------5-----5--4--8--7--|
--2--2--0--0--3--0--0--2--|--0--0--3--0--3--2--6--5--|


  E  E  E  E  E  E  E  E     E  E  E  E  E  E  E  E   
--------------------------|--------------------------|
--------------------------|--------------------------|
--------------------------|--------------------------|
--------------------------|--------------------------|
--4--4--------5--------4--|--------5-----5--4--8--7--|
--2--2--0--0--3--0--0--2--|--0--0--3--0--3--2--6--5--|


  S S S S S S S S S S S S S S S S    S S S S S S S S S S S S S S S S  
----------------------------------|----------------------------------|
----------------------------------|----------------------------------|
----------------------------------|----------------------------------|
----------------------------------|----------------------------------|
----------------------------------|----------------------------------|
--2-2-2-2-2-2-0-0-2-2-2-2-2-2-2-2-|--2-2-2-2-3-3-3-3-0-0-0-0-3-3-3-3-|


  S S S S S S S S S S S S S S S S    S S S S S S S S S S S S S S S S  
----------------------------------|----------------------------------|
----------------------------------|----------------------------------|
----------------------------------|----------------------------------|
----------------------------------|----------4-4-4-4-----------------|
----------------------------------|------------------4-4-4-4---------|
--2-2-2-2-2-2-0-0-2-2-2-2-2-2-2-2-|--2-2-2-2-----------------5-5-5-5-|


  S S S S S S S S S S S S S S S S    S S S S S S S S S S S S S S S S  
----------------------------------|----------------------------------|
----------------------------------|----------------------------------|
----------------------------------|----------------------------------|
----------------------------------|----------------------------------|
----------------------------------|----------------------------------|
--2-2-2-2-2-2-0-0-2-2-2-2-2-2-2-2-|--2-2-2-2-3-3-3-3-0-0-0-0-3-3-3-3-|


  S S S S S S S S S S S S S S S S    S S S S S S S S S S S S S S S S  
----------------------------------|----------------------------------|
----------------------------------|----------------------------------|
----------------------------------|----------------------------------|
----------------------------------|----------4-4-4-4-----------------|
----------------------------------|------------------4-4-4-4---------|
--2-2-2-2-2-2-0-0-2-2-2-2-2-2-2-2-|--2-2-2-2-----------------5-5-5-5-|


  W                   E.  E.  E  E.  E.  E     E.  E.  E  E.  E.  E   
-------------------|------------------------|------------------------|
-------------------|------------------------|------------------------|
-------------------|------------------------|------------------------|
-------------------|-------------6---7---7--|-------------6---4---2--|
--4----------------|--4---4---4--4---5---5--|--4---4---4--4---2---0--|
--2----------------|--2---2---2-------------|--2---2---2-------------|


  E.  E.  E  E.  E.  E     E.  E.  E  E.  E.  E     E.  E.  E  E.  E.  E   
------------------------|------------------------|------------------------|
------------------------|------------------------|------------------------|
------------------------|------------------------|------------------------|
-------------6---7---7--|-------------6---4---2--|-------------6---7---7--|
--4---4---4--4---5---5--|--4---4---4--4---2---0--|--4---4---4--4---5---5--|
--2---2---2-------------|--2---2---2-------------|--2---2---2-------------|


  E.  E.  E  E.  E.  E     E.  E.  E  E.  E.  E     E.  E.  E  E.  E.  E   
------------------------|------------------------|------------------------|
------------------------|------------------------|------------------------|
------------------------|------------------------|------------------------|
-------------6---4---2--|-------------6---7---7--|-------------6---4---2--|
--4---4---4--4---2---0--|--4---4---4--4---5---5--|--4---4---4--4---2---0--|
--2---2---2-------------|--2---2---2-------------|--2---2---2-------------|


  E.  E.  E  E.  E.  E     E.  E.  E  E.  E.  E     E.  E.  E  E.  E.  E   
------------------------|------------------------|------------------------|
------------------------|------------------------|------------------------|
------------------------|------------------------|------------------------|
-------------6---7---7--|-------------6---4---2--|-------------6---7---7--|
--4---4---4--4---5---5--|--4---4---4--4---2---0--|--4---4---4--4---5---5--|
--2---2---2-------------|--2---2---2-------------|--2---2---2-------------|


  E.  E.  E  E.  E.  E     S S S S S S S S S S S S S S S S  
------------------------|----------------------------------|
------------------------|----------------------------------|
------------------------|----------------------------------|
-------------6---4---2--|--------------------------4-4-4-4-|
--4---4---4--4---2---0--|------------------4-4-4-4---------|
--2---2---2-------------|--2-2-2-2-2-2-2-2-----------------|


  S S S S S S S S S S S S S S S S    S S S S S S S S S S S S S S S S  
----------------------------------|----------------------------------|
----------------------------------|----------------------------------|
----------------------------------|----------------------------------|
----------------------------------|--------------------------4-4-4-4-|
------------------4-4-4-4---------|------------------4-4-4-4---------|
--2-2-2-2-2-2-2-2---------5-5-5-5-|--2-2-2-2-2-2-2-2-----------------|


  S S S S S S S S E.  E.  E     S S S S S S S S S S S S S S S S  
-----------------------------|----------------------------------|
-----------------------------|----------------------------------|
-----------------------------|----------------------------------|
------------------6---4---2--|--------------------------4-4-4-4-|
------------------4---2---0--|------------------4-4-4-4---------|
--2-2-2-2-2-2-2-2------------|--2-2-2-2-2-2-2-2-----------------|


  S S S S S S S S S S S S S S S S    S S S S S S S S S S S S S S S S  
----------------------------------|----------------------------------|
----------------------------------|----------------------------------|
----------------------------------|----------------------------------|
----------------------------------|--------------------------4-4-4-4-|
------------------4-4-4-4---------|------------------4-4-4-4---------|
--2-2-2-2-2-2-2-2---------5-5-5-5-|--2-2-2-2-2-2-2-2-----------------|


  S S S S S S S S E.  E.  E     E.  E.  E  E.  E.  E     E.  E.  E  E.  E.  E   
-----------------------------|------------------------|------------------------|
-----------------------------|------------------------|------------------------|
-----------------------------|------------------------|------------------------|
------------------6---4---2--|-------------6---7---7--|-------------6---4---2--|
------------------4---2---0--|--4---4---4--4---5---5--|--4---4---4--4---2---0--|
--2-2-2-2-2-2-2-2------------|--2---2---2-------------|--2---2---2-------------|


  E.  E.  E  E.  E.  E     E.  E.  E  E.  E.  E     E.  E.  E  E.  E.  E   
------------------------|------------------------|------------------------|
------------------------|------------------------|------------------------|
------------------------|------------------------|------------------------|
-------------6---7---7--|-------------6---4---2--|-------------6---7---7--|
--4---4---4--4---5---5--|--4---4---4--4---2---0--|--4---4---4--4---5---5--|
--2---2---2-------------|--2---2---2-------------|--2---2---2-------------|


  E.  E.  E  E.  E.  E     E.  E.  E  E.  E.  E     E.  E.  E  E.  E.  E   
------------------------|------------------------|------------------------|
------------------------|------------------------|------------------------|
------------------------|------------------------|------------------------|
-------------6---4---2--|-------------6---7---7--|-------------6---4---2--|
--4---4---4--4---2---0--|--4---4---4--4---5---5--|--4---4---4--4---2---0--|
--2---2---2-------------|--2---2---2-------------|--2---2---2-------------|


  S S S S S S S S S S S S S S S S    S S S S S S S S S S S S S S S S  
----------------------------------|----------------------------------|
----------------------------------|----------------------------------|
----------------------------------|----------------------------------|
--------------------------4-4-4-4-|----------------------------------|
------------------4-4-4-4---------|------------------4-4-4-4---------|
--2-2-2-2-2-2-2-2-----------------|--2-2-2-2-2-2-2-2---------5-5-5-5-|


  S S S S S S S S S S S S S S S S    S S S S S S S S E.  E.  E   
----------------------------------|-----------------------------|
----------------------------------|-----------------------------|
----------------------------------|-----------------------------|
--------------------------4-4-4-4-|------------------6---4---2--|
------------------4-4-4-4---------|------------------4---2---0--|
--2-2-2-2-2-2-2-2-----------------|--2-2-2-2-2-2-2-2------------|


  S S S S S S S S S S S S S S S S    S S S S S S S S S S S S S S S S  
----------------------------------|----------------------------------|
----------------------------------|----------------------------------|
----------------------------------|----------------------------------|
--------------------------4-4-4-4-|----------------------------------|
------------------4-4-4-4---------|------------------4-4-4-4---------|
--2-2-2-2-2-2-2-2-----------------|--2-2-2-2-2-2-2-2---------5-5-5-5-|


  S S S S S S S S S S S S S S S S    S S S S S S S S E.  E.  E   
----------------------------------|-----------------------------|
----------------------------------|-----------------------------|
----------------------------------|-----------------------------|
--------------------------4-4-4-4-|------------------6---4---2--|
------------------4-4-4-4---------|------------------4---2---0--|
--2-2-2-2-2-2-2-2-----------------|--2-2-2-2-2-2-2-2------------|


  E  E  E  E  E  E  E  E     E  E  E  E  E  E  E  E   
--------------------------|--------------------------|
--------------------------|--------------------------|
--------------------------|--------------------------|
--------------------------|--------------------------|
--4--4--------5--------4--|--------5-----5--4--8--7--|
--2--2--0--0--3--0--0--2--|--0--0--3--0--3--2--6--5--|


  E  E  E  E  E  E  E  E     E  E  E  E  E  E  E  E   
--------------------------|--------------------------|
--------------------------|--------------------------|
--------------------------|--------------------------|
--------------------------|--------------------------|
--4--4--------5--------4--|--------5-----5--4--8--7--|
--2--2--0--0--3--0--0--2--|--0--0--3--0--3--2--6--5--|


  E  E  E  E  E  E  E  E     E  E  E  E  E  E  E  E   
--------------------------|--------------------------|
--------------------------|--------------------------|
--------------------------|--------------------------|
--------------------------|--------------------------|
--4--4--------5--------4--|--------5-----5--4--8--7--|
--2--2--0--0--3--0--0--2--|--0--0--3--0--3--2--6--5--|


  E  E  E  E  E  E  E  E     E  E  E  E  E  E  E  E   
--------------------------|--------------------------|
--------------------------|--------------------------|
--------------------------|--------------------------|
--------------------------|--------------------------|
--4--4--------5--------4--|--------5-----5--4--8--7--|
--2--2--0--0--3--0--0--2--|--0--0--3--0--3--2--6--5--|


  E  E  E  E  E  E  E  E     E  E  E  E  E  E  E  E   
--------------------------|--------------------------|
--------------------------|--------------------------|
--------------------------|--------------------------|
--------------------------|--------------------------|
--4--4--------5--------4--|--------5-----5--4--8--7--|
--2--2--0--0--3--0--0--2--|--0--0--3--0--3--2--6--5--|


  E  E  E  E  E  E  E  E     E  E  E  E  E  E  E  E     E  Q    E  Q    E  E   
--------------------------|--------------------------|------------------------|
--------------------------|--------------------------|------------------------|
--------------------------|--------------------------|------------------------|
--------------------------|--------------------------|------------------------|
--4--4--------5--------4--|--------5-----5--4--8--7--|-----4-------5-------4--|
--2--2--0--0--3--0--0--2--|--0--0--3--0--3--2--6--5--|--0--2----0--3----0--2--|


  E  E  Q    E  E  E  E     E  Q    E  Q    E  E     E  E  Q    E  E  E  E   
-------------------------|------------------------|-------------------------|
-------------------------|------------------------|-------------------------|
-------------------------|------------------------|-------------------------|
-------------------------|------------------------|-------------------------|
--L-----5----5--4--8--7--|-----4-------5-------4--|--L-----5----5--4--8--7--|
--L--0--3----3--2--6--5--|--0--2----0--3----0--2--|--L--0--3----3--2--6--5--|


  E  Q    E  Q    E  E     E  E  Q    E  E  E  E     E  Q    E  Q    E  E   
------------------------|-------------------------|------------------------|
------------------------|-------------------------|------------------------|
------------------------|-------------------------|------------------------|
------------------------|-------------------------|------------------------|
-----4-------5-------4--|--L-----5----5--4--8--7--|-----4-------5-------4--|
--0--2----0--3----0--2--|--L--0--3----3--2--6--5--|--0--2----0--3----0--2--|


  E  E  Q    E  E  E  E     E  E  Q    H          
-------------------------|----------------------||
-------------------------|----------------------||
-------------------------|----------------------||
-------------------------|----------------------||
--L-----5----5--4--8--7--|-----4----------------||
--L--0--3----3--2--6--5--|--0--2----------------||




Duration Legend
---------------
W - whole
H - half
Q - quarter
E - 8th
S - 16th
T - 32nd
X - 64th
. - note dotted
|-n-|  - n-tuplets


Tablature Legend
----------------
L - tied note
x - dead note
g - grace note
(n) - ghost note
> - accentuded note
NH - natural harmonic
AH - artificial harmonic
TH - tapped harmonic
SH - semi harmonic
PH - pitch harmonic
h - hammer on
p - pull off
b - bend
br - bendRelease
pb - preBend
pbr - preBendRelease
brb - bendReleaseBend
\n/ - tremolo bar dip
\n - tremolo bar dive
-/n - tremolo bar Release up
/n\ - tremolo bar inverted dip
/n - tremolo bar return
-\n - tremolo bar Release down
S - shift slide
s - legato slide
/ -  slide into from below or out of upwards
\ -  slide into from above or out of downwards
~ - vibrato
W - wide vibrato
tr - trill
TP - tremolo picking
T - tapping
S - slap
P - pop
< - fade in
^ - brush up
v - brush down
comments
We did not receive enough feedback on this tab! Please rate:
print report bad tab
1 2 3 4 5
I want to post or [tab]
guest
You may want to rate the tab now too:
select rating
Please do not post tabs as comments. Select "correction" instead!