Oops, an error
Loading. Please wait.

Killing On Adrenaline Bass Tab

ver1
ver1

Whole song

Interactive

More versions @911Tabs.com
1,073 views 3 this week
no commentswrite comment
1 2 3 4 5
please rate
Autoscroll
+/-
esc
set tempo
stop
Contributor
Hey! There's an official Ultimate Guitar app which is ideal
for learning songs when you're away from computer. Get the app
WARNING: You are trying to view
                                    content from Ultimate-Guitar.com
                                    in an unauthorized application,
                                    which is prohibited.

                                    Please use an official Ultimate
                                    Guitar Tabs application for iPhone,
                                    iPad or Android to access legitimate
                                    chords, guitar, bass, and drum tabs
                                    from Ultimate-Guitar.com database.

                                    Type "ultimate guitar tabs" in Apple
                                    App Store's or Android Market's
                                    search to find the application.
killing on adrenaline             
Dying Fetus
Jason Netherton




Tuning: C# F# B E



      T T S S T T S S T T S S T T S S E  E     W                 
E ||----------------------------------------|-------------------|
B ||----------------------------------------|-------------------|
F#||----------------------------------------|-------------------|
C#||--0-0-0---1-1-1---4-4-4---1-1-1---0-----|-------------------|


  T T S S S S S S S S S S S S S S S    T T S S S S S S S S S S S S S S S  
------------------------------------|------------------------------------|
------------------------------------|------------------------------------|
--4-7-4-------4-------2-----0-2-0---|--4-7-4-------4-------2-----0-2-0---|
--------0-2-0---0-2-0---0-0-------2-|--------0-2-0---0-2-0---0-0-------2-|


  T T S S S S S S S S S S S S S S S  
------------------------------------|
------------------------------------|
--4-7-4-------4-------2-----0-2-0---|
--------0-2-0---0-2-0---0-0-------2-|


  T T T S. T T T S. T T S T T T S. T T T S. T T S  
--------------------------------------------------|
--4-7-4-0--4-7-4-0--4-7-4-5-8-5-0--5-8-5-0--5-8-5-|
--------------------------------------------------|
--------------------------------------------------|


  T T S S S S S S S S S S S S S S S    T T S S S S S S S S S S S S S S S  
------------------------------------|------------------------------------|
------------------------------------|------------------------------------|
--4-7-4-------4-------2-----0-2-0---|--4-7-4-------4-------2-----0-2-0---|
--------0-2-0---0-2-0---0-0-------2-|--------0-2-0---0-2-0---0-0-------2-|


  T T S S S S S S S S S S S S S S S  
------------------------------------|
------------------------------------|
--4-7-4-------4-------2-----0-2-0---|
--------0-2-0---0-2-0---0-0-------2-|


  T T T S. T T T S. T T S T T T S. T T T S. T T S  
--------------------------------------------------|
--4-7-4-0--4-7-4-0--4-7-4-5-8-5-0--5-8-5-0--5-8-5-|
--------------------------------------------------|
--------------------------------------------------|


  T T S S S S S S S S S S S S S S S    T T S S S S S S S S S S S S S S S  
------------------------------------|------------------------------------|
------------------------------------|------------------------------------|
--4-7-4-------4-------2-----0-2-0---|--4-7-4-------4-------2-----0-2-0---|
--------0-2-0---0-2-0---0-0-------2-|--------0-2-0---0-2-0---0-0-------2-|


  T T S S S S S S S S S S S S S S S  
------------------------------------|
------------------------------------|
--4-7-4-------4-------2-----0-2-0---|
--------0-2-0---0-2-0---0-0-------2-|


  T T T S. T T T S. T T S T T T S. T T T S. T T S  
--------------------------------------------------|
--4-7-4-0--4-7-4-0--4-7-4-5-8-5-0--5-8-5-0--5-8-5-|
--------------------------------------------------|
--------------------------------------------------|


  T T S S S S S S S S S S S S S S S    T T S S S S S S S S S S S S S S S  
------------------------------------|------------------------------------|
------------------------------------|------------------------------------|
--4-7-4-------4-------2-----0-2-0---|--4-7-4-------4-------2-----0-2-0---|
--------0-2-0---0-2-0---0-0-------2-|--------0-2-0---0-2-0---0-0-------2-|


  T T S S S S S S S S S S S S S S S  
------------------------------------|
------------------------------------|
--4-7-4-------4-------2-----0-2-0---|
--------0-2-0---0-2-0---0-0-------2-|


  T T T S. T T T S. T T S T T T S. T T T S. T T S  
--------------------------------------------------|
--4-7-4-0--4-7-4-0--4-7-4-5-8-5-0--5-8-5-0--5-8-5-|
--------------------------------------------------|
--------------------------------------------------|


  S E  S E  S S S S S S S S S S    S E  S E  S S S S S S S S S S  
--------------------------------|--------------------------------|
--------------------------------|--------------------------------|
--------------------------------|--------------------------------|
--5-2--5-2--5-2-6-3-3-5-3-3-6-3-|--5-2--5-2--5-2-6-3-3-5-3-3-6-3-|


  S E  S E  S S S S S S S S S S    S E  S E  S S S S S S S S S S  
--------------------------------|--------------------------------|
--------------------------------|--------------------------------|
--------------------------------|--------------------------------|
--5-2--5-2--5-2-6-3-3-5-3-3-6-3-|--5-2--5-2--5-2-6-3-3-5-3-3-6-3-|


  S E  S E  S S S S S S S S S S    S E  S E  S S S S S S S S S S  
--------------------------------|--------------------------------|
--------------------------------|--------------------------------|
--------------------------------|--------------------------------|
--5-2--5-2--5-2-6-3-3-5-3-3-6-3-|--5-2--5-2--5-2-6-3-3-5-3-3-6-3-|


  S E  S E  S S S S S S S S S S    S E  S E  S S S S S S S S S S  
--------------------------------|--------------------------------|
--------------------------------|--------------------------------|
--------------------------------|--------------------------------|
--5-2--5-2--5-2-6-3-3-5-3-3-6-3-|--5-2--5-2--5-2-6-3-3-5-3-3-6-3-|


  E  Q    E  Q    E  E     E  E  Q    E  E  E  E     E  Q    E  Q    E  E   
------------------------|-------------------------|------------------------|
------------------------|-------------------------|------------------------|
------------------------|-------------------------|------------------------|
--2--1----0--4----0--2--|--L--0--5----0--0--0--0--|--2--1----0--4----0--2--|


  E  E  Q    E  E  E  E     E  Q    E  Q    E  E     E  E  Q    E  E  E  E   
-------------------------|------------------------|-------------------------|
-------------------------|------------------------|-------------------------|
-------------------------|------------------------|-------------------------|
--L--0--5----0--0--0--0--|--2--1----0--4----0--2--|--L--0--5----0--0--0--0--|


  E  Q    E  Q    E  E     E  E  Q    S S S S S S S S    Q     
------------------------|-----------------------------|-------|
------------------------|-----------------------------|-------|
------------------------|-----------------------------|-------|
--2--1----0--4----0--2--|--L--0--5----0-0-0-0-0-------|-------|


  E  Q    E  Q    E  E     E  E  Q    E  E  E  E     E  Q    E  Q    E  E   
------------------------|-------------------------|------------------------|
------------------------|-------------------------|------------------------|
------------------------|-------------------------|------------------------|
--2--1----0--4----0--2--|-----0--5----0--0--0--0--|--2--1----0--4----0--2--|


  E  E  Q    E  E  E  E     E  Q    E  Q    E  E     E  E  Q    E  E  E  E   
-------------------------|------------------------|-------------------------|
-------------------------|------------------------|-------------------------|
-------------------------|------------------------|-------------------------|
-----0--5----0--0--0--0--|--2--1----0--4----0--2--|-----0--5----0--0--0--0--|


  E  Q    E  Q    E  E     E  E  Q    E  E  E  E     E  Q    E  Q    E  E   
------------------------|-------------------------|------------------------|
------------------------|-------------------------|------------------------|
------------------------|-------------------------|------------------------|
--2--1----0--4----0--2--|-----0--5----0--0--0--0--|--2--1----0--4----0--2--|


  E  E  Q    E  E  E  E     E  Q    E  Q    E  E     E  E  Q    E  E  E  E   
-------------------------|------------------------|-------------------------|
-------------------------|------------------------|-------------------------|
-------------------------|------------------------|-------------------------|
--L--0--5----0--0--0--0--|--2--1----0--4----0--2--|--L--0--5----0--0--0--0--|


  E  Q    E  Q    E  E     E  E  Q    E  E  E  E     E  Q    E  Q    E  E   
------------------------|-------------------------|------------------------|
------------------------|-------------------------|------------------------|
------------------------|-------------------------|------------------------|
--2--1----0--4----0--2--|--L--0--5----0--0--0--0--|--2--1----0--4----0--2--|


  E  E  Q    E  E  E  S. T    S S S S S S S S S S S S S S S S  
---------------------------|----------------------------------|
---------------------------|----------------------------------|
---------------------------|----------1-2-1-2-----------------|
--L--0--5----0--0--0--9s-2-|--2-3-2-3---------2-3-2-3-1-2-1-2-|


  S S S S S S S S S S S S S S S S    S S S S S S S S S S S S S S S S  
----------------------------------|----------------------------------|
----------------------------------|----------------------------------|
----------1-2-1-2-----------------|----------1-2-1-2-----------------|
--2-3-2-3---------0-0-0---0-0-0---|--2-3-2-3---------2-3-2-3-1-2-1-2-|


  S S S S S S S S S S S S S S S S    S S S S S S S S S S S S S S S S  
----------------------------------|----------------------------------|
----------------------------------|----------------------------------|
----------1-2-1-2-----------------|----------1-2-1-2-----------------|
--2-3-2-3---------0-0-0---0-0-0---|--2-3-2-3---------2-3-2-3-1-2-1-2-|


  S S S S S S S S S S S S S S S S    S S S S S S S S S S S S S S S S  
----------------------------------|----------------------------------|
----------------------------------|----------------------------------|
----------1-2-1-2-----------------|----------1-2-1-2-----------------|
--2-3-2-3---------0-0-0---0-0-0---|--2-3-2-3---------2-3-2-3-1-2-1-2-|


  S S S S S S S S S S S S S S S S    S S S S S S S S S S S S S S S S  
----------------------------------|----------------------------------|
----------------------------------|----------------------------------|
----------1-2-1-2-----------------|----------------------------------|
--2-3-2-3---------0-0-0---0-0-0---|--2-3-2-3-2---5---6---5---2-3-2-3-|


  S S S S S S S S S S S S Q       S S S S S S S S S S S S S S S S  
-------------------------------|----------------------------------|
-------------------------------|----------------------------------|
-------------------------------|----------------------------------|
--2-3-2-3-2---5---6---5---3----|--2-3-2-3-2---5---6---5---2-3-2-3-|


  S S S S S S S S S S S S Q       S S S S S S S S S S S S S S S S  
-------------------------------|----------------------------------|
-------------------------------|----------------------------------|
-------------------------------|----------------------------------|
--2-3-2-3-2---5---6---5---3----|--2-3-2-3-2---5---6---5---2-3-2-3-|


  S S S S S S S S S S S S Q       S S S S S S S S S S S S S S S S  
-------------------------------|----------------------------------|
-------------------------------|----------------------------------|
-------------------------------|----------------------------------|
--2-3-2-3-2---5---6---5---3----|--2-3-2-3-2---5---6---5---2-3-2-3-|


  S S S S S S S S S S S S E.   S    S S S S S S S S S S S S S S S S  
---------------------------------|----------------------------------|
---------------------------------|----------------------------------|
---------------------------------|----------1-2-1-2-----------------|
--2-3-2-3-2---5---6---5---9s---2-|--2-3-2-3---------2-3-2-3-1-2-1-2-|


  S S S S S S S S S S S S S S S S    S S S S S S S S S S S S S S S S  
----------------------------------|----------------------------------|
----------------------------------|----------------------------------|
----------1-2-1-2-----------------|----------1-2-1-2-----------------|
--2-3-2-3---------0-0-0---0-0-0---|--2-3-2-3---------2-3-2-3-1-2-1-2-|


  S S S S S S S S S S S S S S S S    S S S S S S S S S S S S S S S S  
----------------------------------|----------------------------------|
----------------------------------|----------------------------------|
----------1-2-1-2-----------------|----------1-2-1-2-----------------|
--2-3-2-3---------0-0-0---0-0-0---|--2-3-2-3---------2-3-2-3-1-2-1-2-|


  S S S S S S S S S S S S S S S S    S S S S S S S S S S S S S S S S  
----------------------------------|----------------------------------|
----------------------------------|----------------------------------|
----------1-2-1-2-----------------|----------1-2-1-2-----------------|
--2-3-2-3---------0-0-0---0-0-0---|--2-3-2-3---------2-3-2-3-1-2-1-2-|


  S S S S S S S S S S S S S S S S    S S S S S S S S S S S S S S S S  
----------------------------------|----------------------------------|
----------------------------------|----------------------------------|
----------1-2-1-2-----------------|----------------------------------|
--2-3-2-3---------0-0-0---0-0-0---|--2-1-1---2-1-1-----2-1---5---5---|


  S S S S S S S S S S S S E   E     S S S S S S S S S S S S S S S S  
---------------------------------|----------------------------------|
---------------------------------|----------------------------------|
---------------------------------|----------------------------------|
--2-1-1---2-1-1-----2-1---3s--4--|--2-1-1---2-1-1-----2-1---4-5-4-5-|


  S S S S S S S S S S S S E   E     S S S S S S S S S S S S S S S S  
---------------------------------|----------------------------------|
---------------------------------|----------------------------------|
---------------------------------|----------------------------------|
--2-1-1---2-1-1-----2-1---3s--4--|--2-1-1---2-1-1-----2-1---4-5-4-5-|


  S S S S S S S S S S S S E   E     S S S S S S S S S S S S S S S S  
---------------------------------|----------------------------------|
---------------------------------|----------------------------------|
---------------------------------|----------------------------------|
--2-1-1---2-1-1-----2-1---3s--4--|--2-1-1---2-1-1-----2-1---4-5-4-5-|


  S S S S S S S S S S S S E   E     S S S S S S S S S S S S S S S S  
---------------------------------|----------------------------------|
---------------------------------|----------------------------------|
---------------------------------|----------------------------------|
--2-1-1---2-1-1-----2-1---3s--4--|--2-1-1---2-1-1-----2-1---4-5-4-5-|


  S S S S S S S S S S S S E   E     S S S S S S S S S S S S S S S S  
---------------------------------|----------------------------------|
---------------------------------|----------------------------------|
---------------------------------|----------------------------------|
--2-1-1---2-1-1-----2-1---3s--4--|--2-1-1---2-1-1-----2-1---4-5-4-5-|


  S S S S S S S S S S S S E   E     S S S S S S S S S S S S S S S S  
---------------------------------|----------------------------------|
---------------------------------|----------------------------------|
---------------------------------|----------------------------------|
--2-1-1---2-1-1-----2-1---3s--4--|--2-1-1---2-1-1-----2-1---4-5-4-5-|


  S S S S S S S S S S S S E   E     S S S S S S S S S S S S S S S S  
---------------------------------|----------------------------------|
---------------------------------|----------------------------------|
---------------------------------|----------------------------------|
--2-1-1---2-1-1-----2-1---3s--4--|--2-1-1---2-1-1-----2-1---4-5-4-5-|


  S S S S S S S S S S S S E   E          T T S S S S S S S S S S S S S S S  
---------------------------------|----|------------------------------------|
---------------------------------|----|------------------------------------|
---------------------------------|----|--4-7-4-------4-------2-----0-2-0---|
--2-1-1---2-1-1-----2-1---3s--4--|----|--------0-2-0---0-2-0---0-0-------2-|


  T T S S S S S S S S S S S S S S S    T T S S S S S S S S S S S S S S S  
------------------------------------|------------------------------------|
------------------------------------|------------------------------------|
--4-7-4-------4-------2-----0-2-0---|--4-7-4-------4-------2-----0-2-0---|
--------0-2-0---0-2-0---0-0-------2-|--------0-2-0---0-2-0---0-0-------2-|


  T T T S. T T T S. T T S T T T S. T T T S. T T S  
--------------------------------------------------|
--4-7-4-0--4-7-4-0--4-7-4-5-8-5-0--5-8-5-0--5-8-5-|
--------------------------------------------------|
--------------------------------------------------|


  T T S S S S S S S S S S S S S S S    T T S S S S S S S S S S S S S S S  
------------------------------------|------------------------------------|
------------------------------------|------------------------------------|
--4-7-4-------4-------2-----0-2-0---|--4-7-4-------4-------2-----0-2-0---|
--------0-2-0---0-2-0---0-0-------2-|--------0-2-0---0-2-0---0-0-------2-|


  T T S S S S S S S S S S S S S S S  
------------------------------------|
------------------------------------|
--4-7-4-------4-------2-----0-2-0---|
--------0-2-0---0-2-0---0-0-------2-|


  T T T S. T T T S. T T S T T T S. T T T S. T T S  
--------------------------------------------------|
--4-7-4-0--4-7-4-0--4-7-4-5-8-5-0--5-8-5-0--5-8-5-|
--------------------------------------------------|
--------------------------------------------------|


  T T S S S S S S S S S S S S S S S    T T S S S S S S S S S S S S S S S  
------------------------------------|------------------------------------|
------------------------------------|------------------------------------|
--4-7-4-------4-------2-----0-2-0---|--4-7-4-------4-------2-----0-2-0---|
--------0-2-0---0-2-0---0-0-------2-|--------0-2-0---0-2-0---0-0-------2-|


  T T S S S S S S S S S S S S S S S  
------------------------------------|
------------------------------------|
--4-7-4-------4-------2-----0-2-0---|
--------0-2-0---0-2-0---0-0-------2-|


  T T T S. T T T S. T T S T T T S. T T T S. T T S  
--------------------------------------------------|
--4-7-4-0--4-7-4-0--4-7-4-5-8-5-0--5-8-5-0--5-8-5-|
--------------------------------------------------|
--------------------------------------------------|


  T T S S S S S S S S S S S S S S S    T T S S S S S S S S S S S S S S S  
------------------------------------|------------------------------------|
------------------------------------|------------------------------------|
--4-7-4-------4-------2-----0-2-0---|--4-7-4-------4-------2-----0-2-0---|
--------0-2-0---0-2-0---0-0-------2-|--------0-2-0---0-2-0---0-0-------2-|


  T T S S S S S S S S S S S S S S S  
------------------------------------|
------------------------------------|
--4-7-4-------4-------2-----0-2-0---|
--------0-2-0---0-2-0---0-0-------2-|


  T T T S. T T T S. T T S T T T S. T T T S. T T S  
--------------------------------------------------|
--4-7-4-0--4-7-4-0--4-7-4-5-8-5-0--5-8-5-0--5-8-5-|
--------------------------------------------------|
--------------------------------------------------|


  S E  S E  S S S S S S S S S S    S E  S E  S S S S S S S S S S  
--------------------------------|--------------------------------|
--------------------------------|--------------------------------|
--------------------------------|--------------------------------|
--5-2--5-2--5-2-6-3-3-5-3-3-6-3-|--5-2--5-2--5-2-6-3-3-5-3-3-6-3-|


  S E  S E  S S S S S S S S S S    S E  S E  S S S S S S S S S S  
--------------------------------|--------------------------------|
--------------------------------|--------------------------------|
--------------------------------|--------------------------------|
--5-2--5-2--5-2-6-3-3-5-3-3-6-3-|--5-2--5-2--5-2-6-3-3-5-3-3-6-3-|


  S E  S E  S S S S S S S S S S    S E  S E  S S S S S S S S S S  
--------------------------------|--------------------------------|
--------------------------------|--------------------------------|
--------------------------------|--------------------------------|
--5-2--5-2--5-2-6-3-3-5-3-3-6-3-|--5-2--5-2--5-2-6-3-3-5-3-3-6-3-|


  S E  S E  S S S S S S S S S S    S E  S E  S S S S S S S S S S  
--------------------------------|--------------------------------|
--------------------------------|--------------------------------|
--------------------------------|--------------------------------|
--5-2--5-2--5-2-6-3-3-5-3-3-6-3-|--5-2--5-2--5-2-6-3-3-5-3-3-6-3-|


  S S E  H        S S S S    S S E  H        S S S S  
--------------------------|--------------------------|
--------------------------|--------------------------|
--------------------------|--------------------------|
--2---------------2-3-2-3-|--2---------------2-3-2-3-|


  S S E  H        S S S S    S S S S S S S S S S S S S S S S  
--------------------------|----------------------------------|
--------------------------|----------------------------------|
--------------------------|--------------1-----------1-------|
--2---------------2-3-2-3-|--3-----2-----------2---------3---|


  S S S S S S S S S S S S S S S S    S S S S S S S S S S S S S S S S  
----------------------------------|----------------------------------|
----------------------------------|----------------------------------|
--------1-----------1-------------|--------1-----------1-------------|
--2-3-0---0-0-2-3-0---0-0-2-3-2-3-|--2-3-0---0-0-2-3-0---0-0-2-3-2-3-|


  S S S S S S S S S S S S S S S S    S S S S S S S S S S S S S S S S  
----------------------------------|----------------------------------|
----------------------------------|----------------------------------|
--------1-----------1-------------|--------------1-----------1-------|
--2-3-0---0-0-2-3-0---0-0-2-3-2-3-|--3-----2-----------2---------3---|


  S S S S S S S S S S S S S S S S    S S S S S S S S S S S S S S S S  
----------------------------------|----------------------------------|
----------------------------------|----------------------------------|
--------1-----------1-------------|--------1-----------1-------------|
--2-3-0---0-0-2-3-0---0-0-2-3-2-3-|--2-3-0---0-0-2-3-0---0-0-2-3-2-3-|


  S S S S S S S S S S S S S S S S    S S S S S S S S S S S S S S S S  
----------------------------------|----------------------------------|
----------------------------------|----------------------------------|
--------1-----------1-------------|--------------1-----------1-------|
--2-3-0---0-0-2-3-0---0-0-2-3-2-3-|--3-----2-----------2---------3---|


  S S S S S S S S S S S S S S S S    S S S S S S S S S S S S S S S S  
----------------------------------|----------------------------------|
----------------------------------|----------------------------------|
--------1-----------1-------------|--------1-----------1-------------|
--2-3-0---0-0-2-3-0---0-0-2-3-2-3-|--2-3-0---0-0-2-3-0---0-0-2-3-2-3-|


  S S S S S S S S S S S S S S S S    S S S S S S S S S S S S S S S S  
----------------------------------|----------------------------------|
----------------------------------|----------------------------------|
--------1-----------1-------------|--------------1-----------1-------|
--2-3-0---0-0-2-3-0---0-0-2-3-2-3-|--3-----2-----------2---------3---|


  S S S S S S S S S S S S S S S S    S S S S S S S S S S S S S S S S  
----------------------------------|----------------------------------|
----------------------------------|----------------------------------|
--------1-----------1-------------|--------1-----------1-------------|
--2-3-0---0-0-2-3-0---0-0-2-3-2-3-|--2-3-0---0-0-2-3-0---0-0-2-3-2-3-|


  S S S S S S S S S S S S S S S S    S S S S S S S S S S S S S S S S  
----------------------------------|----------------------------------|
----------------------------------|----------------------------------|
--------1-----------1-------------|--------------1-----------1-------|
--2-3-0---0-0-2-3-0---0-0-2-3-2-3-|--3-----2-----------2---------3---|


  E  Q    E  Q    E  E     E  E  Q    E  E  E  E     E  Q    E  Q    E  E   
------------------------|-------------------------|------------------------|
------------------------|-------------------------|------------------------|
------------------------|-------------------------|------------------------|
--2--1----0--4----0--2--|--L--0--5----0--0--0--0--|--2--1----0--4----0--2--|


  E  E  Q    E  E  E  E     E  Q    E  Q    E  E     E  E  Q    E  E  E  E   
-------------------------|------------------------|-------------------------|
-------------------------|------------------------|-------------------------|
-------------------------|------------------------|-------------------------|
--L--0--5----0--0--0--0--|--2--1----0--4----0--2--|--L--0--5----0--0--0--0--|


  E  Q    E  Q    E  E     E  E  Q    S S S S S S S S    E  Q    E  Q    E  E   
------------------------|-----------------------------|------------------------|
------------------------|-----------------------------|------------------------|
------------------------|-----------------------------|------------------------|
--2--1----0--4----0--2--|--L--0--5----0-0-0-0-0-------|--2--1----0--4----0--2--|


  E  E  Q    E  E  E  E     E  Q    E  Q    E  E     E  E  Q    E  E  E  E   
-------------------------|------------------------|-------------------------|
-------------------------|------------------------|-------------------------|
-------------------------|------------------------|-------------------------|
-----0--5----0--0--0--0--|--2--1----0--4----0--2--|-----0--5----0--0--0--0--|


  E  Q    E  Q    E  E     E  E  Q    E  E  E  E     E  Q    E  Q    E  E   
------------------------|-------------------------|------------------------|
------------------------|-------------------------|------------------------|
------------------------|-------------------------|------------------------|
--2--1----0--4----0--2--|-----0--5----0--0--0--0--|--2--1----0--4----0--2--|


  E  E  Q    E  E  E  E     W                  
-------------------------|-------------------||
-------------------------|-------------------||
-------------------------|-------------------||
-----0--5----0--0--0--0--|--L----------------||




Duration Legend
---------------
W - whole
H - half
Q - quarter
E - 8th
S - 16th
T - 32nd
X - 64th
. - note dotted
|-n-|  - n-tuplets


Tablature Legend
----------------
L - tied note
x - dead note
g - grace note
(n) - ghost note
> - accentuded note
NH - natural harmonic
AH - artificial harmonic
TH - tapped harmonic
SH - semi harmonic
PH - pitch harmonic
h - hammer on
p - pull off
b - bend
br - bendRelease
pb - preBend
pbr - preBendRelease
brb - bendReleaseBend
\n/ - tremolo bar dip
\n - tremolo bar dive
-/n - tremolo bar Release up
/n\ - tremolo bar inverted dip
/n - tremolo bar return
-\n - tremolo bar Release down
S - shift slide
s - legato slide
/ -  slide into from below or out of upwards
\ -  slide into from above or out of downwards
~ - vibrato
W - wide vibrato
tr - trill
TP - tremolo picking
T - tapping
S - slap
P - pop
< - fade in
^ - brush up
v - brush down
comments
We did not receive enough feedback on this tab! Please rate:
print report bad tab
1 2 3 4 5
I want to post or [tab]
guest
You may want to rate the tab now too:
select rating
Please do not post tabs as comments. Select "correction" instead!