Oops, an error
Loading. Please wait.

Killing On Adrenaline Tab

ver1
ver1

Whole song

Interactive

More versions @911Tabs.com
1,419 views 3 this week
4 commentsread comments
1 2 3 4 5
excellent!
x 1
Autoscroll
+/-
esc
set tempo
stop
Contributor
Hey! There's an official Ultimate Guitar app which is ideal
for learning songs when you're away from computer. Get the app
WARNING: You are trying to view
                                    content from Ultimate-Guitar.com
                                    in an unauthorized application,
                                    which is prohibited.

                                    Please use an official Ultimate
                                    Guitar Tabs application for iPhone,
                                    iPad or Android to access legitimate
                                    chords, guitar, bass, and drum tabs
                                    from Ultimate-Guitar.com database.

                                    Type "ultimate guitar tabs" in Apple
                                    App Store's or Android Market's
                                    search to find the application.
killing on adrenaline                               
Dying Fetus
John Gallagher


Tuning: C# F# B E G# C#


                                    
      T                            T S S T T S S T T S S T T S S E  E   
C#||-------------------------------------------------------------------|
G#||-------------------------------------------------------------------|
E ||-------------------------------------------------------------------|
B ||-------------------------------------------------------------------|
F#||--2----------------------------2-2---3-3-3---6-6-6---3-3-3---2-----|
C#||--0----------------------------0-0---1-1-1---4-4-4---1-1-1---0-----|


  W                   T T S S S S S S S S S S S S S S S  
-------------------|------------------------------------|
-------------------|------------------------------------|
-------------------|------------------------------------|
-------------------|--------------6-------4-------------|
-------------------|--4-7-4---4---4---4---2-----0-2-0---|
-------------------|--------0-2-0---0-2-0---0-0-------2-|


  T T S S S S S S S S S S S S S S S    T T S S S S S S S S S S S S S S S  
------------------------------------|------------------------------------|
------------------------------------|------------------------------------|
------------------------------------|------------------------------------|
--------------6-------4-------------|--------------6-------4-------------|
--4-7-4---4---4---4---2-----0-2-0---|--4-7-4---4---4---4---2-----0-2-0---|
--------0-2-0---0-2-0---0-0-------2-|--------0-2-0---0-2-0---0-0-------2-|


  T T T S. T T T S. T T S T T T S. T T T S. T T S  
--------------------------------------------------|
--------------------------------------------------|
--------------------------------------------------|
--4-7-4-0--4-7-4-0--4-7-4-5-8-5-0--5-8-5-0--5-8-5-|
--------------------------------------------------|
--------------------------------------------------|


  S S S S S S S S S S S S S S S S    S S S S S S S S S S S S S S S S  
----------------------------------|----------------------------------|
----------------------------------|----------------------------------|
----------------------------------|----------------------------------|
--9-6-------6-------4-------------|--9-6-------6-------4-------------|
--7-4---4---4---4---2-----0-2-0---|--7-4---4---4---4---2-----0-2-0---|
------0-2-0---0-2-0---0-0-------2-|------0-2-0---0-2-0---0-0-------2-|


  S S S S S S S S S S S S S S S S  
----------------------------------|
----------------------------------|
----------------------------------|
--9-6-------6-------4-------------|
--7-4---4---4---4---2-----0-2-0---|
------0-2-0---0-2-0---0-0-------2-|


  T T T S. T T T S. T T S T T T S. T T T S. T T S  
--------------------------------------------------|
--------------------------------------------------|
--------------------------------------------------|
--4-7-4-0--4-7-4-0--4-7-4-5-8-5-0--5-8-5-0--5-8-5-|
--------------------------------------------------|
--------------------------------------------------|


  S S S S S S S S S S S S S S S S    S S S S S S S S S S S S S S S S  
----------------------------------|----------------------------------|
----------------------------------|----------------------------------|
----------------------------------|----------------------------------|
--9-6-------6-------4-------------|--9-6-------6-------4-------------|
--7-4---4---4---4---2-----0-2-0---|--7-4---4---4---4---2-----0-2-0---|
------0-2-0---0-2-0---0-0-------2-|------0-2-0---0-2-0---0-0-------2-|


  S S S S S S S S S S S S S S S S  
----------------------------------|
----------------------------------|
----------------------------------|
--9-6-------6-------4-------------|
--7-4---4---4---4---2-----0-2-0---|
------0-2-0---0-2-0---0-0-------2-|


  T T T S. T T T S. T T S T T T S. T T T S. T T S  
--------------------------------------------------|
--------------------------------------------------|
--------------------------------------------------|
--4-7-4-0--4-7-4-0--4-7-4-5-8-5-0--5-8-5-0--5-8-5-|
--------------------------------------------------|
--------------------------------------------------|


  S S S S S S S S S S S S S S S S    S S S S S S S S S S S S S S S S  
----------------------------------|----------------------------------|
----------------------------------|----------------------------------|
----------------------------------|----------------------------------|
--9-6-------6-------4-------------|--9-6-------6-------4-------------|
--7-4---4---4---4---2-----0-2-0---|--7-4---4---4---4---2-----0-2-0---|
------0-2-0---0-2-0---0-0-------2-|------0-2-0---0-2-0---0-0-------2-|


  S S S S S S S S S S S S S S S S  
----------------------------------|
----------------------------------|
----------------------------------|
--9-6-------6-------4-------------|
--7-4---4---4---4---2-----0-2-0---|
------0-2-0---0-2-0---0-0-------2-|


  T T T S. T T T S. T T S T T T S. T T T S. T T S  
--------------------------------------------------|
--------------------------------------------------|
--------------------------------------------------|
--4-7-4-0--4-7-4-0--4-7-4-5-8-5-0--5-8-5-0--5-8-5-|
--------------------------------------------------|
--------------------------------------------------|


    E.       E.       E     S S S S S S S S  
--------------------------------------------|
--------------------------------------------|
--------------------------------------------|
--------------------------------------------|
--<>4pbr---<>4pbr---<>4pbr--8-5-5-7-5-5-8-5-|
----------------------------6-3-3-5-3-3-6-3-|


    E.       E.       E     S S S S S S S S  
--------------------------------------------|
--------------------------------------------|
--------------------------------------------|
--------------------------------------------|
--<>4pbr---<>4pbr---<>4pbr--8-5-5-7-5-5-8-5-|
----------------------------6-3-3-5-3-3-6-3-|


    E.       E.       E     S S S S S S S S  
--------------------------------------------|
--------------------------------------------|
--------------------------------------------|
--------------------------------------------|
--<>4pbr---<>4pbr---<>4pbr--8-5-5-7-5-5-8-5-|
----------------------------6-3-3-5-3-3-6-3-|


    E.       E.       E     S S S S S S S S  
--------------------------------------------|
--------------------------------------------|
--------------------------------------------|
--------------------------------------------|
--<>4pbr---<>4pbr---<>4pbr--8-5-5-7-5-5-8-5-|
----------------------------6-3-3-5-3-3-6-3-|


   T T T T  S  T T T T  S  T T T T  T T T T  S  T T T T  S  T T T T  
--------------------------------------------------------------------|
-------7-----------7-----------7--------8-----------8-----------8---|
-----8---8-------8---8-------8---8----9---9-------9---9-------9---9-|
--10-------10-10-------10-10-------11-------11-11-------11-11-------|
--------------------------------------------------------------------|
--------------------------------------------------------------------|


   T T T T  S  T T T T  S  T T T T  T T T T  S  T T T T  S  T T T T  
--------------------------------------------------------------------|
-------7-----------7-----------7--------8-----------8-----------8---|
-----8---8-------8---8-------8---8----9---9-------9---9-------9---9-|
--10-------10-10-------10-10-------11-------11-11-------11-11-------|
--------------------------------------------------------------------|
--------------------------------------------------------------------|


   T T T T  S  T T T T  S  T T T T  T T T T  S  T T T T  S  T T T T  
--------------------------------------------------------------------|
-------7-----------7-----------7--------8-----------8-----------8---|
-----8---8-------8---8-------8---8----9---9-------9---9-------9---9-|
--10-------10-10-------10-10-------11-------11-11-------11-11-------|
--------------------------------------------------------------------|
--------------------------------------------------------------------|


   T T T T  S  T T T T  S  T T T T  T T T T  S  T T T T  S  T T T T  
--------------------------------------------------------------------|
-------7-----------7-----------7--------8-----------8-----------8---|
-----8---8-------8---8-------8---8----9---9-------9---9-------9---9-|
--10-------10-10-------10-10-------11-------11-11-------11-11-------|
--------------------------------------------------------------------|
--------------------------------------------------------------------|


  E  Q    E  Q    E  E     E  E  Q    E  E  E  E     E  Q    E  Q    E  E   
------------------------|-------------------------|------------------------|
------------------------|-------------------------|------------------------|
------------------------|-------------------------|------------------------|
------------------------|-------------------------|------------------------|
--4--3----2--6----2--4--|--L--2--7----2--2--2--2--|--4--3----2--6----2--4--|
--2--1----0--4----0--2--|--L--0--5----0--0--0--0--|--2--1----0--4----0--2--|


  E  E  Q    E  E  E  E     E  Q    E  Q    E  E     E  E  Q    E  E  E  E   
-------------------------|------------------------|-------------------------|
-------------------------|------------------------|-------------------------|
-------------------------|------------------------|-------------------------|
-------------------------|------------------------|-------------------------|
--L--2--7----2--2--2--2--|--4--3----2--6----2--4--|--L--2--7----2--2--2--2--|
--L--0--5----0--0--0--0--|--2--1----0--4----0--2--|--L--0--5----0--0--0--0--|


  E  Q    E  Q    E  E     E  E  Q    E  T T T T E  E     Q     
------------------------|------------------------------|-------|
------------------------|------------------------------|-------|
------------------------|------------------------------|-------|
------------------------|------------------------------|-------|
--4--3----2--6----2--4--|--L--2--7---------------2-----|-------|
--2--1----0--4----0--2--|--L--0--5----5--0-0-0-0-0-----|-------|


  E  Q    E  Q    E  E     E  E  Q    E  E  E  E     E  Q    E  Q    E  E   
------------------------|-------------------------|------------------------|
------------------------|-------------------------|------------------------|
------------------------|-------------------------|------------------------|
------------------------|-------------------------|------------------------|
--4--3----2--6----2--4--|-----2--7----2--2--2--2--|--4--3----2--6----2--4--|
--2--1----0--4----0--2--|-----0--5----0--0--0--0--|--2--1----0--4----0--2--|


  E  E  Q    E  E  E  E     E  Q    E  Q    E  E     E  E  Q    E  E  E  E   
-------------------------|------------------------|-------------------------|
-------------------------|------------------------|-------------------------|
-------------------------|------------------------|-------------------------|
-------------------------|------------------------|-------------------------|
-----2--7----2--2--2--2--|--4--3----2--6----2--4--|-----2--7----2--2--2--2--|
-----0--5----0--0--0--0--|--2--1----0--4----0--2--|-----0--5----0--0--0--0--|


  E  Q    E  Q    E  E     E  E  Q    E  E  E  E     E  Q    E  Q    E  E   
------------------------|-------------------------|------------------------|
------------------------|-------------------------|------------------------|
------------------------|-------------------------|------------------------|
------------------------|-------------------------|------------------------|
--4--3----2--6----2--4--|-----2--7----2--2--2--2--|--4--3----2--6----2--4--|
--2--1----0--4----0--2--|-----0--5----0--0--0--0--|--2--1----0--4----0--2--|


  E  E  Q    E  E  E  E     E  Q    E  Q    E  E     E  E  Q    E  E  E  E   
-------------------------|------------------------|-------------------------|
-------------------------|------------------------|-------------------------|
-------------------------|------------------------|-------------------------|
-------------------------|------------------------|-------------------------|
--L--2--7----2--2--2--2--|--4--3----2--6----2--4--|--L--2--7----2--2--2--2--|
--L--0--5----0--0--0--0--|--2--1----0--4----0--2--|--L--0--5----0--0--0--0--|


  E  Q    E  Q    E  E     E  E  Q    E  E  E  E     E  Q    E  Q    E  E   
------------------------|-------------------------|------------------------|
------------------------|-------------------------|------------------------|
------------------------|-------------------------|------------------------|
------------------------|-------------------------|------------------------|
--4--3----2--6----2--4--|--L--2--7----2--2--2--2--|--4--3----2--6----2--4--|
--2--1----0--4----0--2--|--L--0--5----0--0--0--0--|--2--1----0--4----0--2--|


  E  E  Q    E  E  E  S. T    S  S  S  S S  S  S  S S  S  S  S S  S  S  S  
---------------------------|----------------------------------------------|
---------------------------|----------------------------------------------|
---------------------------|----------------------------------------------|
---------------------------|-------------3S-4S-3S-4-----------------------|
--L--2--7----2--2--2--9s-2-|--4S-5S-4S-5-1S-2S-1S-2-4S-5S-4S-5-3S-4S-3S-4-|
--L--0--5----0--0--0--9s-2-|--2S-3S-2S-3------------2S-3S-2S-3-1S-2S-1S-2-|


                          NH  NH  NH    NH  NH  NH   
  S  S  S  S S  S  S  S   S   S   S S   S   S   S S  
----------------------------------------------------|
------------------------<>5-----------<>5-----------|
----------------------------<>5-----------<>5-------|
-------------3S-4S-3S-4---------<>5-L---------<>5-L-|
--4S-5S-4S-5-1S-2S-1S-2-----------------------------|
--2S-3S-2S-3----------------------------------------|


  S  S  S  S S  S  S  S S  S  S  S S  S  S  S  
----------------------------------------------|
----------------------------------------------|
----------------------------------------------|
-------------3S-4S-3S-4-----------------------|
--4S-5S-4S-5-1S-2S-1S-2-4S-5S-4S-5-3S-4S-3S-4-|
--2S-3S-2S-3------------2S-3S-2S-3-1S-2S-1S-2-|


                          NH  NH  NH    NH  NH  NH   
  S  S  S  S S  S  S  S   S   S   S S   S   S   S S  
----------------------------------------------------|
------------------------<>5-----------<>5-----------|
----------------------------<>5-----------<>5-------|
-------------3S-4S-3S-4---------<>5-L---------<>5-L-|
--4S-5S-4S-5-1S-2S-1S-2-----------------------------|
--2S-3S-2S-3----------------------------------------|


  S  S  S  S S  S  S  S S  S  S  S S  S  S  S  
----------------------------------------------|
----------------------------------------------|
----------------------------------------------|
-------------3S-4S-3S-4-----------------------|
--4S-5S-4S-5-1S-2S-1S-2-4S-5S-4S-5-3S-4S-3S-4-|
--2S-3S-2S-3------------2S-3S-2S-3-1S-2S-1S-2-|


                          NH  NH  NH    NH  NH  NH   
  S  S  S  S S  S  S  S   S   S   S S   S   S   S S  
----------------------------------------------------|
------------------------<>5-----------<>5-----------|
----------------------------<>5-----------<>5-------|
-------------3S-4S-3S-4---------<>5-L---------<>5-L-|
--4S-5S-4S-5-1S-2S-1S-2-----------------------------|
--2S-3S-2S-3----------------------------------------|


  S  S  S  S S  S  S  S S  S  S  S S  S  S  S  
----------------------------------------------|
----------------------------------------------|
----------------------------------------------|
-------------3S-4S-3S-4-----------------------|
--4S-5S-4S-5-1S-2S-1S-2-4S-5S-4S-5-3S-4S-3S-4-|
--2S-3S-2S-3------------2S-3S-2S-3-1S-2S-1S-2-|


                          NH  NH  NH    NH  NH  NH   
  S  S  S  S S  S  S  S   S   S   S S   S   S   S S  
----------------------------------------------------|
------------------------<>5-----------<>5-----------|
----------------------------<>5-----------<>5-------|
-------------3S-4S-3S-4---------<>5-L---------<>5-L-|
--4S-5S-4S-5-1S-2S-1S-2-----------------------------|
--2S-3S-2S-3----------------------------------------|


  S  S  S  S S S S S S S S S S  S  S  S    S  S  S  S S S S S S S S S Q     
----------------------------------------|----------------------------------|
----------------------------------------|----------------------------------|
----------------------------------------|----------------------------------|
----------------------------------------|----------------------------------|
--4S-5S-4S-5-4---7---8---7--------------|--4S-5S-4S-5-4---7---8---7---5----|
--2S-3S-2S-3-2---5---6---5---2h-3p-2h-3-|--2S-3S-2S-3-2---5---6---5---3----|


                                                                        PH     
  S  S  S  S S S S S S S S S S  S  S  S    S  S  S  S S S S S S S S S   Q      
----------------------------------------|-------------------------------------|
----------------------------------------|-------------------------------------|
----------------------------------------|-------------------------------------|
----------------------------------------|-------------------------------------|
--4S-5S-4S-5-4---7---8---7--------------|--4S-5S-4S-5-4---7---8---7-----------|
--2S-3S-2S-3-2---5---6---5---2h-3p-2h-3-|--2S-3S-2S-3-2---5---6---5---<>3~----|


  S  S  S  S S S S S S S S S S  S  S  S    S  S  S  S S S S S S S S S Q     
----------------------------------------|----------------------------------|
----------------------------------------|----------------------------------|
----------------------------------------|----------------------------------|
----------------------------------------|----------------------------------|
--4S-5S-4S-5-4---7---8---7--------------|--4S-5S-4S-5-4---7---8---7---5----|
--2S-3S-2S-3-2---5---6---5---2h-3p-2h-3-|--2S-3S-2S-3-2---5---6---5---3----|


  S  S  S  S S S S S S S S S S  S  S  S    S  S  S  S S S S S S S S S E.   S  
----------------------------------------|------------------------------------|
----------------------------------------|------------------------------------|
----------------------------------------|------------------------------------|
----------------------------------------|------------------------------------|
--4S-5S-4S-5-4---7---8---7--------------|--4S-5S-4S-5-4---7---8---7---9s---2-|
--2S-3S-2S-3-2---5---6---5---2h-3p-2h-3-|--2S-3S-2S-3-2---5---6---5---9s---2-|


  S  S  S  S S  S  S  S S  S  S  S S  S  S  S  
----------------------------------------------|
----------------------------------------------|
----------------------------------------------|
-------------3S-4S-3S-4-----------------------|
--4S-5S-4S-5-1S-2S-1S-2-4S-5S-4S-5-3S-4S-3S-4-|
--2S-3S-2S-3------------2S-3S-2S-3-1S-2S-1S-2-|


                          NH  NH  NH    NH  NH  NH   
  S  S  S  S S  S  S  S   S   S   S S   S   S   S S  
----------------------------------------------------|
------------------------<>5-----------<>5-----------|
----------------------------<>5-----------<>5-------|
-------------3S-4S-3S-4---------<>5-L---------<>5-L-|
--4S-5S-4S-5-1S-2S-1S-2-----------------------------|
--2S-3S-2S-3----------------------------------------|


  S  S  S  S S  S  S  S S  S  S  S S  S  S  S  
----------------------------------------------|
----------------------------------------------|
----------------------------------------------|
-------------3S-4S-3S-4-----------------------|
--4S-5S-4S-5-1S-2S-1S-2-4S-5S-4S-5-3S-4S-3S-4-|
--2S-3S-2S-3------------2S-3S-2S-3-1S-2S-1S-2-|


                          NH  NH  NH    NH  NH  NH   
  S  S  S  S S  S  S  S   S   S   S S   S   S   S S  
----------------------------------------------------|
------------------------<>5-----------<>5-----------|
----------------------------<>5-----------<>5-------|
-------------3S-4S-3S-4---------<>5-L---------<>5-L-|
--4S-5S-4S-5-1S-2S-1S-2-----------------------------|
--2S-3S-2S-3----------------------------------------|


  S  S  S  S S  S  S  S S  S  S  S S  S  S  S  
----------------------------------------------|
----------------------------------------------|
----------------------------------------------|
-------------3S-4S-3S-4-----------------------|
--4S-5S-4S-5-1S-2S-1S-2-4S-5S-4S-5-3S-4S-3S-4-|
--2S-3S-2S-3------------2S-3S-2S-3-1S-2S-1S-2-|


                          NH  NH  NH    NH  NH  NH   
  S  S  S  S S  S  S  S   S   S   S S   S   S   S S  
----------------------------------------------------|
------------------------<>5-----------<>5-----------|
----------------------------<>5-----------<>5-------|
-------------3S-4S-3S-4---------<>5-L---------<>5-L-|
--4S-5S-4S-5-1S-2S-1S-2-----------------------------|
--2S-3S-2S-3----------------------------------------|


  S  S  S  S S  S  S  S S  S  S  S S  S  S  S  
----------------------------------------------|
----------------------------------------------|
----------------------------------------------|
-------------3S-4S-3S-4-----------------------|
--4S-5S-4S-5-1S-2S-1S-2-4S-5S-4S-5-3S-4S-3S-4-|
--2S-3S-2S-3------------2S-3S-2S-3-1S-2S-1S-2-|


                          NH  NH  NH    NH  NH  NH                       
  S  S  S  S S  S  S  S   S   S   S S   S   S   S S    W                 
----------------------------------------------------|-------------------|
------------------------<>5-----------<>5-----------|-------------------|
----------------------------<>5-----------<>5-------|-------------------|
-------------3S-4S-3S-4---------<>5-L---------<>5-L-|-------------------|
--4S-5S-4S-5-1S-2S-1S-2-----------------------------|-------------------|
--2S-3S-2S-3----------------------------------------|-------------------|


  S S S S S S S S S S S S E   E      S S S S S S S S S S S S S  S  S  S  
----------------------------------|-------------------------------------|
----------------------------------|-------------------------------------|
----------------------------------|-------------------------------------|
----------------------------------|-------------------------------------|
--4-3-3---4-3-3-----4-3---5s--6~--|--4-3-3---4-3-3-----4-3---6S-7S-6S-7-|
--2-1-1---2-1-1-----2-1---3s--4~--|--2-1-1---2-1-1-----2-1---4S-5S-4S-5-|


  S S S S S S S S S S S S E   E      S S S S S S S S S S S S S  S  S  S  
----------------------------------|-------------------------------------|
----------------------------------|-------------------------------------|
----------------------------------|-------------------------------------|
----------------------------------|-------------------------------------|
--4-3-3---4-3-3-----4-3---5s--6~--|--4-3-3---4-3-3-----4-3---6S-7S-6S-7-|
--2-1-1---2-1-1-----2-1---3s--4~--|--2-1-1---2-1-1-----2-1---4S-5S-4S-5-|


  S S S S S S S S S S S S E   E      S S S S S S S S S S S S S  S  S  S  
----------------------------------|-------------------------------------|
----------------------------------|-------------------------------------|
----------------------------------|-------------------------------------|
----------------------------------|-------------------------------------|
--4-3-3---4-3-3-----4-3---5s--6~--|--4-3-3---4-3-3-----4-3---6S-7S-6S-7-|
--2-1-1---2-1-1-----2-1---3s--4~--|--2-1-1---2-1-1-----2-1---4S-5S-4S-5-|


  S S S S S S S S S S S S E   E      S S S S S S S S S S S S S  S  S  S  
----------------------------------|-------------------------------------|
----------------------------------|-------------------------------------|
----------------------------------|-------------------------------------|
----------------------------------|-------------------------------------|
--4-3-3---4-3-3-----4-3---5s--6~--|--4-3-3---4-3-3-----4-3---6S-7S-6S-7-|
--2-1-1---2-1-1-----2-1---3s--4~--|--2-1-1---2-1-1-----2-1---4S-5S-4S-5-|


  S S S S S S S S S S S S E   E      S S S S S S S S S S S S S  S  S  S  
----------------------------------|-------------------------------------|
----------------------------------|-------------------------------------|
----------------------------------|-------------------------------------|
----------------------------------|-------------------------------------|
--4-3-3---4-3-3-----4-3---5s--6~--|--4-3-3---4-3-3-----4-3---6S-7S-6S-7-|
--2-1-1---2-1-1-----2-1---3s--4~--|--2-1-1---2-1-1-----2-1---4S-5S-4S-5-|


  S S S S S S S S S S S S E   E      S S S S S S S S S S S S S  S  S  S  
----------------------------------|-------------------------------------|
----------------------------------|-------------------------------------|
----------------------------------|-------------------------------------|
----------------------------------|-------------------------------------|
--4-3-3---4-3-3-----4-3---5s--6~--|--4-3-3---4-3-3-----4-3---6S-7S-6S-7-|
--2-1-1---2-1-1-----2-1---3s--4~--|--2-1-1---2-1-1-----2-1---4S-5S-4S-5-|


  S S S S S S S S S S S S E   E      S S S S S S S S S S S S S  S  S  S  
----------------------------------|-------------------------------------|
----------------------------------|-------------------------------------|
----------------------------------|-------------------------------------|
----------------------------------|-------------------------------------|
--4-3-3---4-3-3-----4-3---5s--6~--|--4-3-3---4-3-3-----4-3---6S-7S-6S-7-|
--2-1-1---2-1-1-----2-1---3s--4~--|--2-1-1---2-1-1-----2-1---4S-5S-4S-5-|


  S S S S S S S S S S S S E   E            T T S S S S S S S S S S S S S S S  
----------------------------------|-----|------------------------------------|
----------------------------------|-----|------------------------------------|
----------------------------------|-----|------------------------------------|
----------------------------------|-----|--------------6-------4-------------|
--4-3-3---4-3-3-----4-3---5s--6~--|-----|--4-7-4---4---4---4---2-----0-2-0---|
--2-1-1---2-1-1-----2-1---3s--4~--|-----|--------0-2-0---0-2-0---0-0-------2-|


  T T S S S S S S S S S S S S S S S    T T S S S S S S S S S S S S S S S  
------------------------------------|------------------------------------|
------------------------------------|------------------------------------|
------------------------------------|------------------------------------|
--------------6-------4-------------|--------------6-------4-------------|
--4-7-4---4---4---4---2-----0-2-0---|--4-7-4---4---4---4---2-----0-2-0---|
--------0-2-0---0-2-0---0-0-------2-|--------0-2-0---0-2-0---0-0-------2-|


  T T T S. T T T S. T T S T T T S. T T T S. T T S  
--------------------------------------------------|
--------------------------------------------------|
--------------------------------------------------|
--4-7-4-0--4-7-4-0--4-7-4-5-8-5-0--5-8-5-0--5-8-5-|
--------------------------------------------------|
--------------------------------------------------|


  S S S S S S S S S S S S S S S S    S S S S S S S S S S S S S S S S  
----------------------------------|----------------------------------|
----------------------------------|----------------------------------|
----------------------------------|----------------------------------|
--9-6-------6-------4-------------|--9-6-------6-------4-------------|
--7-4---4---4---4---2-----0-2-0---|--7-4---4---4---4---2-----0-2-0---|
------0-2-0---0-2-0---0-0-------2-|------0-2-0---0-2-0---0-0-------2-|


  S S S S S S S S S S S S S S S S  
----------------------------------|
----------------------------------|
----------------------------------|
--9-6-------6-------4-------------|
--7-4---4---4---4---2-----0-2-0---|
------0-2-0---0-2-0---0-0-------2-|


  T T T S. T T T S. T T S T T T S. T T T S. T T S  
--------------------------------------------------|
--------------------------------------------------|
--------------------------------------------------|
--4-7-4-0--4-7-4-0--4-7-4-5-8-5-0--5-8-5-0--5-8-5-|
--------------------------------------------------|
--------------------------------------------------|


  S S S S S S S S S S S S S S S S    S S S S S S S S S S S S S S S S  
----------------------------------|----------------------------------|
----------------------------------|----------------------------------|
----------------------------------|----------------------------------|
--9-6-------6-------4-------------|--9-6-------6-------4-------------|
--7-4---4---4---4---2-----0-2-0---|--7-4---4---4---4---2-----0-2-0---|
------0-2-0---0-2-0---0-0-------2-|------0-2-0---0-2-0---0-0-------2-|


  S S S S S S S S S S S S S S S S  
----------------------------------|
----------------------------------|
----------------------------------|
--9-6-------6-------4-------------|
--7-4---4---4---4---2-----0-2-0---|
------0-2-0---0-2-0---0-0-------2-|


  T T T S. T T T S. T T S T T T S. T T T S. T T S  
--------------------------------------------------|
--------------------------------------------------|
--------------------------------------------------|
--4-7-4-0--4-7-4-0--4-7-4-5-8-5-0--5-8-5-0--5-8-5-|
--------------------------------------------------|
--------------------------------------------------|


  S S S S S S S S S S S S S S S S    S S S S S S S S S S S S S S S S  
----------------------------------|----------------------------------|
----------------------------------|----------------------------------|
----------------------------------|----------------------------------|
--9-6-------6-------4-------------|--9-6-------6-------4-------------|
--7-4---4---4---4---2-----0-2-0---|--7-4---4---4---4---2-----0-2-0---|
------0-2-0---0-2-0---0-0-------2-|------0-2-0---0-2-0---0-0-------2-|


  S S S S S S S S S S S S S S S S  
----------------------------------|
----------------------------------|
----------------------------------|
--9-6-------6-------4-------------|
--7-4---4---4---4---2-----0-2-0---|
------0-2-0---0-2-0---0-0-------2-|


  T T T S. T T T S. T T S T T T S. T T T S. T T S  
--------------------------------------------------|
--------------------------------------------------|
--------------------------------------------------|
--4-7-4-0--4-7-4-0--4-7-4-5-8-5-0--5-8-5-0--5-8-5-|
--------------------------------------------------|
--------------------------------------------------|


    E.       E.       E     S S S S S S S S  
--------------------------------------------|
--------------------------------------------|
--------------------------------------------|
--------------------------------------------|
--<>4pbr---<>4pbr---<>4pbr--8-5-5-7-5-5-8-5-|
----------------------------6-3-3-5-3-3-6-3-|


    E.       E.       E     S S S S S S S S  
--------------------------------------------|
--------------------------------------------|
--------------------------------------------|
--------------------------------------------|
--<>4pbr---<>4pbr---<>4pbr--8-5-5-7-5-5-8-5-|
----------------------------6-3-3-5-3-3-6-3-|


    E.       E.       E     S S S S S S S S  
--------------------------------------------|
--------------------------------------------|
--------------------------------------------|
--------------------------------------------|
--<>4pbr---<>4pbr---<>4pbr--8-5-5-7-5-5-8-5-|
----------------------------6-3-3-5-3-3-6-3-|


    E.       E.       E     S S S S S S S S  
--------------------------------------------|
--------------------------------------------|
--------------------------------------------|
--------------------------------------------|
--<>4pbr---<>4pbr---<>4pbr--8-5-5-7-5-5-8-5-|
----------------------------6-3-3-5-3-3-6-3-|


   T T T T  S  T T T T  S  T T T T  T T T T  S  T T T T  S  T T T T  
--------------------------------------------------------------------|
-------7-----------7-----------7--------8-----------8-----------8---|
-----8---8-------8---8-------8---8----9---9-------9---9-------9---9-|
--10-------10-10-------10-10-------11-------11-11-------11-11-------|
--------------------------------------------------------------------|
--------------------------------------------------------------------|


   T T T T  S  T T T T  S  T T T T  T T T T  S  T T T T  S  T T T T  
--------------------------------------------------------------------|
-------7-----------7-----------7--------8-----------8-----------8---|
-----8---8-------8---8-------8---8----9---9-------9---9-------9---9-|
--10-------10-10-------10-10-------11-------11-11-------11-11-------|
--------------------------------------------------------------------|
--------------------------------------------------------------------|


   T T T T  S  T T T T  S  T T T T  T T T T  S  T T T T  S  T T T T  
--------------------------------------------------------------------|
-------7-----------7-----------7--------8-----------8-----------8---|
-----8---8-------8---8-------8---8----9---9-------9---9-------9---9-|
--10-------10-10-------10-10-------11-------11-11-------11-11-------|
--------------------------------------------------------------------|
--------------------------------------------------------------------|


   T T T T  S  T T T T  S  T T T T  T T T T  S  T T T T  S  T T T T  
--------------------------------------------------------------------|
-------7-----------7-----------7--------8-----------8-----------8---|
-----8---8-------8---8-------8---8----9---9-------9---9-------9---9-|
--10-------10-10-------10-10-------11-------11-11-------11-11-------|
--------------------------------------------------------------------|
--------------------------------------------------------------------|


  S S E  Q    Q    S  S  S  S    S S E  Q    Q    S  S  S  S  
------------------------------|------------------------------|
------------------------------|------------------------------|
------------------------------|------------------------------|
------------------------------|------------------------------|
--4----------------4S-5S-4S-5-|--4----------------4S-5S-4S-5-|
--2----------------2S-3S-2S-3-|--2----------------2S-3S-2S-3-|


  S S E  Q    Q    E.   S    S S S S S S S S S S S S S S S S  
--------------------------|----------------------------------|
--------------------------|----------------------------------|
--------------------------|----------------------------------|
--------------------------|--------------3-----------3-------|
--4----------------9S---5-|--5-----4-----1-----4-----1---5---|
--2----------------9S---3-|--3-----2-----------2---------3---|


  S  S S S S S S  S S S S S S  S  S  S    S  S S S S S S  S S S S S S  S  S  S  
---------------------------------------|---------------------------------------|
---------------------------------------|---------------------------------------|
---------------------------------------|---------------------------------------|
---------3------------3----------------|---------3------------3----------------|
--4S-5---1-----4S-5---1-----4S-5S-4S-5-|--4S-5---1-----4S-5---1-----4S-5S-4S-5-|
--2S-3-0---0-0-2S-3-0---0-0-2S-3S-2S-3-|--2S-3-0---0-0-2S-3-0---0-0-2S-3S-2S-3-|


  S  S S S S S S  S S S S S S  S  S  S    S S S S S S S S S S S S S S S S  
---------------------------------------|----------------------------------|
---------------------------------------|----------------------------------|
---------------------------------------|----------------------------------|
---------3------------3----------------|--------------3-----------3-------|
--4S-5---1-----4S-5---1-----4S-5S-4S-5-|--5-----4-----1-----4-----1---5---|
--2S-3-0---0-0-2S-3-0---0-0-2S-3S-2S-3-|--3-----2-----------2---------3---|


  S  S S S S S S  S S S S S S  S  S  S    S  S S S S S S  S S S S S S  S  S  S  
---------------------------------------|---------------------------------------|
---------------------------------------|---------------------------------------|
---------------------------------------|---------------------------------------|
---------3------------3----------------|---------3------------3----------------|
--4S-5---1-----4S-5---1-----4S-5S-4S-5-|--4S-5---1-----4S-5---1-----4S-5S-4S-5-|
--2S-3-0---0-0-2S-3-0---0-0-2S-3S-2S-3-|--2S-3-0---0-0-2S-3-0---0-0-2S-3S-2S-3-|


  S  S S S S S S  S S S S S S  S  S  S    S S S S S S S S S S S S S S S S  
---------------------------------------|----------------------------------|
---------------------------------------|----------------------------------|
---------------------------------------|----------------------------------|
---------3------------3----------------|--------------3-----------3-------|
--4S-5---1-----4S-5---1-----4S-5S-4S-5-|--5-----4-----1-----4-----1---5---|
--2S-3-0---0-0-2S-3-0---0-0-2S-3S-2S-3-|--3-----2-----------2---------3---|


  S  S S S S S S  S S S S S S  S  S  S    S  S S S S S S  S S S S S S  S  S  S  
---------------------------------------|---------------------------------------|
---------------------------------------|---------------------------------------|
---------------------------------------|---------------------------------------|
---------3------------3----------------|---------3------------3----------------|
--4S-5---1-----4S-5---1-----4S-5S-4S-5-|--4S-5---1-----4S-5---1-----4S-5S-4S-5-|
--2S-3-0---0-0-2S-3-0---0-0-2S-3S-2S-3-|--2S-3-0---0-0-2S-3-0---0-0-2S-3S-2S-3-|


  S  S S S S S S  S S S S S S  S  S  S    S S S S S S S S S S S S S S S S  
---------------------------------------|----------------------------------|
---------------------------------------|----------------------------------|
---------------------------------------|----------------------------------|
---------3------------3----------------|--------------3-----------3-------|
--4S-5---1-----4S-5---1-----4S-5S-4S-5-|--5-----4-----1-----4-----1---5---|
--2S-3-0---0-0-2S-3-0---0-0-2S-3S-2S-3-|--3-----2-----------2---------3---|


  S  S S S S S S  S S S S S S  S  S  S    S  S S S S S S  S S S S S S  S  S  S  
---------------------------------------|---------------------------------------|
---------------------------------------|---------------------------------------|
---------------------------------------|---------------------------------------|
---------3------------3----------------|---------3------------3----------------|
--4S-5---1-----4S-5---1-----4S-5S-4S-5-|--4S-5---1-----4S-5---1-----4S-5S-4S-5-|
--2S-3-0---0-0-2S-3-0---0-0-2S-3S-2S-3-|--2S-3-0---0-0-2S-3-0---0-0-2S-3S-2S-3-|


  S  S S S S S S  S S S S S S  S  S  S    S S S S S S S S S S S S S S S S  
---------------------------------------|----------------------------------|
---------------------------------------|----------------------------------|
---------------------------------------|----------------------------------|
---------3------------3----------------|--------------3-----------3-------|
--4S-5---1-----4S-5---1-----4S-5S-4S-5-|--5-----4-----1-----4-----1---5---|
--2S-3-0---0-0-2S-3-0---0-0-2S-3S-2S-3-|--3-----2-----------2---------3---|


  E  Q    E  Q    E  E     E  E  Q    E  E  E  E     E  Q    E  Q    E  E   
------------------------|-------------------------|------------------------|
------------------------|-------------------------|------------------------|
------------------------|-------------------------|------------------------|
------------------------|-------------------------|------------------------|
--4--3----2--6----2--4--|--L--2--7----2--2--2--2--|--4--3----2--6----2--4--|
--2--1----0--4----0--2--|--L--0--5----0--0--0--0--|--2--1----0--4----0--2--|


  E  E  Q    E  E  E  E     E  Q    E  Q    E  E     E  E  Q    E  E  E  E   
-------------------------|------------------------|-------------------------|
-------------------------|------------------------|-------------------------|
-------------------------|------------------------|-------------------------|
-------------------------|------------------------|-------------------------|
--L--2--7----2--2--2--2--|--4--3----2--6----2--4--|--L--2--7----2--2--2--2--|
--L--0--5----0--0--0--0--|--2--1----0--4----0--2--|--L--0--5----0--0--0--0--|


  E  Q    E  Q    E  E     E  E  Q    E  T T T T E  E   
------------------------|------------------------------|
------------------------|------------------------------|
------------------------|------------------------------|
------------------------|------------------------------|
--4--3----2--6----2--4--|--L--2--7---------------2-----|
--2--1----0--4----0--2--|--L--0--5----5--0-0-0-0-0-----|


  E  Q    E  Q    E  E     E  E  Q    E  E  E  E     E  Q    E  Q    E  E   
------------------------|-------------------------|------------------------|
------------------------|-------------------------|------------------------|
------------------------|-------------------------|------------------------|
------------------------|-------------------------|------------------------|
--4--3----2--6----2--4--|-----2--7----2--2--2--2--|--4--3----2--6----2--4--|
--2--1----0--4----0--2--|-----0--5----0--0--0--0--|--2--1----0--4----0--2--|


  E  E  Q    E  E  E  E     E  Q    E  Q    E  E     E  E  Q    E  E  E  E   
-------------------------|------------------------|-------------------------|
-------------------------|------------------------|-------------------------|
-------------------------|------------------------|-------------------------|
-------------------------|------------------------|-------------------------|
-----2--7----2--2--2--2--|--4--3----2--6----2--4--|-----2--7----2--2--2--2--|
-----0--5----0--0--0--0--|--2--1----0--4----0--2--|-----0--5----0--0--0--0--|


  E  Q    E  Q    E  E     E  E  Q    E  E  E  E     W                  
------------------------|-------------------------|-------------------||
------------------------|-------------------------|-------------------||
------------------------|-------------------------|-------------------||
------------------------|-------------------------|-------------------||
--4--3----2--6----2--4--|-----2--7----2--2--2--2--|--L----------------||
--2--1----0--4----0--2--|-----0--5----0--0--0--0--|--L----------------||




Duration Legend
---------------
W - whole
H - half
Q - quarter
E - 8th
S - 16th
T - 32nd
X - 64th
. - note dotted
|-n-|  - n-tuplets


Tablature Legend
----------------
L - tied note
x - dead note
g - grace note
(n) - ghost note
> - accentuded note
NH - natural harmonic
AH - artificial harmonic
TH - tapped harmonic
SH - semi harmonic
PH - pitch harmonic
h - hammer on
p - pull off
b - bend
br - bendRelease
pb - preBend
pbr - preBendRelease
brb - bendReleaseBend
\n/ - tremolo bar dip
\n - tremolo bar dive
-/n - tremolo bar Release up
/n\ - tremolo bar inverted dip
/n - tremolo bar return
-\n - tremolo bar Release down
S - shift slide
s - legato slide
/ -  slide into from below or out of upwards
\ -  slide into from above or out of downwards
~ - vibrato
W - wide vibrato
tr - trill
TP - tremolo picking
T - tapping
S - slap
P - pop
< - fade in
^ - brush up
v - brush down
comments
We did not receive enough feedback on this tab! Please rate:
print report bad tab
1 2 3 4 5
4 comments total. Showing first comments.
0 reply
MetalorDIE wrote on June 5 2007, 12:18 pm

awesome job!

0 reply
krallice wrote on February 28 2009, 02:29 pm

thats C standard tuning right? i don't have thicker gauge strings so i can play this in D standard with it sounding pretty similar? thanks for the tab

0 reply
sicksucks wrote on January 31 2013, 08:24 pm

C# tuning.

I want to post or [tab]
guest
You may want to rate the tab now too:
select rating
Please do not post tabs as comments. Select "correction" instead!