Oops, an error
Loading. Please wait.

One Shot One Kill Bass Tab

ver1
ver1

Whole song

Interactive

More versions @911Tabs.com
1,793 views 6 this week
no commentswrite comment
1 2 3 4 5
please rate
Autoscroll
+/-
esc
set tempo
stop
Contributor
Hey! There's an official Ultimate Guitar app which is ideal
for learning songs when you're away from computer. Get the app
WARNING: You are trying to view
                                    content from Ultimate-Guitar.com
                                    in an unauthorized application,
                                    which is prohibited.

                                    Please use an official Ultimate
                                    Guitar Tabs application for iPhone,
                                    iPad or Android to access legitimate
                                    chords, guitar, bass, and drum tabs
                                    from Ultimate-Guitar.com database.

                                    Type "ultimate guitar tabs" in Apple
                                    App Store's or Android Market's
                                    search to find the application.
One Shot, One Kill                                
Dying Fetus
Bass


Tuning: C# F# B E


       S S S S S S S S S S S S S S S S    S S S S S S S S S S S S S S S S  
E ||-----------------------------------|----------------------------------|
B ||*----------------------------------|----------------------------------|
F#||*----------------------------------|----------------------------------|
C#||---0-0-0-0-0-0-0-0-4-1-0-0-0-0-0-0-|--0-0-0-0-0-0-0-0-4-1-0-0-5-2-0-0-|


  S S S S S S S S S S S S S S S S    Q    S S S S Q    E  E     
----------------------------------|---------------------------||
----------------------------------|--------------------------*||
----------------------------------|---------------0-------0--*||
--0-0-0-0-0-0-0-0-4-1-0-0-0-0-0-0-|--1----0-0-0-0------4------||


  Q    S S S S Q    E  E       S S S S S S S S S S S S S S S S  
--------------------------||-----------------------------------|
--------------------------||*----------------------------------|
---------------0-------0--||*----------------------------------|
--1----0-0-0-0------4-----||---0-0-0-0-0-0-0-0-4-1-0-0-0-0-0-0-|


  S S S S S S S S S S S S S S S S    S S S S S S S S S S S S S S S S  
----------------------------------|----------------------------------|
----------------------------------|----------------------------------|
----------------------------------|----------------------------------|
--0-0-0-0-0-0-0-0-4-1-0-0-5-2-0-0-|--0-0-0-0-0-0-0-0-4-1-0-0-0-0-0-0-|


                               |----3----|    |----3----|     
  Q    S S S S Q    E  E       Q    Q    Q    Q    Q    Q     
---------------------------||--------------------------------|
--------------------------*||--------------------------------|
---------------0-------0--*||--5----4----0-------------------|
--1----0-0-0-0------4------||-----------------4----5----4----|


    E  S S E  E  E  E  E  E     E  S S E  E  E  E  E  E   
|----------------------------|---------------------------|
|*---------------------------|---------------------------|
|*---------------------------|---------------------------|
|---0--0-0-0--0--2--1--0--0--|--0--0-0-0--0--2--1--5--4--|


  E  S S E  E  E  E  E  E     Q    E  E  Q    E  E     
---------------------------|-------------------------||
---------------------------|------------------------*||
---------------------------|------------------------*||
--0--0-0-0--0--2--1--0--0--|--1----0--0--5----4--5---||


  Q    E  E  Q    E  E       Q    E  E  Q    E  E       Q    E  E  Q    E  E   
-------------------------||-------------------------||------------------------|
------------------------*||------------------------*||------------------------|
------------------------*||------------------------*||------------------------|
--1----0--0--5----4--5---||--1----0--0--5----4--5---||--1----0--0--5----4--5--|


    H        H           Q    Q    Q    Q       H.           Q     
|---------------------|----------------------|--------------------|
|*--------------------|----------------------|--------------------|
|*--------------------|----------------------|--------------------|
|---2--------2--------|--L----2----0----2----|--3------------3----|


  H        H             H.           Q       H        H         
---------------------||--------------------|--------------------|
--------------------*||--------------------|--------------------|
--------------------*||--------------------|--------------------|
--0--------3---------||--5------------5----|--6--------3--------|


    H        H           Q    Q    Q    Q       H.           Q     
|---------------------|----------------------|--------------------|
|*--------------------|----------------------|--------------------|
|*--------------------|----------------------|--------------------|
|---2--------2--------|--L----2----0----2----|--3------------3----|


  H        H             H.           Q       H        H         
---------------------||--------------------|--------------------|
--------------------*||--------------------|--------------------|
--------------------*||--------------------|--------------------|
--0--------3---------||--5------------5----|--6--------3--------|


    E  S S E  E  E  E  E  E     E  S S E  E  E  E  E  E   
|----------------------------|---------------------------|
|*---------------------------|---------------------------|
|*---------------------------|---------------------------|
|---0--0-0-0--0--2--1--0--0--|--0--0-0-0--0--2--1--5--4--|


  E  S S E  E  E  E  E  E     Q    E  E  Q    E  E     
---------------------------|-------------------------||
---------------------------|------------------------*||
---------------------------|------------------------*||
--0--0-0-0--0--2--1--0--0--|--1----0--0--5----4--5---||


             |----3----|                                   
  Q    E  E  Q    Q    Q         E  S S E  E  E  E  E  E   
----------------------------||----------------------------|
----------------------------||*---------------------------|
--3----------0---------0----||*---------------------------|
--1----0--0-------4---------||---0--0-0-0--0--2--1--0--0--|


  E  S S E  E  E  E  E  E     E  S S E  E  E  E  E  E   
---------------------------|---------------------------|
---------------------------|---------------------------|
---------------------------|---------------------------|
--0--0-0-0--0--2--1--5--4--|--0--0-0-0--0--2--1--0--0--|


                             |----3----|    |----3----|     
  Q    E  E  Q    E  E       Q    Q    Q    Q    Q    Q     
-------------------------||--------------------------------|
------------------------*||--------------------------------|
------------------------*||--5----4----0-------------------|
--1----0--0--5----4--5---||-----------------4----5----4----|


    |--3--|          |--3--|             |--3--|                             
    E  E  E  S S S S E  E  E  S S S S    E  E  E  S S S S S S S S S S S S    
|-------------------------------------|------------------------------------||
|*------------------------------------|-------------------0-0-0-0---------*||
|*--0--4--0----------0--4--0----------|--0--4--0------------------1-0-1-0-*||
|------------1-0-1-0----------1-0-1-0-|-----------1-0-1-0------------------||


                                        |--3--|                             
  S S  S S S S S S S S S S S S S S      E  E  E  S S S S S S S S S S S S    
------------------------------------||------------------------------------||
-----------------------------------*||-------------------0-0-0-0---------*||
--7-8-11-8-7-5-3-2-3-4-7-4-3-1-----*||--0--4--0------------------1-0-1-0-*||
-------------------------------4-3--||-----------1-0-1-0------------------||


                                        |--3--|                             
  S S  S S S S S S S S S S S S S S      E  E  E  S S S S S S S S S S S S    
------------------------------------||------------------------------------||
-----------------------------------*||-------------------0-0-0-0---------*||
--7-8-11-8-7-5-3-2-3-4-7-4-3-1-----*||--0--4--0------------------1-0-1-0-*||
-------------------------------4-3--||-----------1-0-1-0------------------||


                                        |--3--|                             
  S S  S S S S S S S S S S S S S S      E  E  E  S S S S S S S S S S S S    
------------------------------------||------------------------------------||
-----------------------------------*||-------------------0-0-0-0---------*||
--7-8-11-8-7-5-3-2-3-4-7-4-3-1-----*||--0--4--0------------------1-0-1-0-*||
-------------------------------4-3--||-----------1-0-1-0------------------||


  S S  S S S S S S S S S S S S S S      Q    E  E  E  E  E  E   
-----------------------------------||--------------------------|
-----------------------------------||*-------------------------|
--7-8-11-8-7-5-3-2-3-4-7-4-3-1-----||*-------------------------|
-------------------------------4-3-||---1----0--1--2--1--0--0--|


  Q    E  E  E  E  E  E     Q    E  E  E  E  E  E     Q    E  E  Q    E  E     
-------------------------|-------------------------|-------------------------||
-------------------------|-------------------------|------------------------*||
-------------------------|-------------------------|------------------------*||
--1----0--1--2--1--0--0--|--1----0--1--2--1--0--0--|--4----0--0--5----4--5---||


  Q    E  E  Q    E  E       Q    E  E  E  E  E  E     Q    E  E  E  E  E  E   
------------------------||--------------------------|-------------------------|
------------------------||*-------------------------|-------------------------|
------------------------||*-------------------------|-------------------------|
--4----0--0--5----4--5--||---1----0--1--2--1--0--0--|--1----0--1--2--1--0--0--|


  Q    E  E  E  E  E  E     Q    E  E  Q    E  E       Q    E  E  Q    E  E   
-------------------------|-------------------------||------------------------|
-------------------------|------------------------*||------------------------|
-------------------------|------------------------*||------------------------|
--1----0--1--2--1--0--0--|--4----0--0--5----4--5---||--4----0--0--5----4--5--|


    S S S S S S S S S S S S S S S S    S S S S S S S S S S S S S S S S  
|-----------------------------------|----------------------------------|
|*--3-3-3-3-------------------------|--3-3-3-3-------------------------|
|*----------------------------------|----------------------------------|
|-----------0-0-1-1-2-2-1-1-0-0-1-1-|----------0-0-1-1-2-2-1-1-0-0-1-1-|


  S S S S S S S S S S S S S S S S    Q    E  E  Q    E  E     
----------------------------------|-------------------------||
--3-3-3-3-------------------------|------------------------*||
----------------------------------|------------------------*||
----------0-0-1-1-2-2-1-1-0-0-1-1-|--4----0--0--5----4--5---||


  Q    E  E  Q    E  E       Q    E  E  E  E  E  E     Q    E  E  E  E  E  E   
------------------------||--------------------------|-------------------------|
------------------------||*-------------------------|-------------------------|
------------------------||*-------------------------|-------------------------|
--4----0--0--5----4--5--||---1----0--1--2--1-----1--|--1----0--1--2--1-----1--|


  Q    E  E  E  E  E  E     Q    E  E  Q    E  E       Q    E  E  Q    E  E     
-------------------------|-------------------------||-------------------------||
-------------------------|------------------------*||------------------------*||
-------------------------|------------------------*||------------------------*||
--1----0--1--2--1-----1--|--4----0--0--5----4--5---||--4----0--0--5----4--5---||


  Q    E  E  Q    E  E       Q    E  E  Q    E  E       Q    Q    Q     
-------------------------||------------------------||------------------|
------------------------*||------------------------||*-----------------|
------------------------*||------------------------||*--0---------0----|
--4----0--0--5----4--5---||--4----0--0--5----4--5--||--------1---------|


                       |--3--|  |--3--|  |--3--|  |--3--|   
  E  E  E  E  E  E     E  E  E  E  E  E  E  E  E  E  E  E   
--------------------|--------------------------------------|
--2--5--2-----------|--------------------------------------|
-----------3--------|--------------------1--4--1-----------|
--------------2-----|--6--9--6--2--1--2-----------2--1--2--|


  |--3--|  |--3--|  |--3--|  |--3--|     |--3--|  |--3--|  |--3--|  |--3--|   
  E  E  E  E  E  E  E  E  E  E  E  E     E  E  E  E  E  E  E  E  E  E  E  E   
--------------------------------------|--------------------------------------|
--------------------------------------|--------------------------------------|
--0--3--0-----------0--3--0-----------|--3--6--3-----------3--6--3-----------|
-----------1--0--1-----------1--0--1--|-----------4--3--4-----------4--3--4--|


  |--3--|  |--3--|  |--3--|  |--3--|                                       
  E  E  E  E  E  E  E  E  E  E  E  E     Q    Q    Q       Q    Q    Q     
--------------------------------------|-----------------|-----------------|
--------------------------------------|-----------------|-----------------|
--2--5--2-----------2--5--2-----------|-------1----2----|-------1----2----|
-----------3--2--3-----------3--2--3--|--0--------------|--0--------------|


                                        |--3--|  |--3--|  |--3--|  |--3--|   
  Q    Q    Q       Q    Q    Q         E  E  E  E  E  E  E  E  E  E  E  E   
-----------------|------------------||--------------------------------------|
-----------------|-----------------*||--------------------------------------|
-------1----2----|-------1----2----*||--------------------1--4--1-----------|
--0--------------|--0---------------||--6--9--6--2--1--2-----------2--1--2--|


  |--3--|  |--3--|  |--3--|  |--3--|     |--3--|  |--3--|  |--3--|  |--3--|   
  E  E  E  E  E  E  E  E  E  E  E  E     E  E  E  E  E  E  E  E  E  E  E  E   
--------------------------------------|--------------------------------------|
--------------------------------------|--------------------------------------|
--0--3--0-----------0--3--0-----------|--3--6--3-----------3--6--3-----------|
-----------1--0--1-----------1--0--1--|-----------4--3--4-----------4--3--4--|


  |--3--|  |--3--|  |--3--|  |--3--|     |--3--|  |--3--|  |--3--|  |--3--|   
  E  E  E  E  E  E  E  E  E  E  E  E     E  E  E  E  E  E  E  E  E  E  E  E   
--------------------------------------|--------------------------------------|
--------------------------------------|--------------------------------------|
--2--5--2-----------2--5--2-----------|--5--8--5-----------5--8--5-----------|
-----------3--2--3-----------3--2--3--|-----------6--5--6-----------6--5--6--|


  |--3--|  |--3--|  |--3--|  |--3--|                          
  E  E  E  E  E  E  E  E  E  E  E  E       E  E  E  E  E  E   
--------------------------------------||------5--------------|
--------------------------------------||*--7-----7-----------|
--4--7--4-----------4--7--4-----------||*-----------8--------|
-----------5--4--5-----------5--4--5--||---------------7-----|


  E  E  E  E  E  E     E  E  E  E     E  E  E  E  E  E     E  E  E  E  E  E   
-----6--------------|-----5--------|-----5--------------|-----6--------------|
--8-----8-----------|--7-----7-----|--7-----7-----------|--8-----8-----------|
-----------9--------|--------------|-----------8--------|-----------9--------|
--------------8-----|--------------|--------------7-----|--------------8-----|


                 |---3--|        |--3--|         
  Q    Q         E   E  E  E  E  E  E  E  E  E   
-------------||------------------5--8--5--------|
------------*||--7--10--7--4--------------7--4--|
------------*||---------------6-----------------|
--1----2-----||---------------------------------|


  |---3--|          |---3---|             
  E   E  E   E  E   E   E   E   E   E     
--8--11--8---------11--14--11-----------||
------------10--7--------------13--10--*||
---------------------------------------*||
----------------------------------------||


   |---3---|   |---3---|   |---3---|   |---3---|   
   E   E   E   E   E   E   E   E   E   E   E   E   
--------------------------------------------------|
--------------------------------------------------|
--------------------------------------------------|
--20--23--20--17--16--17--17--20--17--13--12--13--|


   |---3---|  |--3--|  |---3--|  |--3--|     
   E   E   E  E  E  E  E   E  E  E  E  E     
-------------------------------------------||
------------------------------------------*||
------------------------------------------*||
--13--16--13--9--8--9--9--12--9--5--4--5---||


   S  S  S  S  S  S  S  S  S  S  S  S  S  S  S S  
--21-22-25-22-21-19-17-16-14-16-17-16-14-12-10-9-|
-------------------------------------------------|
-------------------------------------------------|
-------------------------------------------------|


              |-3-|                                                      
  S S S S S S S S S E  Q.        E.  S H.              W                 
------------------------------|---------------------|-------------------|
--9-7-6-8-7-5-----------------|---------------------|-------------------|
--------------3-2-0-3---------|---------------------|-------------------|
--------------------1---------|--0------------------|-------------------|


  W                   Q.     E  Q    E  E     W                 
-------------------|-----------------------|-------------------|
-------------------|-----------------------|-------------------|
-------------------|-----------------------|-------------------|
-------------------|---------1--4----3--4--|--0----------------|


  W                   W                   W                 
-------------------|-------------------|-------------------|
-------------------|-------------------|-------------------|
-------------------|-------------------|-------------------|
--L----------------|--L----------------|--L----------------|


    E  S S S S E  S S E  S S E     S S E  S S E  E  S S E  E   
|-------------------------------|-----------------------------|
|*------------------------------|-----------------------------|
|*-------------1----------------|-----------------------------|
|---0--0-0-0-0----0-0-0--0-0-1--|--0-0-0--0-0-1--4--0-0-1--3--|


  E  S S S S E  S S E  S S E     S S E  S S E  Q    E  E     
------------------------------|----------------------------||
------------------------------|---------------------------*||
-------------1----------------|---------------------------*||
--0--0-0-0-0----0-0-0--0-0-1--|--0-0-0--0-0-1--4----3--4---||


  S S E  S S E  Q    E  E       E  S S S S E  S S E  S S E   
---------------------------||-------------------------------|
---------------------------||*------------------------------|
---------------------------||*-------------1----------------|
--0-0-0--0-0-1--4----3--4--||---0--0-0-0-0----0-0-0--0-0-1--|


  S S E  S S E  E  S S E  E     E  S S S S E  S S E  S S E   
-----------------------------|------------------------------|
-----------------------------|------------------------------|
-----------------------------|-------------1----------------|
--0-0-0--0-0-1--4--0-0-1--3--|--0--0-0-0-0----0-0-0--0-0-1--|


  S S E  S S E  Q    E  E       S S E  S S E  Q    E  E   
----------------------------||---------------------------|
---------------------------*||---------------------------|
---------------------------*||---------------------------|
--0-0-0--0-0-1--4----3--4---||--0-0-0--0-0-1--4----3--4--|


    E  S S S S E  S S E  S S E     S S E  S S E  E  S S E  E   
|-------------------------------|-----------------------------|
|*------------------------------|-----------------------------|
|*-------------1----------------|-----------------------------|
|---0--0-0-0-0----0-0-0--0-0-1--|--0-0-0--0-0-1--4--0-0-1--3--|


  E  S S S S E  S S E  S S E     S S E  S S E  Q    E  E     
------------------------------|----------------------------||
------------------------------|---------------------------*||
-------------1----------------|---------------------------*||
--0--0-0-0-0----0-0-0--0-0-1--|--0-0-0--0-0-1--4----3--4---||


  S S E  S S E  Q    E  E       E  S S S S E  S S S S S S S S  
---------------------------||---------------------------------|
---------------------------||*--------------------------------|
---------------------------||*-------------1------------------|
--0-0-0--0-0-1--4----3--4--||---0--0-0-0-0----0-0-0-0-0-0-0-0-|


  E  S S S S E  S S S S S S S S    E  S S S S E  S S E  S S E   
--------------------------------|------------------------------|
--------------------------------|------------------------------|
--------------------------------|-------------1----------------|
--0--0-0-0-0-1--0-0-0-0-0-0-0-0-|--0--0-0-0-0----0-0-0--0-0-4--|


  E  E  E  E  E  E  E  E       E  S S S S E  S S E  S S E   
---------------------------||------------------------------|
--------------------------*||------------------------------|
--------------------------*||-------------1----------------|
--L--4--4--4--4--4--4--4---||--0--0-0-0-0----0-0-0--0-0-4--|


  E  E  E  E  E  E  E  E       E  E  E  E  E  E  E  E   
--------------------------||---------------------------|
--------------------------||*--------------------------|
--------------------------||*-----------1--------------|
--L--4--4--4--4--4--4--4--||---0--0--0-----0--0--0--0--|


  E  E  E  E  E  E  E  E     E  E  E  E  E  E  E  E   
--------------------------|--------------------------|
--------------------------|--------------------------|
--------------------------|-----------1--------------|
--0--0--0--1--0--0--0--0--|--0--0--0-----0--0--0--4--|


  E  E  E  E  E  E  E  E       E  E  E  E  E  E  E  E   
---------------------------||--------------------------|
--------------------------*||--------------------------|
--------------------------*||-----------1--------------|
--L--4--4--4--4--4--4--4---||--0--0--0-----0--0--0--4--|


  E  E  E  E  E  E  E  E     E  E  E  E  E  E  E  E   
--------------------------|--------------------------|
--------------------------|--------------------------|
--------------------------|-----------1--------------|
--L--4--4--4--4--4--4--4--|--0--0--0-----0--0--0--0--|


  E  E  E  E  E  E  E  E     E  E  E  E  E  E  E  E   
--------------------------|--------------------------|
--------------------------|--------------------------|
--------------------------|-----------1--------------|
--0--0--0--1--0--0--0--0--|--0--0--0-----0--0--0--4--|


  E  E  E  E  E  E  E  E     E  E  E  E  E  E  E  E   
--------------------------|--------------------------|
--------------------------|--------------------------|
--------------------------|-----------1--------------|
--L--4--4--4--4--4--4--4--|--0--0--0-----0--0--0--0--|


  E  E  E  E  E  E  E  E     E  E  E  E  E  E  E  E   
--------------------------|--------------------------|
--------------------------|--------------------------|
--------------------------|-----------1--------------|
--0--0--0--1--0--0--0--0--|--0--0--0-----0--0--0--4--|


  E  E  E  E  E  E  E  E     E.  S H.             
--------------------------|---------------------||
--------------------------|---------------------||
--------------------------|---------------------||
--L--4--4--4--4--4--4--4--|--0------------------||




Duration Legend
---------------
W - whole
H - half
Q - quarter
E - 8th
S - 16th
T - 32nd
X - 64th
. - note dotted
|-n-|  - n-tuplets


Tablature Legend
----------------
L - tied note
x - dead note
g - grace note
(n) - ghost note
> - accentuded note
NH - natural harmonic
AH - artificial harmonic
TH - tapped harmonic
SH - semi harmonic
PH - pitch harmonic
h - hammer on
p - pull off
b - bend
br - bendRelease
pb - preBend
pbr - preBendRelease
brb - bendReleaseBend
\n/ - tremolo bar dip
\n - tremolo bar dive
-/n - tremolo bar Release up
/n\ - tremolo bar inverted dip
/n - tremolo bar return
-\n - tremolo bar Release down
S - shift slide
s - legato slide
/ -  slide into from below or out of upwards
\ -  slide into from above or out of downwards
~ - vibrato
W - wide vibrato
tr - trill
TP - tremolo picking
T - tapping
S - slap
P - pop
< - fade in
^ - brush up
v - brush down
comments
We did not receive enough feedback on this tab! Please rate:
print report bad tab
1 2 3 4 5
I want to post or [tab]
guest
You may want to rate the tab now too:
select rating
Please do not post tabs as comments. Select "correction" instead!