Oops, an error
Loading. Please wait.

Tearing Inside The Womb Bass Tab

ver1
ver1

Whole song

Interactive

More versions @911Tabs.com
501 views 1 this week
no commentswrite comment
1 2 3 4 5
please rate
Autoscroll
+/-
esc
set tempo
stop
Contributor
Hey! There's an official Ultimate Guitar app which is ideal
for learning songs when you're away from computer. Get the app
WARNING: You are trying to view
                                    content from Ultimate-Guitar.com
                                    in an unauthorized application,
                                    which is prohibited.

                                    Please use an official Ultimate
                                    Guitar Tabs application for iPhone,
                                    iPad or Android to access legitimate
                                    chords, guitar, bass, and drum tabs
                                    from Ultimate-Guitar.com database.

                                    Type "ultimate guitar tabs" in Apple
                                    App Store's or Android Market's
                                    search to find the application.
Tearing Inside the Womb                             
Dying fetus
Bass



Tuning: C# F# B E



      W                   W                 
E ||-------------------|-------------------|
B ||-------------------|-------------------|
F#||--6----------------|--5----------------|
C#||-------------------|-------------------|


  E  S S E  E  E  E  E  S S E  E  E  E     W                 
----------------------------------------|-------------------|
----------------------------------------|-------------------|
-------------------------------------2--|--6----------------|
--0--0-0-0--1--0--0--0--0-0-0--1--0-----|-------------------|


  W                   E  S S E  E  E  E  E  S S E  E  E  E   
-------------------|----------------------------------------|
-------------------|----------------------------------------|
--5----------------|-------------------------------------2--|
-------------------|--0--0-0-0--1--0--0--0--0-0-0--1--0-----|


  E  S S E  E  E  E  E  S S E  E  E  E   
----------------------------------------|
----------------------------------------|
-------------------------------------2--|
--0--0-0-0--1--0--0--0--0-0-0--1--0-----|


  E  S S E  E  E  E  E  S S E  E  E  E   
----------------------------------------|
----------------------------------------|
-------------------------------------2--|
--0--0-0-0--1--0--0--0--0-0-0--1--0-----|


  E  S S E  E  E  E  E  S S E  E  E  E   
----------------------------------------|
----------------------------------------|
----------------------------------------|
--0--0-0-0--1--0--0--0------------------|


  E  S S E  E  E  E  E  S S E  E  E  E   
----------------------------------------|
----------------------------------------|
-------------------------------------2--|
--0--0-0-0--1--0--0--0--0-0-0--1--0-----|


  E  S S E  E  E  E  E  S S E  E  E  E   
----------------------------------------|
----------------------------------------|
-------------------------------------2--|
--0--0-0-0--1--0--0--0--0-0-0--1--0-----|


  E  S S E  E  E  E  E  S S E  E  E  E   
----------------------------------------|
----------------------------------------|
-------------------------------------2--|
--0--0-0-0--1--0--0--0--0-0-0--1--0-----|


  E  S S E  E  E  E  E  S S E  E  E  E     W                 
----------------------------------------|-------------------|
----------------------------------------|-------------------|
-------------------------------------2--|--6----------------|
--0--0-0-0--1--0--0--0--0-0-0--1--0-----|-------------------|


  W                   E  S S E  E  E  E  E  S S E  E  E  E   
-------------------|----------------------------------------|
-------------------|----------------------------------------|
--5----------------|-------------------------------------2--|
-------------------|--0--0-0-0--1--0--0--0--0-0-0--1--0-----|


  W                   W                 
-------------------|-------------------|
-------------------|-------------------|
--6----------------|--5----------------|
-------------------|-------------------|


  E  S S E  E  E  E  E  S S E  E  E  E     W                 
----------------------------------------|-------------------|
----------------------------------------|-------------------|
-------------------------------------2--|--6----------------|
--0--0-0-0--1--0--0--0--0-0-0--1--0-----|-------------------|


  W                   E  S S E  E  E  E  E  S S E  E  E  E   
-------------------|----------------------------------------|
-------------------|----------------------------------------|
--5----------------|-------------------------------------2--|
-------------------|--0--0-0-0--1--0--0--0--0-0-0--1--0-----|


  W                   W                 
-------------------|-------------------|
-------------------|-------------------|
--6----------------|--5----------------|
-------------------|-------------------|


  E  S S E  E  E  E  E  S S E  E  E  E   
----------------------------------------|
----------------------------------------|
-------------------------------------2--|
--0--0-0-0--1--0--0--0--0-0-0--1--0-----|


  E  S S E  E  E  E  E  S S E  E  E  E   
----------------------------------------|
----------------------------------------|
-------------------------------------2--|
--0--0-0-0--1--0--0--0--0-0-0--1--0-----|


  E  S S E  E  E  E  E  S S E  E  E  E   
----------------------------------------|
----------------------------------------|
-------------------------------------2--|
--0--0-0-0--1--0--0--0--0-0-0--1--0-----|


  E  S S E  E  E  E  E  S S E  E  E  E     S S S S S S S S S S S S S S S S  
----------------------------------------|----------------------------------|
----------------------------------------|------------------6-6-6-6-7-7-7-7-|
-------------------------------------2--|----------5-5-5-5-----------------|
--0--0-0-0--1--0--0--0--0-0-0--1--0-----|--0-0-0-0-------------------------|


  S S S S S S S S S S S S S S S S    H        Q    Q     
----------------------------------|---------------------|
------------------6-6-6-6-7-7-7-7-|---------------------|
----------5-5-5-5-----------------|---------------------|
--0-0-0-0-------------------------|--0--------L----0----|


  H        E  E  E  E     Q    S Q    Q    E  S    S Q    Q    E  S  
-----------------------|------------------------|-------------------|
-----------------------|------------------------|-------------------|
-----------------------|------------------------|-------------------|
--0--------L--0--0--0--|--L----L-0----L----0--L-|--L-0----0----L--L-|


  S S S S S S S S S S S S S S S S    S S S S S S S S S S S S S S S S  
----------------------------------|----------------------------------|
------------------6-6-6-6-7-7-7-7-|------------------6-6-6-6-7-7-7-7-|
----------5-5-5-5-----------------|----------5-5-5-5-----------------|
--0-0-0-0-------------------------|--0-0-0-0-------------------------|


  H        Q    Q       H        E  E  E  E     Q    S Q    Q    E  S  
---------------------|-----------------------|------------------------|
---------------------|-----------------------|------------------------|
---------------------|-----------------------|------------------------|
--0--------L----0----|--0--------L--0--0--0--|--L----L-0----L----0--L-|


  S Q    Q    E  S    S S S S S S S S S S S S S S S S  
-------------------|----------------------------------|
-------------------|------------------6-6-6-6-7-7-7-7-|
-------------------|----------5-5-5-5-----------------|
--L-0----0----L--L-|--0-0-0-0-------------------------|


  S S S S S S S S S S S S S S S S    H        Q    Q     
----------------------------------|---------------------|
------------------6-6-6-6-7-7-7-7-|---------------------|
----------5-5-5-5-----------------|---------------------|
--0-0-0-0-------------------------|--0--------L----0----|


  H        E  E  E  E     Q    S Q    Q    E  S    S Q    Q    E  S  
-----------------------|------------------------|-------------------|
-----------------------|------------------------|-------------------|
-----------------------|------------------------|-------------------|
--0--------L--0--0--0--|--L----L-0----L----0--L-|--L-0----0----L--L-|


  S S S S S S S S S S S S S S S S    S S S S S S S S S S S S S S S S  
----------------------------------|----------------------------------|
------------------6-6-6-6-7-7-7-7-|------------------6-6-6-6-7-7-7-7-|
----------5-5-5-5-----------------|----------5-5-5-5-----------------|
--0-0-0-0-------------------------|--0-0-0-0-------------------------|


  W                   W                                                 
-------------------|-------------------|-------|-------|-------|-------|
-------------------|-------------------|-------|-------|-------|-------|
-------------------|-------------------|-------|-------|-------|-------|
--0----------------|--L----------------|-------|-------|-------|-------|


  S S S S S S S S S  S  S  S  S  S  S  S  
-----------------------------------------|
-----------------------------------------|
------------------8p-7h-8p-7h-8p-7h-8p-7-|
--0-0-0-0-7-7-7-7------------------------|


  S S S S S S S S S  S  S  S  S  S  S  S  
-----------------------------------------|
-----------------------------------------|
------------------8p-7h-8p-7h-8p-7h-8p-7-|
--0-0-0-0-7-7-7-7------------------------|


  S S S S S S S S S  S  S  S  S  S  S  S    E  E  E  E  E  E  Q     
-----------------------------------------|-------------------------|
-----------------------------------------|-------------------------|
------------------8p-7h-8p-7h-8p-7h-8p-7-|--6-----------------7----|
--0-0-0-0-7-7-7-7------------------------|-----7--0--7--6--0-------|


  S S S S S S S S S  S  S  S  S  S  S  S  
-----------------------------------------|
-----------------------------------------|
------------------8p-7h-8p-7h-8p-7h-8p-7-|
--0-0-0-0-7-7-7-7------------------------|


  S S S S S S S S S  S  S  S  S  S  S  S  
-----------------------------------------|
-----------------------------------------|
------------------8p-7h-8p-7h-8p-7h-8p-7-|
--0-0-0-0-7-7-7-7------------------------|


  S S S S S S S S S  S  S  S  S  S  S  S    E  E  E  E  E  E  Q     
-----------------------------------------|-------------------------|
-----------------------------------------|-------------------------|
------------------8p-7h-8p-7h-8p-7h-8p-7-|--6-----------------7----|
--0-0-0-0-7-7-7-7------------------------|-----7--0--7--6--0-------|


  S S S S S S S S S  S  S  S  S  S  S  S  
-----------------------------------------|
-----------------------------------------|
------------------8p-7h-8p-7h-8p-7h-8p-7-|
--0-0-0-0-7-7-7-7------------------------|


  S S S S S S S S S  S  S  S  S  S  S  S  
-----------------------------------------|
-----------------------------------------|
------------------8p-7h-8p-7h-8p-7h-8p-7-|
--0-0-0-0-7-7-7-7------------------------|


  S S S S S S S S S  S  S  S  S  S  S  S    E  E  E  E  E  E  Q     
-----------------------------------------|-------------------------|
-----------------------------------------|-------------------------|
------------------8p-7h-8p-7h-8p-7h-8p-7-|--6-----------------7----|
--0-0-0-0-7-7-7-7------------------------|-----7--0--7--6--0-------|


  S S S S S S S S S S S S S S S S    S S S S S S S S S S S S S S S S  
----------------------------------|----------------------------------|
----------------------------------|----------------------------------|
--------------------------8-8-8-8-|--7-7-7-7-------------------------|
--0-0-0-0-7-7-7-7-6-6-6-6---------|----------7-7-7-7-6-6-6-6-7-7-7-7-|


  H        Q    Q       H        Q    Q       S S S S S S S S S S S S S S S S  
---------------------|---------------------|----------------------------------|
---------------------|---------------------|----------------------------------|
----------------3----|---------------------|--------------------------8-8-8-8-|
--2--------L---------|--1--------L----3----|--0-0-0-0-7-7-7-7-6-6-6-6---------|


  S S S S S S S S S S S S S S S S    H        Q    Q       H        Q    Q     
----------------------------------|---------------------|---------------------|
----------------------------------|---------------------|---------------------|
--7-7-7-7-------------------------|----------------3----|---------------------|
----------7-7-7-7-6-6-6-6-7-7-7-7-|--2--------L---------|--1--------L----3----|


  S S S S S S S S S S S S S S S S    S S S S S S S S S S S S S S S S  
----------------------------------|----------------------------------|
----------------------------------|----------------------------------|
--------------------------8-8-8-8-|--7-7-7-7-------------------------|
--0-0-0-0-7-7-7-7-6-6-6-6---------|----------7-7-7-7-6-6-6-6-7-7-7-7-|


  H        Q    Q       H        Q    Q       S S S S S S S S S S S S S S S S  
---------------------|---------------------|----------------------------------|
---------------------|---------------------|----------------------------------|
----------------3----|---------------------|--------------------------8-8-8-8-|
--2--------L---------|--1--------L----3----|--0-0-0-0-7-7-7-7-6-6-6-6---------|


  S S S S S S S S S S S S S S S S    S S S S S S S S S S S S S S S S  
----------------------------------|----------------------------------|
----------------------------------|----------------------------------|
--7-7-7-7-------------------------|--------------------------3-3-3-3-|
----------7-7-7-7-6-6-6-6-7-7-7-7-|--2-2-2-2-2-2-2-2-2-2-2-2---------|


  S S S S S S S S S S S S S S S S    S S S S S S S S S S S S S S S S  
----------------------------------|----------------------------------|
----------------------------------|----------------------------------|
--------------------------2-2-2-2-|--------------------------3-3-3-3-|
--1-1-1-1-1-1-1-1-1-1-1-1---------|--2-2-2-2-2-2-2-2-2-2-2-2---------|


  S S S S S S S S S S S S S S S S    S S S S S S S S S S S S S S S S  
----------------------------------|----------------------------------|
----------------------------------|----------------------------------|
--------------------------2-2-2-2-|--------------------------3-3-3-3-|
--1-1-1-1-1-1-1-1-1-1-1-1---------|--2-2-2-2-2-2-2-2-2-2-2-2---------|


  S S S S S S S S S S S S S S S S                          
----------------------------------|-------|-------|-------|
----------------------------------|-------|-------|-------|
--------------------------2-2-2-2-|-------|-------|-------|
--1-1-1-1-1-1-1-1-1-1-1-1---------|-------|-------|-------|


  E  E  E  Q    E  E  E     Q    E  E  Q    E  E     Q    E  E  E   E  E   E   
-------------------------|------------------------|---------------------------|
-------------------------|------------------------|---------------------------|
-------------------------|------------------------|---------------------------|
--1--1-----4----3-----1--|--0----0--0-------0--0--|-------0--0--3S--4--3S--4--|


  Q    E  E  Q    E  E     E  E  E  Q    E  E  E     Q    E  E  Q    E  E   
------------------------|-------------------------|------------------------|
------------------------|-------------------------|------------------------|
------------------------|-------------------------|-------------2----------|
-------0--0-------0--0--|--1--1-----4----3-----1--|--0----0--0-------0--0--|


  Q    E  E  E   E  E   E     Q    E  E  Q    E  E     E  E  E  Q    E  E  E   
---------------------------|------------------------|-------------------------|
---------------------------|------------------------|-------------------------|
---------------------------|-------------1----------|-------------------------|
--1----0--0--3S--4--3S--4--|--0----0--0-------0--0--|--1--1-----4----3-----1--|


  Q    E  E  Q    E  E     Q    E  E  E   E  E   E     Q    E  E  Q    E  E   
------------------------|---------------------------|------------------------|
------------------------|---------------------------|------------------------|
-------------2----------|---------------------------|-------------1----------|
--0----0--0-------0--0--|--1----0--0--3S--4--3S--4--|--0----0--0-------0--0--|


  E  E  E  Q    E  E  E     Q    E  E  E  E  E  E     Q    E  E  E  E  E  E   
-------------------------|-------------------------|-------------------------|
-------------------------|-------------------------|-------------------------|
-------------------------|-------------------------|-------------3--2--0--2--|
--1--1-----4----3-----1--|--0----0--0--3--2--0--2--|--0----0--0--------------|


  Q    E  E  E  E  E  E     E  E  E  E  E  E  E  E     Q    E  E  E  E  E  E   
-------------------------|--------------------------|-------------------------|
-------------------------|--------------------------|-------------------------|
-------------------------|--------------------------|-------------------------|
--0----0--0--3--2--0--2--|--1--1--1--1--1--1--3--2--|--0----0--0--3--2--0--2--|


  Q    E  E  E  E  E  E     Q    E  E  E  E  E  E     E  E  E  E  E  E  E  E   
-------------------------|-------------------------|--------------------------|
-------------------------|-------------------------|--------------------------|
-------------3--2--0--2--|-------------------------|--------------------------|
--0----0--0--------------|--0----0--0--3--2--0--2--|--1--1--1--1--1--1--3--2--|


  Q    E  E  E  E  E  E     Q    E  E  E  E  E  E     Q    E  E  E  E  E  E   
-------------------------|-------------------------|-------------------------|
-------------------------|-------------------------|-------------------------|
-------------------------|-------------3--2--0--2--|-------------------------|
--0----0--0--3--2--0--2--|--0----0--0--------------|--0----0--0--3--2--0--2--|


  E  E  E  E  E  E  E  E     Q    E  E  E  E  E  E     Q    E  E  E  E  E  E   
--------------------------|-------------------------|-------------------------|
--------------------------|-------------------------|-------------------------|
--------------------------|-------------------------|-------------3--2--0--2--|
--1--1--1--1--1--1--3--2--|--0----0--0--3--2--0--2--|--0----0--0--------------|


  Q    E  E  E  E  E  E     E  E  E  Q    E  E  E                           
-------------------------|-------------------------|-----|-----|-----|-----|
-------------------------|-------------------------|-----|-----|-----|-----|
-------------------------|-------------------------|-----|-----|-----|-----|
--0----0--0--3--2--0--2--|--1--1-----4----3-----1--|-----|-----|-----|-----|


  Q    E  E  S S E  Q       Q    E  E  S S E  Q       Q    E  E  S S E  Q     
-------------------------|-------------------------|-------------------------|
-------------------------|-------------------------|-------------------------|
-------------------------|-------------------------|-------------------------|
--0----0--0--3-4-3--1----|--0----0--0--3-4-3--1----|--0----0--0--3-4-3--1----|


  S S E  Q    S S E  Q       Q    E  E  S S E  Q       Q    E  E  S S E  Q     
--------------------------|-------------------------|-------------------------|
--------------------------|-------------------------|-------------------------|
--3-4-3--3----2-3-2--2----|-------------------------|-------------------------|
--------------------------|--0----0--0--3-4-3--1----|--0----0--0--3-4-3--1----|


  Q    E  E  S S E  Q       S S E  Q    S S E  Q       Q    E  E  S S E  Q     
-------------------------|--------------------------|-------------------------|
-------------------------|--------------------------|-------------------------|
-------------------------|--3-4-3--3----2-3-2--2----|-------------------------|
--0----0--0--3-4-3--1----|--------------------------|--0----0--0--3-4-3--1----|


  Q    E  E  S S E  Q       Q    E  E  S S E  Q       S S E  Q    S S E  Q     
-------------------------|-------------------------|--------------------------|
-------------------------|-------------------------|--------------------------|
-------------------------|-------------------------|--3-4-3--3----2-3-2--2----|
--0----0--0--3-4-3--1----|--0----0--0--3-4-3--1----|--------------------------|


  Q    E  E  S S E  Q       Q    E  E  S S E  Q       Q    E  E  S S E  Q     
-------------------------|-------------------------|-------------------------|
-------------------------|-------------------------|-------------------------|
-------------------------|-------------------------|-------------------------|
--0----0--0--3-4-3--1----|--0----0--0--3-4-3--1----|--0----0--0--3-4-3--1----|


  S S E  Q    S S E  Q       Q    E  E  S S E  Q       Q    E  E  S S E  Q     
--------------------------|-------------------------|-------------------------|
--------------------------|-------------------------|-------------------------|
--3-4-3--3----2-3-2--2----|-------------------------|-------------------------|
--------------------------|--0----0--0--3-4-3--1----|--0----0--0--3-4-3--1----|


  Q    E  E  S S E  Q       S S E  Q    S S E  Q       W                 
-------------------------|--------------------------|-------------------|
-------------------------|--------------------------|-------------------|
-------------------------|--3-4-3--3----2-3-2--2----|-------------------|
--0----0--0--3-4-3--1----|--------------------------|--0----------------|


  W                   W                   H        H         
-------------------|-------------------|--------------------|
-------------------|-------------------|--------------------|
-------------------|-------------------|--------------------|
--L----------------|--L----------------|--4--------5--------|


  Q    Q    Q    Q       W                   W                 
----------------------|-------------------|-------------------|
----------------------|-------------------|-------------------|
----------------------|-------------------|-------------------|
--0-------------------|-------------------|--0----------------|


             |--3--|                                                      
  E  E  Q    E  E  E  Q       Q    Q    Q    Q       Q    Q    Q    Q     
---------------------------|----------------------|----------------------|
---------------------------|----------------------|----------------------|
---------------------------|-------7--------------|----------------------|
--4--4--4----5--5--5--5----|--0---------8----7----|--4----5----1----2----|


  Q    Q    Q    Q       H        H           Q    Q    Q    Q     
----------------------|--------------------|----------------------|
----------------------|--------------------|----------------------|
-------7--------------|--------------------|-------7--------------|
--0---------8----7----|--4--------5--------|--0---------8----7----|


                                                           |--3--|        
  Q    Q    Q    Q       Q    Q    Q    Q       E  E  Q    E  E  E  Q     
----------------------|----------------------|---------------------------|
----------------------|----------------------|---------------------------|
----------------------|-------7--------------|---------------------------|
--4----5----1----2----|--0---------8----7----|--4--4--4----5--5--5--5----|


  S S S S S S S S S S S S S S S S    S S S S S S S S S S S S S S S S  
----------------------------------|----------------------------------|
----------------------------------|----------------------------------|
----------7-7-7-7-----------------|----------------------------------|
--0-0-0-0---------8-8-8-8-7-7-7-7-|--4-4-4-4-5-5-5-5-1-1-1-1-2-2-2-2-|


  S S S S S S S S S S S S S S S S    S S S S S S S S S S S S S S S S  
----------------------------------|----------------------------------|
----------------------------------|----------------------------------|
----------7-7-7-7-----------------|----------------------------------|
--0-0-0-0---------8-8-8-8-7-7-7-7-|--4-4-4-4-4-4-4-4-5-5-5-5-5-5-5-5-|


  S S S S S S S S S S S S S S S S    S S S S S S S S S S S S S S S S  
----------------------------------|----------------------------------|
----------------------------------|----------------------------------|
----------7-7-7-7-----------------|----------------------------------|
--0-0-0-0---------8-8-8-8-7-7-7-7-|--4-4-4-4-5-5-5-5-1-1-1-1-2-2-2-2-|


  S S S S S S S S S S S S S S S S    S S S S S S S S S S S S S S S S  
----------------------------------|----------------------------------|
----------------------------------|----------------------------------|
----------7-7-7-7-----------------|----------------------------------|
--0-0-0-0---------8-8-8-8-7-7-7-7-|--4-4-4-4-4-4-4-4-5-5-5-5-5-5-5-5-|


  S S S S S S S S S S S S S S S S    S S S S S S S S S S S S S S S S  
----------------------------------|----------------------------------|
----------------------------------|----------------------------------|
----------7-7-7-7-----------------|----------------------------------|
--0-0-0-0---------8-8-8-8-7-7-7-7-|--4-4-4-4-5-5-5-5-1-1-1-1-2-2-2-2-|


  S S S S S S S S S S S S S S S S    S S S S S S S S S S S S S S S S  
----------------------------------|----------------------------------|
----------------------------------|----------------------------------|
----------7-7-7-7-----------------|----------------------------------|
--0-0-0-0---------8-8-8-8-7-7-7-7-|--4-4-4-4-4-4-4-4-5-5-5-5-5-5-5-5-|


  S S S S S S S S S S S S S S S S    S S S S S S S S S S S S S S S S  
----------------------------------|----------------------------------|
----------------------------------|----------------------------------|
----------7-7-7-7-----------------|----------------------------------|
--0-0-0-0---------8-8-8-8-7-7-7-7-|--4-4-4-4-5-5-5-5-1-1-1-1-2-2-2-2-|


                                                |--3--|        
  S S S S S S S S S S S S S S S S    E  E  Q    E  E  E  Q     
----------------------------------|---------------------------|
----------------------------------|---------------------------|
----------7-7-7-7-----------------|---------------------------|
--0-0-0-0---------8-8-8-8-7-7-7-7-|--4--4--4----5--5--5--5----|


  Q    Q    Q    Q       Q    Q    Q    Q       Q    Q    Q    Q     
----------------------|----------------------|----------------------|
----------------------|----------------------|----------------------|
-------7--------------|----------------------|-------7--------------|
--0---------8----7----|--4----5----1----2----|--0---------8----7----|


                                                             |-3| |-3|  
  H        H           Q    Q    Q    Q       Q    Q    Q    E  S E  S  
--------------------|----------------------|---------------------------|
--------------------|----------------------|---------------------------|
--------------------|-------7--------------|---------------------------|
--4--------5--------|--0---------8----7----|--4----5----1----2--L-2--L-|


                                                             PM         
  Q    Q    Q    Q       H        H           H        T T T Q    E  T  
----------------------|--------------------|---------------------------|
----------------------|--------------------|---------------------------|
-------7--------------|--------------------|---------------------------|
--0---------8----7----|--4--------5--------|--0--------0-0-0-0----L--L-|


                 PM                          PM         
  H        T T T Q    E  T    H        T T T Q    E  T  
---------------------------|---------------------------|
---------------------------|---------------------------|
---------------------------|---------------------------|
--0--------0-0-0-0----L--L-|--0--------0-0-0-0----L--L-|


                                                    PM         
  S S S S S S S S S S S S S S S S    H        T T T Q    E  T  
----------------------------------|---------------------------|
----------------------------------|---------------------------|
----------------------------------|---------------------------|
--3-3-3-3-3-3-3-3-4-4-4-4-4-4-4-4-|--0--------0-0-0-0----L--L-|


                 PM                          PM         
  H        T T T Q    E  T    H        T T T Q    E  T  
---------------------------|---------------------------|
---------------------------|---------------------------|
---------------------------|---------------------------|
--0--------0-0-0-0----L--L-|--0--------0-0-0-0----L--L-|


  S S S S S S S S S S S S S S S S    H        S S S S S S S S  
----------------------------------|---------------------------|
----------------------------------|---------------------------|
----------------------------------|---------------------------|
--3-3-3-3-3-3-3-3-4-4-4-4-4-4-4-4-|--0--------3-3-3-3-4-4-4-4-|


  H        S S S S S S S S    H        S S S S S S S S  
---------------------------|---------------------------|
---------------------------|---------------------------|
---------------------------|---------------------------|
--0--------3-3-3-3-4-4-4-4-|--0--------3-3-3-3-4-4-4-4-|


  |--3--|       |--3--|                                    
  E  E  E  Q    E  E  E  Q       H        S S S S S S S S  
------------------------------|---------------------------|
------------------------------|---------------------------|
------------------------------|---------------------------|
--3--3--3--3----4--4--4--4----|--0--------3-3-3-3-4-4-4-4-|


  H        S S S S S S S S    H        S S S S S S S S  
---------------------------|---------------------------|
---------------------------|---------------------------|
---------------------------|---------------------------|
--0--------3-3-3-3-4-4-4-4-|--0--------3-3-3-3-4-4-4-4-|


                                                PM         
  |--3--|       |--3--|                                    
  E  E  E  Q    E  E  E  Q       H        T T T Q    E  T  
------------------------------|---------------------------|
------------------------------|---------------------------|
------------------------------|---------------------------|
--3--3--3--3----4--4--4--4----|--0--------0-0-0-0----L--L-|


                 PM                          PM         
  H        T T T Q    E  T    H        T T T Q    E  T  
---------------------------|---------------------------|
---------------------------|---------------------------|
---------------------------|---------------------------|
--0--------0-0-0-0----L--L-|--0--------0-0-0-0----L--L-|


                                                    PM         
  S S S S S S S S S S S S S S S S    H        T T T Q    E  T  
----------------------------------|---------------------------|
----------------------------------|---------------------------|
----------------------------------|---------------------------|
--3-3-3-3-3-3-3-3-4-4-4-4-4-4-4-4-|--0--------0-0-0-0----L--L-|


                 PM                          PM         
  H        T T T Q    E  T    H        T T T Q    E  T  
---------------------------|---------------------------|
---------------------------|---------------------------|
---------------------------|---------------------------|
--0--------0-0-0-0----L--L-|--0--------0-0-0-0----L--L-|


  S S S S S S S S Q    Q              
----------------------------|-------||
----------------------------|-------||
----------------------------|-------||
--3-3-3-3-3-3-3-3-4---------|-------||




Duration Legend
---------------
W - whole
H - half
Q - quarter
E - 8th
S - 16th
T - 32nd
X - 64th
. - note dotted
|-n-|  - n-tuplets


Tablature Legend
----------------
L - tied note
x - dead note
g - grace note
(n) - ghost note
> - accentuded note
NH - natural harmonic
AH - artificial harmonic
TH - tapped harmonic
SH - semi harmonic
PH - pitch harmonic
h - hammer on
p - pull off
b - bend
br - bendRelease
pb - preBend
pbr - preBendRelease
brb - bendReleaseBend
\n/ - tremolo bar dip
\n - tremolo bar dive
-/n - tremolo bar Release up
/n\ - tremolo bar inverted dip
/n - tremolo bar return
-\n - tremolo bar Release down
S - shift slide
s - legato slide
/ -  slide into from below or out of upwards
\ -  slide into from above or out of downwards
~ - vibrato
W - wide vibrato
tr - trill
TP - tremolo picking
T - tapping
S - slap
P - pop
< - fade in
^ - brush up
v - brush down
comments
We did not receive enough feedback on this tab! Please rate:
print report bad tab
1 2 3 4 5
I want to post or [tab]
guest
You may want to rate the tab now too:
select rating
Please do not post tabs as comments. Select "correction" instead!