Oops, an error
Loading. Please wait.

Tearing Inside The Womb Tab

ver1
ver1

Whole song

Interactive

More versions @911Tabs.com
764 views 3 this week
no commentswrite comment
1 2 3 4 5
accurate
x 1
add to favorites launch autoscroll
font size
0
reset
Autoscroll
+/-
esc
set tempo
stop
Contributor
WARNING: You are trying to view
                                    content from Ultimate-Guitar.com
                                    in an unauthorized application,
                                    which is prohibited.

                                    Please use an official Ultimate
                                    Guitar Tabs application for iPhone,
                                    iPad or Android to access legitimate
                                    chords, guitar, bass, and drum tabs
                                    from Ultimate-Guitar.com database.

                                    Type "ultimate guitar tabs" in Apple
                                    App Store's or Android Market's
                                    search to find the application.
Tearing Inside the Womb                             
Dying fetus



Tuning: C# F# B E G# C#



      W                   W                 
C#||-------------------|-------------------|
G#||-------------------|-------------------|
E ||-------------------|-------------------|
B ||--8----------------|--7----------------|
F#||--6----------------|--5----------------|
C#||--6----------------|--5----------------|


               PM PM PM                                      
  E  S S E  E  E  E  E  S S E  E  E  E     W                 
----------------------------------------|-------------------|
----------------------------------------|-------------------|
----------------------------------------|-------------------|
-------------------------------------4--|--8----------------|
--2---------3--2--2--2---------3--2--2--|--6----------------|
--0--0-0-0--1--0--0--0--0-0-0--1--0-----|--6----------------|


                                   PM PM PM                  
  W                   E  S S E  E  E  E  E  S S E  E  E  E   
-------------------|----------------------------------------|
-------------------|----------------------------------------|
-------------------|----------------------------------------|
--7----------------|-------------------------------------4--|
--5----------------|--2---------3--2--2--2---------3--2--2--|
--5----------------|--0--0-0-0--1--0--0--0--0-0-0--1--0-----|


               PM PM PM                  
  E  S S E  E  E  E  E  S S E  E  E  E   
----------------------------------------|
----------------------------------------|
----------------------------------------|
-------------------------------------4--|
--2---------3--2--2--2---------3--2--2--|
--0--0-0-0--1--0--0--0--0-0-0--1--0-----|


               PM PM PM                  
  E  S S E  E  E  E  E  S S E  E  E  E   
----------------------------------------|
----------------------------------------|
----------------------------------------|
-------------------------------------4--|
--2---------3--2--2--2---------3--2--2--|
--0--0-0-0--1--0--0--0--0-0-0--1--0-----|


               PM PM PM                  
  E  S S E  E  E  E  E  S S E  E   Q     
----------------------------------------|
----------------------------------------|
----------------------------------------|
----------------------------------------|
--2---------3--2--2--2---------9\--L----|
--0--0-0-0--1--0--0--0------------------|


               PM PM PM                  
  E  S S E  E  E  E  E  S S E  E  E  E   
----------------------------------------|
----------------------------------------|
----------------------------------------|
-------------------------------------4--|
--2---------3--2--2--2---------3--2--2--|
--0--0-0-0--1--0--0--0--0-0-0--1--0-----|


               PM PM PM                  
  E  S S E  E  E  E  E  S S E  E  E  E   
----------------------------------------|
----------------------------------------|
----------------------------------------|
-------------------------------------4--|
--2---------3--2--2--2---------3--2--2--|
--0--0-0-0--1--0--0--0--0-0-0--1--0-----|


               PM PM PM                  
  E  S S E  E  E  E  E  S S E  E  E  E   
----------------------------------------|
----------------------------------------|
----------------------------------------|
-------------------------------------4--|
--2---------3--2--2--2---------3--2--2--|
--0--0-0-0--1--0--0--0--0-0-0--1--0-----|


               PM PM PM                                      
  E  S S E  E  E  E  E  S S E  E  E  E     W                 
----------------------------------------|-------------------|
----------------------------------------|-------------------|
----------------------------------------|-------------------|
-------------------------------------4--|--8----------------|
--2---------3--2--2--2---------3--2--2--|--6----------------|
--0--0-0-0--1--0--0--0--0-0-0--1--0-----|--6----------------|


                                   PM PM PM                  
  W                   E  S S E  E  E  E  E  S S E  E  E  E   
-------------------|----------------------------------------|
-------------------|----------------------------------------|
-------------------|----------------------------------------|
--7----------------|-------------------------------------4--|
--5----------------|--2---------3--2--2--2---------3--2--2--|
--5----------------|--0--0-0-0--1--0--0--0--0-0-0--1--0-----|


  W                   W                 
-------------------|-------------------|
-------------------|-------------------|
-------------------|-------------------|
--8----------------|--7----------------|
--6----------------|--5----------------|
--6----------------|--5----------------|


               PM PM PM                                      
  E  S S E  E  E  E  E  S S E  E  E  E     W                 
----------------------------------------|-------------------|
----------------------------------------|-------------------|
----------------------------------------|-------------------|
-------------------------------------4--|--8----------------|
--2---------3--2--2--2---------3--2--2--|--6----------------|
--0--0-0-0--1--0--0--0--0-0-0--1--0-----|--6----------------|


                                   PM PM PM                  
  W                   E  S S E  E  E  E  E  S S E  E  E  E   
-------------------|----------------------------------------|
-------------------|----------------------------------------|
-------------------|----------------------------------------|
--7----------------|-------------------------------------4--|
--5----------------|--2---------3--2--2--2---------3--2--2--|
--5----------------|--0--0-0-0--1--0--0--0--0-0-0--1--0-----|


  W                   W                 
-------------------|-------------------|
-------------------|-------------------|
-------------------|-------------------|
--8----------------|--7----------------|
--6----------------|--5----------------|
--6----------------|--5----------------|


               PM PM PM                  
  E  S S E  E  E  E  E  S S E  E  E  E   
----------------------------------------|
----------------------------------------|
----------------------------------------|
-------------------------------------4--|
--2---------3--2--2--2---------3--2--2--|
--0--0-0-0--1--0--0--0--0-0-0--1--0-----|


               PM PM PM                  
  E  S S E  E  E  E  E  S S E  E  E  E   
----------------------------------------|
----------------------------------------|
----------------------------------------|
-------------------------------------4--|
--2---------3--2--2--2---------3--2--2--|
--0--0-0-0--1--0--0--0--0-0-0--1--0-----|


               PM PM PM                  
  E  S S E  E  E  E  E  S S E  E  E  E   
----------------------------------------|
----------------------------------------|
----------------------------------------|
-------------------------------------4--|
--2---------3--2--2--2---------3--2--2--|
--0--0-0-0--1--0--0--0--0-0-0--1--0-----|


               PM PM PM                                                     
  E  S S E  E  E  E  E  S S E  E  E  E     S S S S S S S S S S S S S S S S  
----------------------------------------|----------------------------------|
----------------------------------------|----------------------------------|
----------------------------------------|----------------------------------|
-------------------------------------4--|------------------6-6-6-6-7-7-7-7-|
--2---------3--2--2--2---------3--2--2--|----------5-5-5-5-----------------|
--0--0-0-0--1--0--0--0--0-0-0--1--0-----|--0-0-0-0-------------------------|


  S S S S S S S S S S S S S S S S    H        Q    Q     
----------------------------------|---------------------|
----------------------------------|---------------------|
----------------------------------|---------------------|
------------------6-6-6-6-7-7-7-7-|---------------------|
----------5-5-5-5-----------------|--2--------L----2----|
--0-0-0-0-------------------------|--0--------L----0----|


              PM PM                                                  
  H        E  E  E  E     Q    S Q    Q    E  S    S Q    Q    E  S  
-----------------------|------------------------|-------------------|
-----------------------|------------------------|-------------------|
-----------------------|------------------------|-------------------|
-----------------------|------------------------|-------------------|
--2--------L--2--2--2--|--L----L-2----L----2--L-|--L-2----2----L--L-|
--0--------L--0--0--0--|--L----L-0----L----0--L-|--L-0----0-------L-|


  S S S S S S S S S S S S S S S S    S S S S S S S S S S S S S S S S  
----------------------------------|----------------------------------|
----------------------------------|----------------------------------|
----------------------------------|----------------------------------|
------------------6-6-6-6-7-7-7-7-|------------------6-6-6-6-7-7-7-7-|
----------5-5-5-5-----------------|----------5-5-5-5-----------------|
--0-0-0-0-------------------------|--0-0-0-0-------------------------|


                                    PM PM                              
  H        Q    Q       H        E  E  E  E     Q    S Q    Q    E  S  
---------------------|-----------------------|------------------------|
---------------------|-----------------------|------------------------|
---------------------|-----------------------|------------------------|
---------------------|-----------------------|------------------------|
--2--------L----2----|--2--------L--2--2--2--|--L----L-2----L----2--L-|
--0--------L----0----|--0--------L--0--0--0--|--L----L-0----L----0--L-|


  S Q    Q    E  S    S S S S S S S S S S S S S S S S  
-------------------|----------------------------------|
-------------------|----------------------------------|
-------------------|----------------------------------|
-------------------|------------------6-6-6-6-7-7-7-7-|
--L-2----2----L--L-|----------5-5-5-5-----------------|
--L-0----0-------L-|--0-0-0-0-------------------------|


  S S S S S S S S S S S S S S S S    H        Q    Q     
----------------------------------|---------------------|
----------------------------------|---------------------|
----------------------------------|---------------------|
------------------6-6-6-6-7-7-7-7-|---------------------|
----------5-5-5-5-----------------|--2--------L----2----|
--0-0-0-0-------------------------|--0--------L----0----|


              PM PM                                                  
  H        E  E  E  E     Q    S Q    Q    E  S    S Q    Q    E  S  
-----------------------|------------------------|-------------------|
-----------------------|------------------------|-------------------|
-----------------------|------------------------|-------------------|
-----------------------|------------------------|-------------------|
--2--------L--2--2--2--|--L----L-2----L----2--L-|--L-2----2----L--L-|
--0--------L--0--0--0--|--L----L-0----L----0--L-|--L-0----0-------L-|


  S S S S S S S S S S S S S S S S    S S S S S S S S S S S S S S S S  
----------------------------------|----------------------------------|
----------------------------------|----------------------------------|
----------------------------------|----------------------------------|
------------------6-6-6-6-7-7-7-7-|------------------6-6-6-6-7-7-7-7-|
----------5-5-5-5-----------------|----------5-5-5-5-----------------|
--0-0-0-0-------------------------|--0-0-0-0-------------------------|


  W                   W                                                 
-------------------|-------------------|-------|-------|-------|-------|
-------------------|-------------------|-------|-------|-------|-------|
-------------------|-------------------|-------|-------|-------|-------|
-------------------|-------------------|-------|-------|-------|-------|
--2----------------|--L----------------|-------|-------|-------|-------|
--0----------------|--L----------------|-------|-------|-------|-------|


  S S S S S S S S S  S  S  S  S  S  S  S  
-----------------------------------------|
-----------------------------------------|
-----------------------------------------|
-----------------------------------------|
------------------8p-7h-8p-7h-8p-7h-8p-7-|
--0-0-0-0-7-7-7-7------------------------|


  S S S S S S S S S  S  S  S  S  S  S  S  
-----------------------------------------|
-----------------------------------------|
-----------------------------------------|
-----------------------------------------|
------------------8p-7h-8p-7h-8p-7h-8p-7-|
--0-0-0-0-7-7-7-7------------------------|


                                            PM PM PM PM PM PM       
  S S S S S S S S S  S  S  S  S  S  S  S    E  E  E  E  E  E  Q     
-----------------------------------------|-------------------------|
-----------------------------------------|-------------------------|
-----------------------------------------|-------------------------|
-----------------------------------------|--8-----------------9----|
------------------8p-7h-8p-7h-8p-7h-8p-7-|--6--9--2--9--8--2--7----|
--0-0-0-0-7-7-7-7------------------------|-----7--0--7--6--0-------|


  S S S S S S S S S  S  S  S  S  S  S  S  
-----------------------------------------|
-----------------------------------------|
-----------------------------------------|
-----------------------------------------|
------------------8p-7h-8p-7h-8p-7h-8p-7-|
--0-0-0-0-7-7-7-7------------------------|


  S S S S S S S S S  S  S  S  S  S  S  S  
-----------------------------------------|
-----------------------------------------|
-----------------------------------------|
-----------------------------------------|
------------------8p-7h-8p-7h-8p-7h-8p-7-|
--0-0-0-0-7-7-7-7------------------------|


                                            PM PM PM PM PM PM       
  S S S S S S S S S  S  S  S  S  S  S  S    E  E  E  E  E  E  Q     
-----------------------------------------|-------------------------|
-----------------------------------------|-------------------------|
-----------------------------------------|-------------------------|
-----------------------------------------|--8-----------------9----|
------------------8p-7h-8p-7h-8p-7h-8p-7-|--6--9--2--9--8--2--7----|
--0-0-0-0-7-7-7-7------------------------|-----7--0--7--6--0-------|


  S S S S S S S S S  S  S  S  S  S  S  S  
-----------------------------------------|
-----------------------------------------|
-----------------------------------------|
-----------------------------------------|
------------------8p-7h-8p-7h-8p-7h-8p-7-|
--0-0-0-0-7-7-7-7------------------------|


  S S S S S S S S S  S  S  S  S  S  S  S  
-----------------------------------------|
-----------------------------------------|
-----------------------------------------|
-----------------------------------------|
------------------8p-7h-8p-7h-8p-7h-8p-7-|
--0-0-0-0-7-7-7-7------------------------|


                                            PM PM PM PM PM PM       
  S S S S S S S S S  S  S  S  S  S  S  S    E  E  E  E  E  E  Q     
-----------------------------------------|-------------------------|
-----------------------------------------|-------------------------|
-----------------------------------------|-------------------------|
-----------------------------------------|--8-----------------9----|
------------------8p-7h-8p-7h-8p-7h-8p-7-|--6--9--2--9--8--2--7----|
--0-0-0-0-7-7-7-7------------------------|-----7--0--7--6--0-------|


  S S S S S S S S S S S S S S S S    S S S S S S S S S S S S S S S S  
----------------------------------|----------------------------------|
----------------------------------|----------------------------------|
----------------------------------|----------------------------------|
----------------------------------|----------------------------------|
--------------------------8-8-8-8-|--7-7-7-7-------------------------|
--0-0-0-0-7-7-7-7-6-6-6-6---------|----------7-7-7-7-6-6-6-6-7-7-7-7-|


  H        Q    Q       H        Q    Q       S S S S S S S S S S S S S S S S  
---------------------|---------------------|----------------------------------|
---------------------|---------------------|----------------------------------|
---------------------|---------------------|----------------------------------|
----------------5----|---------------------|----------------------------------|
--4--------L----3----|--3--------L----5----|--------------------------8-8-8-8-|
--2--------L---------|--1--------L----3----|--0-0-0-0-7-7-7-7-6-6-6-6---------|


  S S S S S S S S S S S S S S S S    H        Q    Q       H        Q    Q     
----------------------------------|---------------------|---------------------|
----------------------------------|---------------------|---------------------|
----------------------------------|---------------------|---------------------|
----------------------------------|----------------5----|---------------------|
--7-7-7-7-------------------------|--4--------L----3----|--3--------L----5----|
----------7-7-7-7-6-6-6-6-7-7-7-7-|--2--------L---------|--1--------L----3----|


  S S S S S S S S S S S S S S S S    S S S S S S S S S S S S S S S S  
----------------------------------|----------------------------------|
----------------------------------|----------------------------------|
----------------------------------|----------------------------------|
----------------------------------|----------------------------------|
--------------------------8-8-8-8-|--7-7-7-7-------------------------|
--0-0-0-0-7-7-7-7-6-6-6-6---------|----------7-7-7-7-6-6-6-6-7-7-7-7-|


  H        Q    Q       H        Q    Q       S S S S S S S S S S S S S S S S  
---------------------|---------------------|----------------------------------|
---------------------|---------------------|----------------------------------|
---------------------|---------------------|----------------------------------|
----------------5----|---------------------|----------------------------------|
--4--------L----3----|--3--------L----5----|--------------------------8-8-8-8-|
--2--------L---------|--1--------L----3----|--0-0-0-0-7-7-7-7-6-6-6-6---------|


  S S S S S S S S S S S S S S S S    S S S S S S S S S S S S S S S S  
----------------------------------|----------------------------------|
----------------------------------|----------------------------------|
----------------------------------|----------------------------------|
----------------------------------|----------------------------------|
--7-7-7-7-------------------------|--------------------------3-3-3-3-|
----------7-7-7-7-6-6-6-6-7-7-7-7-|--2-2-2-2-2-2-2-2-2-2-2-2---------|


  S S S S S S S S S S S S S S S S    S S S S S S S S S S S S S S S S  
----------------------------------|----------------------------------|
----------------------------------|----------------------------------|
----------------------------------|----------------------------------|
----------------------------------|----------------------------------|
--------------------------2-2-2-2-|--------------------------3-3-3-3-|
--1-1-1-1-1-1-1-1-1-1-1-1---------|--2-2-2-2-2-2-2-2-2-2-2-2---------|


  S S S S S S S S S S S S S S S S    S S S S S S S S S S S S S S S S  
----------------------------------|----------------------------------|
----------------------------------|----------------------------------|
----------------------------------|----------------------------------|
----------------------------------|----------------------------------|
--------------------------2-2-2-2-|--------------------------3-3-3-3-|
--1-1-1-1-1-1-1-1-1-1-1-1---------|--2-2-2-2-2-2-2-2-2-2-2-2---------|


  S S S S S S S S S S S S S S S S    Q    E  E  Q    E  E   
----------------------------------|------------------------|
----------------------------------|------------------------|
----------------------------------|------------------------|
----------------------------------|-------------4----------|
--------------------------2-2-2-2-|--2----------2----------|
--1-1-1-1-1-1-1-1-1-1-1-1---------|--0----0--0-------0--0--|


  Q    E  E  E   E  E   E     Q    E  E  Q    E  E     E  E  E  Q    E  E  E   
---------------------------|------------------------|-------------------------|
---------------------------|------------------------|-------------------------|
---------------------------|------------------------|-------------------------|
---------------------------|-------------3----------|-------------------------|
--3----------5S--6--5S--6--|--2----------1----------|--3--3-----6----5-----3--|
--1----0--0--3S--4--3S--4--|--0----0--0-------0--0--|--1--1-----4----3-----1--|


  Q    E  E  Q    E  E     Q    E  E  E   E  E   E     Q    E  E  Q    E  E   
------------------------|---------------------------|------------------------|
------------------------|---------------------------|------------------------|
------------------------|---------------------------|------------------------|
-------------4----------|---------------------------|-------------3----------|
--2----------2----------|--3----------5S--6--5S--6--|--2----------1----------|
--0----0--0-------0--0--|--1----0--0--3S--4--3S--4--|--0----0--0-------0--0--|


  E  E  E  Q    E  E  E     Q    E  E  Q    E  E     Q    E  E  E   E  E   E   
-------------------------|------------------------|---------------------------|
-------------------------|------------------------|---------------------------|
-------------------------|------------------------|---------------------------|
-------------------------|-------------4----------|---------------------------|
--3--3-----6----5-----3--|--2----------2----------|--3----------5S--6--5S--6--|
--1--1-----4----3-----1--|--0----0--0-------0--0--|--1----0--0--3S--4--3S--4--|


  Q    E  E  Q    E  E     E  E  E  Q    E  E  E     Q    E  E  Q    E  E   
------------------------|-------------------------|------------------------|
------------------------|-------------------------|------------------------|
------------------------|-------------------------|------------------------|
-------------3----------|-------------------------|-------------4----------|
--2----------1----------|--3--3-----6----5-----3--|--2----------2----------|
--0----0--0-------0--0--|--1--1-----4----3-----1--|--0----0--0-------0--0--|


  Q    E  E  E   E  E   E     Q    E  E  Q    E  E     E  E  E  Q    E  E  E   
---------------------------|------------------------|-------------------------|
---------------------------|------------------------|-------------------------|
---------------------------|------------------------|-------------------------|
---------------------------|-------------3----------|-------------------------|
--3----------5S--6--5S--6--|--2----------1----------|--3--3-----6----5-----3--|
--1----0--0--3S--4--3S--4--|--0----0--0-------0--0--|--1--1-----4----3-----1--|


             PM PM PM PM               PM PM PM PM               PM PM PM PM  
  Q    E  E  E  E  E  E     Q    E  E  E  E  E  E     Q    E  E  E  E  E  E   
-------------------------|-------------------------|-------------------------|
-------------------------|-------------------------|-------------------------|
-------------------------|-------------------------|-------------------------|
-------------------------|-------------5--4--2--4--|-------------------------|
--2----------5--4--2--4--|--2----------3--2--0--2--|--2----------5--4--2--4--|
--0----0--0--3--2--0--2--|--0----0--0--------------|--0----0--0--3--2--0--2--|


  PM PM PM PM PM PM PM PM               PM PM PM PM               PM PM PM PM  
  E  E  E  E  E  E  E  E     Q    E  E  E  E  E  E     Q    E  E  E  E  E  E   
--------------------------|-------------------------|-------------------------|
--------------------------|-------------------------|-------------------------|
--------------------------|-------------------------|-------------------------|
--------------------------|-------------------------|-------------5--4--2--4--|
--3--3--3--3--3--3--5--4--|--2----------5--4--2--4--|--2----------3--2--0--2--|
--1--1--1--1--1--1--3--2--|--0----0--0--3--2--0--2--|--0----0--0--------------|


             PM PM PM PM    PM PM PM PM PM PM PM PM               PM PM PM PM  
  Q    E  E  E  E  E  E     E  E  E  E  E  E  E  E     Q    E  E  E  E  E  E   
-------------------------|--------------------------|-------------------------|
-------------------------|--------------------------|-------------------------|
-------------------------|--------------------------|-------------------------|
-------------------------|--------------------------|-------------------------|
--2----------5--4--2--4--|--3--3--3--3--3--3--5--4--|--2----------5--4--2--4--|
--0----0--0--3--2--0--2--|--1--1--1--1--1--1--3--2--|--0----0--0--3--2--0--2--|


             PM PM PM PM               PM PM PM PM    PM PM PM PM PM PM PM PM  
  Q    E  E  E  E  E  E     Q    E  E  E  E  E  E     E  E  E  E  E  E  E  E   
-------------------------|-------------------------|--------------------------|
-------------------------|-------------------------|--------------------------|
-------------------------|-------------------------|--------------------------|
-------------5--4--2--4--|-------------------------|--------------------------|
--2----------3--2--0--2--|--2----------5--4--2--4--|--3--3--3--3--3--3--5--4--|
--0----0--0--------------|--0----0--0--3--2--0--2--|--1--1--1--1--1--1--3--2--|


             PM PM PM PM               PM PM PM PM               PM PM PM PM  
  Q    E  E  E  E  E  E     Q    E  E  E  E  E  E     Q    E  E  E  E  E  E   
-------------------------|-------------------------|-------------------------|
-------------------------|-------------------------|-------------------------|
-------------------------|-------------------------|-------------------------|
-------------------------|-------------5--4--2--4--|-------------------------|
--2----------5--4--2--4--|--2----------3--2--0--2--|--2----------5--4--2--4--|
--0----0--0--3--2--0--2--|--0----0--0--------------|--0----0--0--3--2--0--2--|


  E  E  E  Q    E  E  E     Q    E  E  S S E  Q       Q    E  E  S S E  Q     
-------------------------|-------------------------|-------------------------|
-------------------------|-------------------------|-------------------------|
-------------------------|-------------------------|-------------------------|
-------------------------|-------------------------|-------------------------|
--3--3-----6----5-----3--|--2-----------------3----|--2-----------------3----|
--1--1-----4----3-----1--|--0----0--0--3-4-3--1----|--0----0--0--3-4-3--1----|


  Q    E  E  S S E  Q       S S E  Q     S S E  Q      
-------------------------|----------------------------|
-------------------------|----------------------------|
-------------------------|----------------------------|
-------------------------|----------------------------|
--2-----------------3----|--3-4-3--3~----2-3-2--2~----|
--0----0--0--3-4-3--1----|----------------------------|


  Q    E  E  S S E  Q       Q    E  E  S S E  Q       Q    E  E  S S E  Q     
-------------------------|-------------------------|-------------------------|
-------------------------|-------------------------|-------------------------|
-------------------------|-------------------------|-------------------------|
-------------------------|-------------------------|-------------------------|
--2-----------------3----|--2-----------------3----|--2-----------------3----|
--0----0--0--3-4-3--1----|--0----0--0--3-4-3--1----|--0----0--0--3-4-3--1----|


  S S E  Q     S S E  Q        Q    E  E  S S E  Q     
----------------------------|-------------------------|
----------------------------|-------------------------|
----------------------------|-------------------------|
----------------------------|-------------------------|
--3-4-3--3~----2-3-2--2~----|--2-----------------3----|
----------------------------|--0----0--0--3-4-3--1----|


  Q    E  E  S S E  Q       Q    E  E  S S E  Q     
-------------------------|-------------------------|
-------------------------|-------------------------|
-------------------------|-------------------------|
-------------------------|-------------------------|
--2-----------------3----|--2-----------------3----|
--0----0--0--3-4-3--1----|--0----0--0--3-4-3--1----|


  S S E  Q     S S E  Q        Q    E  E  S S E  Q     
----------------------------|-------------------------|
----------------------------|-------------------------|
----------------------------|-------------------------|
----------------------------|-------------------------|
--3-4-3--3~----2-3-2--2~----|--2-----------------3----|
----------------------------|--0----0--0--3-4-3--1----|


  Q    E  E  S S E  Q       Q    E  E  S S E  Q     
-------------------------|-------------------------|
-------------------------|-------------------------|
-------------------------|-------------------------|
-------------------------|-------------------------|
--2-----------------3----|--2-----------------3----|
--0----0--0--3-4-3--1----|--0----0--0--3-4-3--1----|


  S S E  Q     S S E  Q        Q    E  E  S S E  Q     
----------------------------|-------------------------|
----------------------------|-------------------------|
----------------------------|-------------------------|
----------------------------|-------------------------|
--3-4-3--3~----2-3-2--2~----|--2-----------------3----|
----------------------------|--0----0--0--3-4-3--1----|


  Q    E  E  S S E  Q       Q    E  E  S S E  Q     
-------------------------|-------------------------|
-------------------------|-------------------------|
-------------------------|-------------------------|
-------------------------|-------------------------|
--2-----------------3----|--2-----------------3----|
--0----0--0--3-4-3--1----|--0----0--0--3-4-3--1----|


  S S E  Q     S S E  Q        Q    E  E  S S E  Q     
----------------------------|-------------------------|
----------------------------|-------------------------|
----------------------------|-------------------------|
----------------------------|-------------------------|
--3-4-3--3~----2-3-2--2~----|--2-----------------3----|
----------------------------|--0----0--0--3-4-3--1----|


  Q    E  E  S S E  Q       Q    E  E  S S E  Q     
-------------------------|-------------------------|
-------------------------|-------------------------|
-------------------------|-------------------------|
-------------------------|-------------------------|
--2-----------------3----|--2-----------------3----|
--0----0--0--3-4-3--1----|--0----0--0--3-4-3--1----|


  S S E  Q     S S E  Q        Q    Q    Q    Q       Q    Q    Q    Q      
----------------------------|----------------------|-----------------------|
----------------------------|----------------------|-----------------------|
----------------------------|----------------------|-----------------------|
----------------------------|----------------------|-----------------------|
--3-4-3--3~----2-3-2--2~----|-------7--------------|-----------------------|
----------------------------|--0---------8----7----|--4----5----1----2~----|


  Q    Q    Q    Q       H        H           Q    Q    Q    Q     
----------------------|--------------------|----------------------|
----------------------|--------------------|----------------------|
----------------------|--------------------|----------------------|
----------------------|--------------------|----------------------|
-------7--------------|--6--------7--------|-------7--------------|
--0---------8----7----|--4--------5--------|--0---------8----7----|


                                                            |--3--|        
  Q    Q    Q    Q        Q    Q    Q    Q       E  E  Q    E  E  E  Q     
-----------------------|----------------------|---------------------------|
-----------------------|----------------------|---------------------------|
-----------------------|----------------------|---------------------------|
-----------------------|----------------------|---------------------------|
-----------------------|-------7--------------|--6--6--6----7--7--7--7----|
--4----5----1----2~----|--0---------8----7----|--4--4--4----5--5--5--5----|


  Q    Q    Q    Q       Q    Q    Q    Q        Q    Q    Q    Q     
----------------------|-----------------------|----------------------|
----------------------|-----------------------|----------------------|
----------------------|-----------------------|----------------------|
----------------------|-----------------------|----------------------|
-------7--------------|-----------------------|-------7--------------|
--0---------8----7----|--4----5----1----2~----|--0---------8----7----|


  H        H           Q    Q    Q    Q       Q    Q    Q    Q      
--------------------|----------------------|-----------------------|
--------------------|----------------------|-----------------------|
--------------------|----------------------|-----------------------|
--------------------|----------------------|-----------------------|
--6--------7--------|-------7--------------|-----------------------|
--4--------5--------|--0---------8----7----|--4----5----1----2~----|


                                    |--3--|        
  Q    Q    Q    Q       E  E  Q    E  E  E  Q     
----------------------|---------------------------|
----------------------|---------------------------|
----------------------|---------------------------|
----------------------|---------------------------|
-------7--------------|--6--6--6----7--7--7--7----|
--0---------8----7----|--4--4--4----5--5--5--5----|


  S S S S S S S S S S S S S S S S    S S S S S S S S S S S S S S S S  
----------------------------------|----------------------------------|
----------------------------------|----------------------------------|
----------------------------------|----------------------------------|
----------------------------------|----------------------------------|
----------7-7-7-7-----------------|----------------------------------|
--0-0-0-0---------8-8-8-8-7-7-7-7-|--4-4-4-4-5-5-5-5-1-1-1-1-2-2-2-2-|


  S S S S S S S S S S S S S S S S    S S S S S S S S S S S S S S S S  
----------------------------------|----------------------------------|
----------------------------------|----------------------------------|
----------------------------------|----------------------------------|
----------------------------------|----------------------------------|
----------7-7-7-7-----------------|----------------------------------|
--0-0-0-0---------8-8-8-8-7-7-7-7-|--4-4-4-4-4-4-4-4-5-5-5-5-5-5-5-5-|


  S S S S S S S S S S S S S S S S    S S S S S S S S S S S S S S S S  
----------------------------------|----------------------------------|
----------------------------------|----------------------------------|
----------------------------------|----------------------------------|
----------------------------------|----------------------------------|
----------7-7-7-7-----------------|----------------------------------|
--0-0-0-0---------8-8-8-8-7-7-7-7-|--4-4-4-4-5-5-5-5-1-1-1-1-2-2-2-2-|


  S S S S S S S S S S S S S S S S    S S S S S S S S S S S S S S S S  
----------------------------------|----------------------------------|
----------------------------------|----------------------------------|
----------------------------------|----------------------------------|
----------------------------------|----------------------------------|
----------7-7-7-7-----------------|----------------------------------|
--0-0-0-0---------8-8-8-8-7-7-7-7-|--4-4-4-4-4-4-4-4-5-5-5-5-5-5-5-5-|


  S S S S S S S S S S S S S S S S    S S S S S S S S S S S S S S S S  
----------------------------------|----------------------------------|
----------------------------------|----------------------------------|
----------------------------------|----------------------------------|
----------------------------------|----------------------------------|
----------7-7-7-7-----------------|----------------------------------|
--0-0-0-0---------8-8-8-8-7-7-7-7-|--4-4-4-4-5-5-5-5-1-1-1-1-2-2-2-2-|


  S S S S S S S S S S S S S S S S    S S S S S S S S S S S S S S S S  
----------------------------------|----------------------------------|
----------------------------------|----------------------------------|
----------------------------------|----------------------------------|
----------------------------------|----------------------------------|
----------7-7-7-7-----------------|----------------------------------|
--0-0-0-0---------8-8-8-8-7-7-7-7-|--4-4-4-4-4-4-4-4-5-5-5-5-5-5-5-5-|


  S S S S S S S S S S S S S S S S    S S S S S S S S S S S S S S S S  
----------------------------------|----------------------------------|
----------------------------------|----------------------------------|
----------------------------------|----------------------------------|
----------------------------------|----------------------------------|
----------7-7-7-7-----------------|----------------------------------|
--0-0-0-0---------8-8-8-8-7-7-7-7-|--4-4-4-4-5-5-5-5-1-1-1-1-2-2-2-2-|


                                                |--3--|        
  S S S S S S S S S S S S S S S S    E  E  Q    E  E  E  Q     
----------------------------------|---------------------------|
----------------------------------|---------------------------|
----------------------------------|---------------------------|
----------------------------------|---------------------------|
----------7-7-7-7-----------------|--6--6--6----7--7--7--7----|
--0-0-0-0---------8-8-8-8-7-7-7-7-|--4--4--4----5--5--5--5----|


  Q    Q     Q    Q       Q    Q    Q    Q        Q    Q     Q    Q     
-----------------------|-----------------------|-----------------------|
-----------------------|-----------------------|-----------------------|
-----------------------|-----------------------|-----------------------|
-------9---------------|-----------------------|-------9---------------|
--2----7----10----9----|--6----7----3----4~----|--2----7----10----9----|
--0----------8----7----|--4----5----1----2~----|--0----------8----7----|


                                                              PM          
                                                              |-3| |-3-|  
  H        H           Q    Q     Q    Q       Q    Q    Q    E  S E   S  
--------------------|-----------------------|----------------------------|
--------------------|-----------------------|----------------------------|
--------------------|-----------------------|----------------------------|
--------------------|-------9---------------|----------------------------|
--6--------7--------|--2----7----10----9----|--6----7----3----4--L-4~--L-|
--4--------5--------|--0----------8----7----|--4----5----1----2--L-2~--L-|


                                                              PM         
  Q    Q     Q    Q       H        H           H        T T T Q    E  T  
-----------------------|--------------------|---------------------------|
-----------------------|--------------------|---------------------------|
-----------------------|--------------------|---------------------------|
-------9---------------|--------------------|---------------------------|
--2----7----10----9----|--6--------7--------|--2------------------------|
--0----------8----7----|--4--------5--------|--0--------0-0-0-0----L--L-|


                 PM                          PM         
  H        T T T Q    E  T    H        T T T Q    E  T  
---------------------------|---------------------------|
---------------------------|---------------------------|
---------------------------|---------------------------|
---------------------------|---------------------------|
--2------------------------|--2------------------------|
--0--------0-0-0-0----L--L-|--0--------0-0-0-0----L--L-|


                                                    PM         
  S S S S S S S S S S S S S S S S    H        T T T Q    E  T  
----------------------------------|---------------------------|
----------------------------------|---------------------------|
----------------------------------|---------------------------|
----------------------------------|---------------------------|
----------------------------------|--2------------------------|
--3-3-3-3-3-3-3-3-4-4-4-4-4-4-4-4-|--0--------0-0-0-0----L--L-|


                 PM                          PM         
  H        T T T Q    E  T    H        T T T Q    E  T  
---------------------------|---------------------------|
---------------------------|---------------------------|
---------------------------|---------------------------|
---------------------------|---------------------------|
--2------------------------|--2------------------------|
--0--------0-0-0-0----L--L-|--0--------0-0-0-0----L--L-|


  S S S S S S S S S S S S S S S S    H        S S S S S S S S  
----------------------------------|---------------------------|
----------------------------------|---------------------------|
----------------------------------|---------------------------|
----------------------------------|---------------------------|
----------------------------------|--2------------------------|
--3-3-3-3-3-3-3-3-4-4-4-4-4-4-4-4-|--0--------3-3-3-3-4-4-4-4-|


  H        S S S S S S S S    H        S S S S S S S S  
---------------------------|---------------------------|
---------------------------|---------------------------|
---------------------------|---------------------------|
---------------------------|---------------------------|
--2------------------------|--2------------------------|
--0--------3-3-3-3-4-4-4-4-|--0--------3-3-3-3-4-4-4-4-|


  |--3--|       |--3--|                                    
  E  E  E  Q    E  E  E  Q       H        S S S S S S S S  
------------------------------|---------------------------|
------------------------------|---------------------------|
------------------------------|---------------------------|
------------------------------|---------------------------|
--5--5--5--5----6--6--6--6----|--2------------------------|
--3--3--3--3----4--4--4--4----|--0--------3-3-3-3-4-4-4-4-|


  H        S S S S S S S S    H        S S S S S S S S  
---------------------------|---------------------------|
---------------------------|---------------------------|
---------------------------|---------------------------|
---------------------------|---------------------------|
--2------------------------|--2------------------------|
--0--------3-3-3-3-4-4-4-4-|--0--------3-3-3-3-4-4-4-4-|


                                                PM         
  |--3--|       |--3--|                                    
  E  E  E  Q    E  E  E  Q       H        T T T Q    E  T  
------------------------------|---------------------------|
------------------------------|---------------------------|
------------------------------|---------------------------|
------------------------------|---------------------------|
--5--5--5--5----6--6--6--6----|--2------------------------|
--3--3--3--3----4--4--4--4----|--0--------0-0-0-0----L--L-|


                 PM                          PM         
  H        T T T Q    E  T    H        T T T Q    E  T  
---------------------------|---------------------------|
---------------------------|---------------------------|
---------------------------|---------------------------|
---------------------------|---------------------------|
--2------------------------|--2------------------------|
--0--------0-0-0-0----L--L-|--0--------0-0-0-0----L--L-|


                                                    PM         
  S S S S S S S S S S S S S S S S    H        T T T Q    E  T  
----------------------------------|---------------------------|
----------------------------------|---------------------------|
----------------------------------|---------------------------|
----------------------------------|---------------------------|
----------------------------------|--2------------------------|
--3-3-3-3-3-3-3-3-4-4-4-4-4-4-4-4-|--0--------0-0-0-0----L--L-|


                 PM                          PM         
  H        T T T Q    E  T    H        T T T Q    E  T  
---------------------------|---------------------------|
---------------------------|---------------------------|
---------------------------|---------------------------|
---------------------------|---------------------------|
--2------------------------|--2------------------------|
--0--------0-0-0-0----L--L-|--0--------0-0-0-0----L--L-|


  S S S S S S S S Q    Q              
----------------------------|-------||
----------------------------|-------||
----------------------------|-------||
----------------------------|-------||
------------------6---------|-------||
--3-3-3-3-3-3-3-3-4---------|-------||




Duration Legend
---------------
W - whole
H - half
Q - quarter
E - 8th
S - 16th
T - 32nd
X - 64th
. - note dotted
|-n-|  - n-tuplets


Tablature Legend
----------------
L - tied note
x - dead note
g - grace note
(n) - ghost note
> - accentuded note
NH - natural harmonic
AH - artificial harmonic
TH - tapped harmonic
SH - semi harmonic
PH - pitch harmonic
h - hammer on
p - pull off
b - bend
br - bendRelease
pb - preBend
pbr - preBendRelease
brb - bendReleaseBend
\n/ - tremolo bar dip
\n - tremolo bar dive
-/n - tremolo bar Release up
/n\ - tremolo bar inverted dip
/n - tremolo bar return
-\n - tremolo bar Release down
S - shift slide
s - legato slide
/ -  slide into from below or out of upwards
\ -  slide into from above or out of downwards
~ - vibrato
W - wide vibrato
tr - trill
TP - tremolo picking
T - tapping
S - slap
P - pop
< - fade in
^ - brush up
v - brush down
comments
We did not receive enough feedback on this tab! Please rate:
print report bad tab
1 2 3 4 5
I want to post or [tab]
guest
You may want to rate the tab now too:
select rating
Please do not post tabs as comments. Select "correction" instead!